  0
SECTION
  2
HEADER
  9
$ACADVER
  1
AC1018
  9
$ACADMAINTVER
 70
     0
  9
$DWGCODEPAGE
  3
ANSI_1252
  9
$INSBASE
 10
0.0
 20
0.0
 30
0.0
  9
$EXTMIN
 10
-4.693444881889763
 20
-5.119606299212599
 30
0.0
  9
$EXTMAX
 10
4.605141732283465
 20
6.763503937007874
 30
0.0
  9
$LIMMIN
 10
0.0
 20
0.0
  9
$LIMMAX
 10
12.0
 20
9.0
  9
$ORTHOMODE
 70
     0
  9
$REGENMODE
 70
     1
  9
$FILLMODE
 70
     1
  9
$QTEXTMODE
 70
     0
  9
$MIRRTEXT
 70
     1
  9
$LTSCALE
 40
1.0
  9
$ATTMODE
 70
     1
  9
$TEXTSIZE
 40
0.2
  9
$TRACEWID
 40
0.05
  9
$TEXTSTYLE
  7
Standard
  9
$CLAYER
  8
0
  9
$CELTYPE
  6
ByLayer
  9
$CECOLOR
 62
   256
  9
$CELTSCALE
 40
1.0
  9
$DISPSILH
 70
     0
  9
$DIMSCALE
 40
1.0
  9
$DIMASZ
 40
0.18
  9
$DIMEXO
 40
0.0625
  9
$DIMDLI
 40
0.38
  9
$DIMRND
 40
0.0
  9
$DIMDLE
 40
0.0
  9
$DIMEXE
 40
0.18
  9
$DIMTP
 40
0.0
  9
$DIMTM
 40
0.0
  9
$DIMTXT
 40
0.18
  9
$DIMCEN
 40
0.09
  9
$DIMTSZ
 40
0.0
  9
$DIMTOL
 70
     0
  9
$DIMLIM
 70
     0
  9
$DIMTIH
 70
     1
  9
$DIMTOH
 70
     1
  9
$DIMSE1
 70
     0
  9
$DIMSE2
 70
     0
  9
$DIMTAD
 70
     0
  9
$DIMZIN
 70
     0
  9
$DIMBLK
  1

  9
$DIMASO
 70
     1
  9
$DIMSHO
 70
     1
  9
$DIMPOST
  1

  9
$DIMAPOST
  1

  9
$DIMALT
 70
     0
  9
$DIMALTD
 70
     2
  9
$DIMALTF
 40
25.4
  9
$DIMLFAC
 40
1.0
  9
$DIMTOFL
 70
     0
  9
$DIMTVP
 40
0.0
  9
$DIMTIX
 70
     0
  9
$DIMSOXD
 70
     0
  9
$DIMSAH
 70
     0
  9
$DIMBLK1
  1

  9
$DIMBLK2
  1

  9
$DIMSTYLE
  2
Standard
  9
$DIMCLRD
 70
     0
  9
$DIMCLRE
 70
     0
  9
$DIMCLRT
 70
     0
  9
$DIMTFAC
 40
1.0
  9
$DIMGAP
 40
0.09
  9
$DIMJUST
 70
     0
  9
$DIMSD1
 70
     0
  9
$DIMSD2
 70
     0
  9
$DIMTOLJ
 70
     1
  9
$DIMTZIN
 70
     0
  9
$DIMALTZ
 70
     0
  9
$DIMALTTZ
 70
     0
  9
$DIMUPT
 70
     0
  9
$DIMDEC
 70
     4
  9
$DIMTDEC
 70
     4
  9
$DIMALTU
 70
     2
  9
$DIMALTTD
 70
     2
  9
$DIMTXSTY
  7
Standard
  9
$DIMAUNIT
 70
     0
  9
$DIMADEC
 70
     0
  9
$DIMALTRND
 40
0.0
  9
$DIMAZIN
 70
     0
  9
$DIMDSEP
 70
    46
  9
$DIMATFIT
 70
     3
  9
$DIMFRAC
 70
     0
  9
$DIMLDRBLK
  1

  9
$DIMLUNIT
 70
     2
  9
$DIMLWD
 70
    -2
  9
$DIMLWE
 70
    -2
  9
$DIMTMOVE
 70
     0
  9
$LUNITS
 70
     2
  9
$LUPREC
 70
     4
  9
$SKETCHINC
 40
0.1
  9
$FILLETRAD
 40
0.5
  9
$AUNITS
 70
     0
  9
$AUPREC
 70
     0
  9
$MENU
  1
.
  9
$ELEVATION
 40
0.0
  9
$PELEVATION
 40
0.0
  9
$THICKNESS
 40
0.0
  9
$LIMCHECK
 70
     0
  9
$CHAMFERA
 40
0.5
  9
$CHAMFERB
 40
0.5
  9
$CHAMFERC
 40
1.0
  9
$CHAMFERD
 40
0.0
  9
$SKPOLY
 70
     0
  9
$TDCREATE
 40
2456891.405044155
  9
$TDUCREATE
 40
2456891.613377488
  9
$TDUPDATE
 40
2456891.405044167
  9
$TDUUPDATE
 40
2456891.6133775
  9
$TDINDWG
 40
0.0000000116
  9
$TDUSRTIMER
 40
0.0000000116
  9
$USRTIMER
 70
     1
  9
$ANGBASE
 50
0.0
  9
$ANGDIR
 70
     0
  9
$PDMODE
 70
     0
  9
$PDSIZE
 40
0.0
  9
$PLINEWID
 40
0.0
  9
$SPLFRAME
 70
     0
  9
$SPLINETYPE
 70
     6
  9
$SPLINESEGS
 70
     8
  9
$HANDSEED
  5
8D
  9
$SURFTAB1
 70
     6
  9
$SURFTAB2
 70
     6
  9
$SURFTYPE
 70
     6
  9
$SURFU
 70
     6
  9
$SURFV
 70
     6
  9
$UCSBASE
  2

  9
$UCSNAME
  2

  9
$UCSORG
 10
0.0
 20
0.0
 30
0.0
  9
$UCSXDIR
 10
1.0
 20
0.0
 30
0.0
  9
$UCSYDIR
 10
0.0
 20
1.0
 30
0.0
  9
$UCSORTHOREF
  2

  9
$UCSORTHOVIEW
 70
     0
  9
$UCSORGTOP
 10
0.0
 20
0.0
 30
0.0
  9
$UCSORGBOTTOM
 10
0.0
 20
0.0
 30
0.0
  9
$UCSORGLEFT
 10
0.0
 20
0.0
 30
0.0
  9
$UCSORGRIGHT
 10
0.0
 20
0.0
 30
0.0
  9
$UCSORGFRONT
 10
0.0
 20
0.0
 30
0.0
  9
$UCSORGBACK
 10
0.0
 20
0.0
 30
0.0
  9
$PUCSBASE
  2

  9
$PUCSNAME
  2

  9
$PUCSORG
 10
0.0
 20
0.0
 30
0.0
  9
$PUCSXDIR
 10
1.0
 20
0.0
 30
0.0
  9
$PUCSYDIR
 10
0.0
 20
1.0
 30
0.0
  9
$PUCSORTHOREF
  2

  9
$PUCSORTHOVIEW
 70
     0
  9
$PUCSORGTOP
 10
0.0
 20
0.0
 30
0.0
  9
$PUCSORGBOTTOM
 10
0.0
 20
0.0
 30
0.0
  9
$PUCSORGLEFT
 10
0.0
 20
0.0
 30
0.0
  9
$PUCSORGRIGHT
 10
0.0
 20
0.0
 30
0.0
  9
$PUCSORGFRONT
 10
0.0
 20
0.0
 30
0.0
  9
$PUCSORGBACK
 10
0.0
 20
0.0
 30
0.0
  9
$USERI1
 70
     0
  9
$USERI2
 70
     0
  9
$USERI3
 70
     0
  9
$USERI4
 70
     0
  9
$USERI5
 70
     0
  9
$USERR1
 40
0.0
  9
$USERR2
 40
0.0
  9
$USERR3
 40
0.0
  9
$USERR4
 40
0.0
  9
$USERR5
 40
0.0
  9
$WORLDVIEW
 70
     1
  9
$SHADEDGE
 70
     3
  9
$SHADEDIF
 70
    70
  9
$TILEMODE
 70
     1
  9
$MAXACTVP
 70
    64
  9
$PINSBASE
 10
0.0
 20
0.0
 30
0.0
  9
$PLIMCHECK
 70
     0
  9
$PEXTMIN
 10
1.000000000000000E+20
 20
1.000000000000000E+20
 30
1.000000000000000E+20
  9
$PEXTMAX
 10
-1.000000000000000E+20
 20
-1.000000000000000E+20
 30
-1.000000000000000E+20
  9
$PLIMMIN
 10
0.0
 20
0.0
  9
$PLIMMAX
 10
12.0
 20
9.0
  9
$UNITMODE
 70
     0
  9
$VISRETAIN
 70
     1
  9
$PLINEGEN
 70
     0
  9
$PSLTSCALE
 70
     1
  9
$TREEDEPTH
 70
  3020
  9
$CMLSTYLE
  2
Standard
  9
$CMLJUST
 70
     0
  9
$CMLSCALE
 40
1.0
  9
$PROXYGRAPHICS
 70
     1
  9
$MEASUREMENT
 70
     0
  9
$CELWEIGHT
370
    -1
  9
$ENDCAPS
280
     0
  9
$JOINSTYLE
280
     0
  9
$LWDISPLAY
290
     0
  9
$INSUNITS
 70
     1
  9
$HYPERLINKBASE
  1

  9
$STYLESHEET
  1

  9
$XEDIT
290
     1
  9
$CEPSNTYPE
380
     0
  9
$PSTYLEMODE
290
     0
  9
$FINGERPRINTGUID
  2
{FAEB1C30-E019-11D5-929B-00C0DF256EC4}
  9
$VERSIONGUID
  2
{FAEB1C32-E019-11D5-929B-00C0DF256EC4}
  9
$EXTNAMES
290
     1
  9
$PSVPSCALE
 40
0.0
  9
$OLESTARTUP
290
     0
  9
$SORTENTS
280
   127
  9
$INDEXCTL
280
     0
  9
$HIDETEXT
280
     1
  9
$XCLIPFRAME
290
     0
  9
$HALOGAP
280
     0
  9
$OBSCOLOR
 70
   257
  9
$OBSLTYPE
280
     0
  9
$INTERSECTIONDISPLAY
280
     0
  9
$INTERSECTIONCOLOR
 70
   257
  9
$DIMASSOC
280
     2
  9
$PROJECTNAME
  1

  0
ENDSEC
  0
SECTION
  2
CLASSES
  0
CLASS
  1
ACDBDICTIONARYWDFLT
  2
AcDbDictionaryWithDefault
  3
ObjectDBX Classes
 90
        0
 91
        1
280
     0
281
     0
  0
ENDSEC
  0
SECTION
  2
TABLES
  0
TABLE
  2
VPORT
  5
8
330
0
100
AcDbSymbolTable
 70
     2
  0
VPORT
  5
29
330
8
100
AcDbSymbolTableRecord
100
AcDbViewportTableRecord
  2
*Active
 70
     0
 10
0.0
 20
0.0
 11
1.0
 21
1.0
 12
10.42990654205607
 22
4.5
 13
0.0
 23
0.0
 14
0.5
 24
0.5
 15
0.5
 25
0.5
 16
0.0
 26
0.0
 36
1.0
 17
0.0
 27
0.0
 37
0.0
 40
9.0
 41
1.972972972850329
 42
50.0
 43
0.0
 44
0.0
 50
0.0
 51
0.0
 71
     0
 72
   100
 73
     1
 74
     3
 75
     0
 76
     0
 77
     0
 78
     0
281
     0
 65
     1
110
0.0
120
0.0
130
0.0
111
1.0
121
0.0
131
0.0
112
0.0
122
1.0
132
0.0
 79
     0
146
0.0
  0
ENDTAB
  0
TABLE
  2
LTYPE
  5
5
330
0
100
AcDbSymbolTable
 70
     1
  0
LTYPE
  5
14
330
5
100
AcDbSymbolTableRecord
100
AcDbLinetypeTableRecord
  2
ByBlock
 70
     0
  3

 72
    65
 73
     0
 40
0.0
  0
LTYPE
  5
15
330
5
100
AcDbSymbolTableRecord
100
AcDbLinetypeTableRecord
  2
ByLayer
 70
     0
  3

 72
    65
 73
     0
 40
0.0
  0
LTYPE
  5
16
330
5
100
AcDbSymbolTableRecord
100
AcDbLinetypeTableRecord
  2
Continuous
 70
     0
  3
Solid line
 72
    65
 73
     0
 40
0.0
  0
ENDTAB
  0
TABLE
  2
LAYER
  5
2
330
0
100
AcDbSymbolTable
 70
     3
  0
LAYER
  5
10
330
2
100
AcDbSymbolTableRecord
100
AcDbLayerTableRecord
  2
0
 70
     0
 62
     7
  6
Continuous
370
    -3
390
F
  0
LAYER
  5
2B
330
2
100
AcDbSymbolTableRecord
100
AcDbLayerTableRecord
  2
Capa 1
 70
     0
 62
     7
  6
Continuous
370
    -3
390
F
  0
LAYER
  5
82
330
2
100
AcDbSymbolTableRecord
100
AcDbLayerTableRecord
  2
Default
 70
     0
 62
     7
  6
Continuous
370
    -3
390
F
  0
ENDTAB
  0
TABLE
  2
STYLE
  5
3
330
0
100
AcDbSymbolTable
 70
     1
  0
STYLE
  5
11
330
3
100
AcDbSymbolTableRecord
100
AcDbTextStyleTableRecord
  2
Standard
 70
     0
 40
0.0
 41
1.0
 50
0.0
 71
     0
 42
0.2
  3
txt
  4

  0
ENDTAB
  0
TABLE
  2
VIEW
  5
6
330
0
100
AcDbSymbolTable
 70
     0
  0
ENDTAB
  0
TABLE
  2
UCS
  5
7
330
0
100
AcDbSymbolTable
 70
     0
  0
ENDTAB
  0
TABLE
  2
APPID
  5
9
330
0
100
AcDbSymbolTable
 70
     2
  0
APPID
  5
12
330
9
100
AcDbSymbolTableRecord
100
AcDbRegAppTableRecord
  2
ACAD
 70
     0
  0
APPID
  5
2A
330
9
100
AcDbSymbolTableRecord
100
AcDbRegAppTableRecord
  2
ODA
 70
     0
  0
ENDTAB
  0
TABLE
  2
DIMSTYLE
  5
A
330
0
100
AcDbSymbolTable
 70
     1
100
AcDbDimStyleTable
  0
DIMSTYLE
105
27
330
A
100
AcDbSymbolTableRecord
100
AcDbDimStyleTableRecord
  2
Standard
 70
     0
340
11
  0
ENDTAB
  0
TABLE
  2
BLOCK_RECORD
  5
1
330
0
100
AcDbSymbolTable
 70
     1
  0
BLOCK_RECORD
  5
1F
330
1
100
AcDbSymbolTableRecord
100
AcDbBlockTableRecord
  2
*Model_Space
340
22
  0
BLOCK_RECORD
  5
1B
330
1
100
AcDbSymbolTableRecord
100
AcDbBlockTableRecord
  2
*Paper_Space
340
1E
  0
BLOCK_RECORD
  5
23
330
1
100
AcDbSymbolTableRecord
100
AcDbBlockTableRecord
  2
*Paper_Space0
340
26
  0
ENDTAB
  0
ENDSEC
  0
SECTION
  2
BLOCKS
  0
BLOCK
  5
20
330
1F
100
AcDbEntity
  8
0
100
AcDbBlockBegin
  2
*Model_Space
 70
     0
 71
     0
 10
0.0
 20
0.0
 30
0.0
  3
*Model_Space
  1

  0
ENDBLK
  5
21
330
1F
100
AcDbEntity
  8
0
100
AcDbBlockEnd
  0
BLOCK
  5
1C
330
1B
100
AcDbEntity
 67
     1
  8
0
100
AcDbBlockBegin
  2
*Paper_Space
 70
     0
 71
     0
 10
0.0
 20
0.0
 30
0.0
  3
*Paper_Space
  1

  0
ENDBLK
  5
1D
330
1B
100
AcDbEntity
 67
     1
  8
0
100
AcDbBlockEnd
  0
BLOCK
  5
24
330
23
100
AcDbEntity
  8
0
100
AcDbBlockBegin
  2
*Paper_Space0
 70
     0
 71
     0
 10
0.0
 20
0.0
 30
0.0
  3
*Paper_Space0
  1

  0
ENDBLK
  5
25
330
23
100
AcDbEntity
  8
0
100
AcDbBlockEnd
  0
ENDSEC
  0
SECTION
  2
ENTITIES
  0
SPLINE
  5
2C
330
1F
100
AcDbEntity
  8
Capa 1
370
     5
100
AcDbSpline
210
0.0
220
0.0
230
1.0
 70
    24
 71
     3
 72
     8
 73
     4
 74
     0
 42
0.0000000001
 43
0.0000000001
 40
0.0
 40
0.0
 40
0.0
 40
0.0
 40
1.0
 40
1.0
 40
1.0
 40
1.0
 10
-4.493444881889764
 20
-0.9596535433070866
 30
0.0
 10
-4.493444881889764
 20
-0.9596535433070866
 30
0.0
 10
-4.493444881889764
 20
-5.118106299212599
 30
0.0
 10
-4.493444881889764
 20
-5.118106299212599
 30
0.0
  0
SPLINE
  5
2D
330
1F
100
AcDbEntity
  8
Capa 1
370
     5
100
AcDbSpline
210
0.0
220
0.0
230
1.0
 70
    24
 71
     3
 72
     8
 73
     4
 74
     0
 42
0.0000000001
 43
0.0000000001
 40
0.0
 40
0.0
 40
0.0
 40
0.0
 40
1.0
 40
1.0
 40
1.0
 40
1.0
 10
-4.493444881889764
 20
5.118110236220472
 30
0.0
 10
-4.493444881889764
 20
5.118110236220472
 30
0.0
 10
-4.493444881889764
 20
0.7229606299212599
 30
0.0
 10
-4.493444881889764
 20
0.7229606299212599
 30
0.0
  0
SPLINE
  5
2E
330
1F
100
AcDbEntity
  8
Capa 1
370
     5
100
AcDbSpline
210
0.0
220
0.0
230
1.0
 70
    24
 71
     3
 72
     8
 73
     4
 74
     0
 42
0.0000000001
 43
0.0000000001
 40
0.0
 40
0.0
 40
0.0
 40
0.0
 40
1.0
 40
1.0
 40
1.0
 40
1.0
 10
-0.6738582677165355
 20
-5.118106299212599
 30
0.0
 10
-0.6738582677165355
 20
-5.118106299212599
 30
0.0
 10
-4.693444881889764
 20
-5.118106299212599
 30
0.0
 10
-4.693444881889764
 20
-5.118106299212599
 30
0.0
  0
SPLINE
  5
2F
330
1F
100
AcDbEntity
  8
Capa 1
370
     5
100
AcDbSpline
210
0.0
220
0.0
230
1.0
 70
    24
 71
     3
 72
     8
 73
     4
 74
     0
 42
0.0000000001
 43
0.0000000001
 40
0.0
 40
0.0
 40
0.0
 40
0.0
 40
1.0
 40
1.0
 40
1.0
 40
1.0
 10
-0.8173228346456694
 20
5.118110236220472
 30
0.0
 10
-0.8173228346456694
 20
5.118110236220472
 30
0.0
 10
-4.693444881889764
 20
5.118110236220472
 30
0.0
 10
-4.693444881889764
 20
5.118110236220472
 30
0.0
  0
SPLINE
  5
30
330
1F
100
AcDbEntity
  8
Capa 1
100
AcDbSpline
210
0.0
220
0.0
230
1.0
 70
    11
 71
     3
 72
    92
 73
    88
 74
     0
 42
0.0000000001
 43
0.0000000001
 40
0.0
 40
0.0
 40
0.0
 40
0.0
 40
0.0454545454545455
 40
0.0454545454545455
 40
0.0454545454545455
 40
0.0454545454545455
 40
0.0909090909090909
 40
0.0909090909090909
 40
0.0909090909090909
 40
0.0909090909090909
 40
0.1363636363636364
 40
0.1363636363636364
 40
0.1363636363636364
 40
0.1363636363636364
 40
0.1818181818181818
 40
0.1818181818181818
 40
0.1818181818181818
 40
0.1818181818181818
 40
0.2272727272727273
 40
0.2272727272727273
 40
0.2272727272727273
 40
0.2272727272727273
 40
0.2727272727272728
 40
0.2727272727272728
 40
0.2727272727272728
 40
0.2727272727272728
 40
0.3181818181818182
 40
0.3181818181818182
 40
0.3181818181818182
 40
0.3181818181818182
 40
0.3636363636363637
 40
0.3636363636363637
 40
0.3636363636363637
 40
0.3636363636363637
 40
0.4090909090909092
 40
0.4090909090909092
 40
0.4090909090909092
 40
0.4090909090909092
 40
0.4545454545454546
 40
0.4545454545454546
 40
0.4545454545454546
 40
0.4545454545454546
 40
0.5000000000000001
 40
0.5000000000000001
 40
0.5000000000000001
 40
0.5000000000000001
 40
0.5454545454545455
 40
0.5454545454545455
 40
0.5454545454545455
 40
0.5454545454545455
 40
0.5909090909090909
 40
0.5909090909090909
 40
0.5909090909090909
 40
0.5909090909090909
 40
0.6363636363636364
 40
0.6363636363636364
 40
0.6363636363636364
 40
0.6363636363636364
 40
0.6818181818181818
 40
0.6818181818181818
 40
0.6818181818181818
 40
0.6818181818181818
 40
0.7272727272727272
 40
0.7272727272727272
 40
0.7272727272727272
 40
0.7272727272727272
 40
0.7727272727272726
 40
0.7727272727272726
 40
0.7727272727272726
 40
0.7727272727272726
 40
0.818181818181818
 40
0.818181818181818
 40
0.818181818181818
 40
0.818181818181818
 40
0.8636363636363634
 40
0.8636363636363634
 40
0.8636363636363634
 40
0.8636363636363634
 40
0.9090909090909088
 40
0.9090909090909088
 40
0.9090909090909088
 40
0.9090909090909088
 40
0.9545454545454543
 40
0.9545454545454543
 40
0.9545454545454543
 40
0.9545454545454543
 40
1.0
 40
1.0
 40
1.0
 40
1.0
 10
-4.403834645669291
 20
-0.5418228346456693
 30
0.0
 10
-4.403834645669291
 20
-0.5418228346456693
 30
0.0
 10
-4.375669291338583
 20
-0.5418228346456693
 30
0.0
 10
-4.375669291338583
 20
-0.5418228346456693
 30
0.0
 10
-4.375669291338583
 20
-0.5418228346456693
 30
0.0
 10
-4.375669291338583
 20
-0.5418228346456693
 30
0.0
 10
-4.375669291338583
 20
-0.6995472440944882
 30
0.0
 10
-4.375669291338583
 20
-0.6995472440944882
 30
0.0
 10
-4.375669291338583
 20
-0.6995472440944882
 30
0.0
 10
-4.382724409448819
 20
-0.6997677165354331
 30
0.0
 10
-4.389503937007874
 20
-0.6986574803149607
 30
0.0
 10
-4.396003937007874
 20
-0.6961574803149606
 30
0.0
 10
-4.396003937007874
 20
-0.6961574803149606
 30
0.0
 10
-4.406779527559055
 20
-0.6921574803149606
 30
0.0
 10
-4.417334645669292
 20
-0.6857125984251968
 30
0.0
 10
-4.427724409448819
 20
-0.6768779527559056
 30
0.0
 10
-4.427724409448819
 20
-0.6768779527559056
 30
0.0
 10
-4.438169291338583
 20
-0.667992125984252
 30
0.0
 10
-4.450224409448819
 20
-0.6552125984251969
 30
0.0
 10
-4.463893700787402
 20
-0.6385472440944883
 30
0.0
 10
-4.463893700787402
 20
-0.6385472440944883
 30
0.0
 10
-4.485169291338583
 20
-0.6126023622047244
 30
0.0
 10
-4.502003937007874
 20
-0.5950472440944882
 30
0.0
 10
-4.514448818897638
 20
-0.5859330708661418
 30
0.0
 10
-4.514448818897638
 20
-0.5859330708661418
 30
0.0
 10
-4.526834645669291
 20
-0.5768228346456693
 30
0.0
 10
-4.538614173228346
 20
-0.5722677165354331
 30
0.0
 10
-4.549669291338583
 20
-0.5722677165354331
 30
0.0
 10
-4.549669291338583
 20
-0.5722677165354331
 30
0.0
 10
-4.561279527559055
 20
-0.5722677165354331
 30
0.0
 10
-4.57105905511811
 20
-0.5764330708661417
 30
0.0
 10
-4.57905905511811
 20
-0.5847125984251969
 30
0.0
 10
-4.57905905511811
 20
-0.5847125984251969
 30
0.0
 10
-4.587003937007874
 20
-0.5930472440944882
 30
0.0
 10
-4.591003937007875
 20
-0.6038779527559055
 30
0.0
 10
-4.591003937007875
 20
-0.6172125984251968
 30
0.0
 10
-4.591003937007875
 20
-0.6172125984251968
 30
0.0
 10
-4.591003937007875
 20
-0.6313228346456693
 30
0.0
 10
-4.586779527559055
 20
-0.6426023622047244
 30
0.0
 10
-4.578279527559055
 20
-0.6510472440944882
 30
0.0
 10
-4.578279527559055
 20
-0.6510472440944882
 30
0.0
 10
-4.569838582677166
 20
-0.6595472440944882
 30
0.0
 10
-4.558114173228347
 20
-0.6638228346456693
 30
0.0
 10
-4.543169291338583
 20
-0.6639370078740158
 30
0.0
 10
-4.543169291338583
 20
-0.6639370078740158
 30
0.0
 10
-4.543169291338583
 20
-0.6639370078740158
 30
0.0
 10
-4.546224409448819
 20
-0.6940472440944883
 30
0.0
 10
-4.546224409448819
 20
-0.6940472440944883
 30
0.0
 10
-4.546224409448819
 20
-0.6940472440944883
 30
0.0
 10
-4.568724409448819
 20
-0.691992125984252
 30
0.0
 10
-4.585838582677166
 20
-0.6842125984251969
 30
0.0
 10
-4.597614173228346
 20
-0.6707677165354331
 30
0.0
 10
-4.597614173228346
 20
-0.6707677165354331
 30
0.0
 10
-4.609393700787402
 20
-0.6573228346456693
 30
0.0
 10
-4.615224409448819
 20
-0.6392125984251968
 30
0.0
 10
-4.615224409448819
 20
-0.6165472440944882
 30
0.0
 10
-4.615224409448819
 20
-0.6165472440944882
 30
0.0
 10
-4.615224409448819
 20
-0.5936574803149607
 30
0.0
 10
-4.608893700787402
 20
-0.5755472440944882
 30
0.0
 10
-4.596224409448819
 20
-0.5622125984251969
 30
0.0
 10
-4.596224409448819
 20
-0.5622125984251969
 30
0.0
 10
-4.583503937007874
 20
-0.5488228346456693
 30
0.0
 10
-4.567779527559055
 20
-0.5421574803149607
 30
0.0
 10
-4.549003937007874
 20
-0.5421574803149607
 30
0.0
 10
-4.549003937007874
 20
-0.5421574803149607
 30
0.0
 10
-4.539448818897638
 20
-0.5421574803149607
 30
0.0
 10
-4.530059055118111
 20
-0.5441023622047244
 30
0.0
 10
-4.520834645669291
 20
-0.5480472440944882
 30
0.0
 10
-4.520834645669291
 20
-0.5480472440944882
 30
0.0
 10
-4.511614173228347
 20
-0.5519330708661417
 30
0.0
 10
-4.501893700787401
 20
-0.5584330708661418
 30
0.0
 10
-4.491724409448819
 20
-0.567492125984252
 30
0.0
 10
-4.491724409448819
 20
-0.567492125984252
 30
0.0
 10
-4.481503937007874
 20
-0.5765472440944882
 30
0.0
 10
-4.467503937007875
 20
-0.5916023622047244
 30
0.0
 10
-4.449724409448819
 20
-0.6126574803149607
 30
0.0
 10
-4.449724409448819
 20
-0.6126574803149607
 30
0.0
 10
-4.434948818897638
 20
-0.6302125984251968
 30
0.0
 10
-4.424948818897638
 20
-0.641492125984252
 30
0.0
 10
-4.419669291338582
 20
-0.646492125984252
 30
0.0
 10
-4.419669291338582
 20
-0.646492125984252
 30
0.0
 10
-4.414448818897638
 20
-0.651492125984252
 30
0.0
 10
-4.409169291338583
 20
-0.6556023622047245
 30
0.0
 10
-4.403834645669291
 20
-0.6588779527559056
 30
0.0
 10
-4.403834645669291
 20
-0.6588779527559056
 30
0.0
 10
-4.403834645669291
 20
-0.6588779527559056
 30
0.0
 10
-4.403834645669291
 20
-0.5418228346456693
 30
0.0
 10
-4.403834645669291
 20
-0.5418228346456693
 30
0.0
  0
SPLINE
  5
31
330
1F
100
AcDbEntity
  8
Capa 1
100
AcDbSpline
210
0.0
220
0.0
230
1.0
 70
    11
 71
     3
 72
    80
 73
    76
 74
     0
 42
0.0000000001
 43
0.0000000001
 40
0.0
 40
0.0
 40
0.0
 40
0.0
 40
0.0526315789473684
 40
0.0526315789473684
 40
0.0526315789473684
 40
0.0526315789473684
 40
0.1052631578947368
 40
0.1052631578947368
 40
0.1052631578947368
 40
0.1052631578947368
 40
0.1578947368421053
 40
0.1578947368421053
 40
0.1578947368421053
 40
0.1578947368421053
 40
0.2105263157894737
 40
0.2105263157894737
 40
0.2105263157894737
 40
0.2105263157894737
 40
0.2631578947368421
 40
0.2631578947368421
 40
0.2631578947368421
 40
0.2631578947368421
 40
0.3157894736842105
 40
0.3157894736842105
 40
0.3157894736842105
 40
0.3157894736842105
 40
0.3684210526315789
 40
0.3684210526315789
 40
0.3684210526315789
 40
0.3684210526315789
 40
0.4210526315789474
 40
0.4210526315789474
 40
0.4210526315789474
 40
0.4210526315789474
 40
0.4736842105263158
 40
0.4736842105263158
 40
0.4736842105263158
 40
0.4736842105263158
 40
0.5263157894736842
 40
0.5263157894736842
 40
0.5263157894736842
 40
0.5263157894736842
 40
0.5789473684210527
 40
0.5789473684210527
 40
0.5789473684210527
 40
0.5789473684210527
 40
0.631578947368421
 40
0.631578947368421
 40
0.631578947368421
 40
0.631578947368421
 40
0.6842105263157894
 40
0.6842105263157894
 40
0.6842105263157894
 40
0.6842105263157894
 40
0.7368421052631577
 40
0.7368421052631577
 40
0.7368421052631577
 40
0.7368421052631577
 40
0.7894736842105261
 40
0.7894736842105261
 40
0.7894736842105261
 40
0.7894736842105261
 40
0.8421052631578945
 40
0.8421052631578945
 40
0.8421052631578945
 40
0.8421052631578945
 40
0.8947368421052628
 40
0.8947368421052628
 40
0.8947368421052628
 40
0.8947368421052628
 40
0.9473684210526312
 40
0.9473684210526312
 40
0.9473684210526312
 40
0.9473684210526312
 40
1.0
 40
1.0
 40
1.0
 40
1.0
 10
-4.555838582677166
 20
-0.3584330708661417
 30
0.0
 10
-4.555838582677166
 20
-0.3584330708661417
 30
0.0
 10
-4.55355905511811
 20
-0.3875433070866142
 30
0.0
 10
-4.55355905511811
 20
-0.3875433070866142
 30
0.0
 10
-4.55355905511811
 20
-0.3875433070866142
 30
0.0
 10
-4.565059055118111
 20
-0.3901574803149607
 30
0.0
 10
-4.573448818897638
 20
-0.3938228346456693
 30
0.0
 10
-4.578614173228346
 20
-0.3986023622047245
 30
0.0
 10
-4.578614173228346
 20
-0.3986023622047245
 30
0.0
 10
-4.587003937007874
 20
-0.4065433070866142
 30
0.0
 10
-4.591169291338582
 20
-0.4163228346456693
 30
0.0
 10
-4.591169291338582
 20
-0.4279330708661417
 30
0.0
 10
-4.591169291338582
 20
-0.4279330708661417
 30
0.0
 10
-4.591169291338582
 20
-0.4372677165354331
 30
0.0
 10
-4.58855905511811
 20
-0.4454330708661418
 30
0.0
 10
-4.583338582677166
 20
-0.452488188976378
 30
0.0
 10
-4.583338582677166
 20
-0.452488188976378
 30
0.0
 10
-4.576614173228347
 20
-0.4617125984251969
 30
0.0
 10
-4.566779527559056
 20
-0.468988188976378
 30
0.0
 10
-4.553893700787402
 20
-0.4743228346456693
 30
0.0
 10
-4.553893700787402
 20
-0.4743228346456693
 30
0.0
 10
-4.541003937007874
 20
-0.4796023622047244
 30
0.0
 10
-4.522614173228346
 20
-0.4823779527559055
 30
0.0
 10
-4.498724409448819
 20
-0.4826023622047244
 30
0.0
 10
-4.498724409448819
 20
-0.4826023622047244
 30
0.0
 10
-4.509448818897638
 20
-0.4755472440944882
 30
0.0
 10
-4.517448818897638
 20
-0.4669330708661418
 30
0.0
 10
-4.522669291338583
 20
-0.4567125984251969
 30
0.0
 10
-4.522669291338583
 20
-0.4567125984251969
 30
0.0
 10
-4.527834645669292
 20
-0.4465433070866142
 30
0.0
 10
-4.530448818897638
 20
-0.4358228346456693
 30
0.0
 10
-4.530448818897638
 20
-0.4246574803149606
 30
0.0
 10
-4.530448818897638
 20
-0.4246574803149606
 30
0.0
 10
-4.530448818897638
 20
-0.4051023622047244
 30
0.0
 10
-4.523279527559056
 20
-0.388488188976378
 30
0.0
 10
-4.508893700787402
 20
-0.3747677165354331
 30
0.0
 10
-4.508893700787402
 20
-0.3747677165354331
 30
0.0
 10
-4.494503937007874
 20
-0.3610433070866142
 30
0.0
 10
-4.475948818897638
 20
-0.3541574803149606
 30
0.0
 10
-4.453169291338583
 20
-0.3541574803149606
 30
0.0
 10
-4.453169291338583
 20
-0.3541574803149606
 30
0.0
 10
-4.438169291338583
 20
-0.3541574803149606
 30
0.0
 10
-4.424279527559055
 20
-0.3574330708661417
 30
0.0
 10
-4.411389763779527
 20
-0.3638779527559055
 30
0.0
 10
-4.411389763779527
 20
-0.3638779527559055
 30
0.0
 10
-4.398559055118111
 20
-0.3703228346456693
 30
0.0
 10
-4.388669291338583
 20
-0.3792125984251969
 30
0.0
 10
-4.381834645669292
 20
-0.390488188976378
 30
0.0
 10
-4.381834645669292
 20
-0.390488188976378
 30
0.0
 10
-4.375003937007874
 20
-0.4017677165354331
 30
0.0
 10
-4.371614173228346
 20
-0.4145433070866142
 30
0.0
 10
-4.371614173228346
 20
-0.4288779527559055
 30
0.0
 10
-4.371614173228346
 20
-0.4288779527559055
 30
0.0
 10
-4.371614173228346
 20
-0.4533228346456693
 30
0.0
 10
-4.380559055118111
 20
-0.4732125984251969
 30
0.0
 10
-4.398559055118111
 20
-0.4886023622047244
 30
0.0
 10
-4.398559055118111
 20
-0.4886023622047244
 30
0.0
 10
-4.416503937007875
 20
-0.5040472440944882
 30
0.0
 10
-4.446114173228347
 20
-0.5117125984251969
 30
0.0
 10
-4.487334645669291
 20
-0.5117125984251969
 30
0.0
 10
-4.487334645669291
 20
-0.5117125984251969
 30
0.0
 10
-4.533448818897638
 20
-0.5117125984251969
 30
0.0
 10
-4.566948818897638
 20
-0.5032125984251968
 30
0.0
 10
-4.587893700787402
 20
-0.4861574803149606
 30
0.0
 10
-4.587893700787402
 20
-0.4861574803149606
 30
0.0
 10
-4.606114173228347
 20
-0.4713228346456693
 30
0.0
 10
-4.615224409448819
 20
-0.4513228346456693
 30
0.0
 10
-4.615224409448819
 20
-0.4261023622047244
 30
0.0
 10
-4.615224409448819
 20
-0.4261023622047244
 30
0.0
 10
-4.615224409448819
 20
-0.4073779527559056
 30
0.0
 10
-4.610003937007874
 20
-0.391988188976378
 30
0.0
 10
-4.599448818897638
 20
-0.379988188976378
 30
0.0
 10
-4.599448818897638
 20
-0.379988188976378
 30
0.0
 10
-4.588948818897638
 20
-0.367988188976378
 30
0.0
 10
-4.574393700787402
 20
-0.3608228346456693
 30
0.0
 10
-4.555838582677166
 20
-0.3584330708661417
 30
0.0
  0
SPLINE
  5
32
330
1F
100
AcDbEntity
  8
Capa 1
100
AcDbSpline
210
0.0
220
0.0
230
1.0
 70
    11
 71
     3
 72
    40
 73
    36
 74
     0
 42
0.0000000001
 43
0.0000000001
 40
0.0
 40
0.0
 40
0.0
 40
0.0
 40
0.1111111111111111
 40
0.1111111111111111
 40
0.1111111111111111
 40
0.1111111111111111
 40
0.2222222222222222
 40
0.2222222222222222
 40
0.2222222222222222
 40
0.2222222222222222
 40
0.3333333333333333
 40
0.3333333333333333
 40
0.3333333333333333
 40
0.3333333333333333
 40
0.4444444444444444
 40
0.4444444444444444
 40
0.4444444444444444
 40
0.4444444444444444
 40
0.5555555555555556
 40
0.5555555555555556
 40
0.5555555555555556
 40
0.5555555555555556
 40
0.6666666666666667
 40
0.6666666666666667
 40
0.6666666666666667
 40
0.6666666666666667
 40
0.7777777777777779
 40
0.7777777777777779
 40
0.7777777777777779
 40
0.7777777777777779
 40
0.8888888888888891
 40
0.8888888888888891
 40
0.8888888888888891
 40
0.8888888888888891
 40
1.0
 40
1.0
 40
1.0
 40
1.0
 10
-4.453003937007874
 20
-0.4780472440944882
 30
0.0
 10
-4.442893700787402
 20
-0.4780472440944882
 30
0.0
 10
-4.433224409448819
 20
-0.4758779527559056
 30
0.0
 10
-4.424003937007874
 20
-0.4716023622047244
 30
0.0
 10
-4.424003937007874
 20
-0.4716023622047244
 30
0.0
 10
-4.414779527559055
 20
-0.4673228346456693
 30
0.0
 10
-4.407779527559056
 20
-0.4613228346456693
 30
0.0
 10
-4.402948818897638
 20
-0.4536574803149607
 30
0.0
 10
-4.402948818897638
 20
-0.4536574803149607
 30
0.0
 10
-4.398114173228347
 20
-0.4459330708661418
 30
0.0
 10
-4.395669291338582
 20
-0.4378228346456693
 30
0.0
 10
-4.395669291338582
 20
-0.4293779527559055
 30
0.0
 10
-4.395669291338582
 20
-0.4293779527559055
 30
0.0
 10
-4.395669291338582
 20
-0.416988188976378
 30
0.0
 10
-4.400669291338583
 20
-0.4063779527559056
 30
0.0
 10
-4.410669291338583
 20
-0.3974881889763779
 30
0.0
 10
-4.410669291338583
 20
-0.3974881889763779
 30
0.0
 10
-4.420669291338583
 20
-0.3886023622047244
 30
0.0
 10
-4.434224409448819
 20
-0.3841574803149607
 30
0.0
 10
-4.451334645669292
 20
-0.3841574803149607
 30
0.0
 10
-4.451334645669292
 20
-0.3841574803149607
 30
0.0
 10
-4.467834645669291
 20
-0.3841574803149607
 30
0.0
 10
-4.480834645669291
 20
-0.3885433070866142
 30
0.0
 10
-4.490334645669291
 20
-0.3973228346456693
 30
0.0
 10
-4.490334645669291
 20
-0.3973228346456693
 30
0.0
 10
-4.499834645669291
 20
-0.4061023622047244
 30
0.0
 10
-4.504559055118111
 20
-0.4171574803149606
 30
0.0
 10
-4.504559055118111
 20
-0.430488188976378
 30
0.0
 10
-4.504559055118111
 20
-0.430488188976378
 30
0.0
 10
-4.504559055118111
 20
-0.4437677165354331
 30
0.0
 10
-4.499834645669291
 20
-0.454988188976378
 30
0.0
 10
-4.490334645669291
 20
-0.4642125984251969
 30
0.0
 10
-4.490334645669291
 20
-0.4642125984251969
 30
0.0
 10
-4.480834645669291
 20
-0.4734330708661417
 30
0.0
 10
-4.468393700787402
 20
-0.4780472440944882
 30
0.0
 10
-4.453003937007874
 20
-0.4780472440944882
 30
0.0
  0
SPLINE
  5
33
330
1F
100
AcDbEntity
  8
Capa 1
100
AcDbSpline
210
0.0
220
0.0
230
1.0
 70
    11
 71
     3
 72
    52
 73
    48
 74
     0
 42
0.0000000001
 43
0.0000000001
 40
0.0
 40
0.0
 40
0.0
 40
0.0
 40
0.0833333333333333
 40
0.0833333333333333
 40
0.0833333333333333
 40
0.0833333333333333
 40
0.1666666666666667
 40
0.1666666666666667
 40
0.1666666666666667
 40
0.1666666666666667
 40
0.25
 40
0.25
 40
0.25
 40
0.25
 40
0.3333333333333333
 40
0.3333333333333333
 40
0.3333333333333333
 40
0.3333333333333333
 40
0.4166666666666666
 40
0.4166666666666666
 40
0.4166666666666666
 40
0.4166666666666666
 40
0.4999999999999999
 40
0.4999999999999999
 40
0.4999999999999999
 40
0.4999999999999999
 40
0.5833333333333333
 40
0.5833333333333333
 40
0.5833333333333333
 40
0.5833333333333333
 40
0.6666666666666666
 40
0.6666666666666666
 40
0.6666666666666666
 40
0.6666666666666666
 40
0.75
 40
0.75
 40
0.75
 40
0.75
 40
0.8333333333333334
 40
0.8333333333333334
 40
0.8333333333333334
 40
0.8333333333333334
 40
0.9166666666666667
 40
0.9166666666666667
 40
0.9166666666666667
 40
0.9166666666666667
 40
1.0
 40
1.0
 40
1.0
 40
1.0
 10
-4.493334645669291
 20
-0.3250433070866142
 30
0.0
 10
-4.521559055118111
 20
-0.3250433070866142
 30
0.0
 10
-4.544279527559056
 20
-0.3221574803149607
 30
0.0
 10
-4.561448818897638
 20
-0.3163228346456693
 30
0.0
 10
-4.561448818897638
 20
-0.3163228346456693
 30
0.0
 10
-4.578669291338583
 20
-0.3105433070866142
 30
0.0
 10
-4.591948818897638
 20
-0.3018779527559055
 30
0.0
 10
-4.601279527559055
 20
-0.2904330708661417
 30
0.0
 10
-4.601279527559055
 20
-0.2904330708661417
 30
0.0
 10
-4.610614173228346
 20
-0.278988188976378
 30
0.0
 10
-4.615224409448819
 20
-0.2645984251968504
 30
0.0
 10
-4.615224409448819
 20
-0.2472677165354331
 30
0.0
 10
-4.615224409448819
 20
-0.2472677165354331
 30
0.0
 10
-4.615224409448819
 20
-0.2344330708661417
 30
0.0
 10
-4.612669291338583
 20
-0.2232125984251969
 30
0.0
 10
-4.607503937007874
 20
-0.2135433070866142
 30
0.0
 10
-4.607503937007874
 20
-0.2135433070866142
 30
0.0
 10
-4.602393700787402
 20
-0.2038779527559055
 30
0.0
 10
-4.594948818897638
 20
-0.1959330708661417
 30
0.0
 10
-4.585224409448819
 20
-0.1895984251968504
 30
0.0
 10
-4.585224409448819
 20
-0.1895984251968504
 30
0.0
 10
-4.575503937007874
 20
-0.1833228346456693
 30
0.0
 10
-4.563669291338583
 20
-0.1783779527559055
 30
0.0
 10
-4.549724409448819
 20
-0.1748228346456693
 30
0.0
 10
-4.549724409448819
 20
-0.1748228346456693
 30
0.0
 10
-4.535779527559055
 20
-0.1712086614173229
 30
0.0
 10
-4.517003937007874
 20
-0.1694330708661417
 30
0.0
 10
-4.493334645669291
 20
-0.1694330708661417
 30
0.0
 10
-4.493334645669291
 20
-0.1694330708661417
 30
0.0
 10
-4.465334645669292
 20
-0.1694330708661417
 30
0.0
 10
-4.442779527559055
 20
-0.1723228346456693
 30
0.0
 10
-4.425559055118111
 20
-0.1780433070866142
 30
0.0
 10
-4.425559055118111
 20
-0.1780433070866142
 30
0.0
 10
-4.408334645669291
 20
-0.1838228346456693
 30
0.0
 10
-4.395059055118111
 20
-0.1924330708661418
 30
0.0
 10
-4.385669291338583
 20
-0.2038779527559055
 30
0.0
 10
-4.385669291338583
 20
-0.2038779527559055
 30
0.0
 10
-4.376279527559055
 20
-0.2153228346456693
 30
0.0
 10
-4.371614173228346
 20
-0.2297677165354331
 30
0.0
 10
-4.371614173228346
 20
-0.2472677165354331
 30
0.0
 10
-4.371614173228346
 20
-0.2472677165354331
 30
0.0
 10
-4.371614173228346
 20
-0.2702677165354331
 30
0.0
 10
-4.379834645669291
 20
-0.2883228346456693
 30
0.0
 10
-4.396334645669292
 20
-0.3014330708661417
 30
0.0
 10
-4.396334645669292
 20
-0.3014330708661417
 30
0.0
 10
-4.416169291338583
 20
-0.3171574803149607
 30
0.0
 10
-4.448559055118111
 20
-0.3250433070866142
 30
0.0
 10
-4.493334645669291
 20
-0.3250433070866142
 30
0.0
  0
SPLINE
  5
34
330
1F
100
AcDbEntity
  8
Capa 1
100
AcDbSpline
210
0.0
220
0.0
230
1.0
 70
    11
 71
     3
 72
    36
 73
    32
 74
     0
 42
0.0000000001
 43
0.0000000001
 40
0.0
 40
0.0
 40
0.0
 40
0.0
 40
0.125
 40
0.125
 40
0.125
 40
0.125
 40
0.25
 40
0.25
 40
0.25
 40
0.25
 40
0.375
 40
0.375
 40
0.375
 40
0.375
 40
0.5
 40
0.5
 40
0.5
 40
0.5
 40
0.625
 40
0.625
 40
0.625
 40
0.625
 40
0.75
 40
0.75
 40
0.75
 40
0.75
 40
0.875
 40
0.875
 40
0.875
 40
0.875
 40
1.0
 40
1.0
 40
1.0
 40
1.0
 10
-4.493334645669291
 20
-0.2949330708661417
 30
0.0
 10
-4.454169291338583
 20
-0.2949330708661417
 30
0.0
 10
-4.428114173228346
 20
-0.2903228346456693
 30
0.0
 10
-4.415114173228346
 20
-0.2811535433070866
 30
0.0
 10
-4.415114173228346
 20
-0.2811535433070866
 30
0.0
 10
-4.402169291338583
 20
-0.2719881889763779
 30
0.0
 10
-4.395669291338582
 20
-0.2607125984251968
 30
0.0
 10
-4.395669291338582
 20
-0.2472677165354331
 30
0.0
 10
-4.395669291338582
 20
-0.2472677165354331
 30
0.0
 10
-4.395669291338582
 20
-0.2337677165354331
 30
0.0
 10
-4.402224409448819
 20
-0.222488188976378
 30
0.0
 10
-4.415224409448819
 20
-0.2133228346456693
 30
0.0
 10
-4.415224409448819
 20
-0.2133228346456693
 30
0.0
 10
-4.428224409448819
 20
-0.2041535433070866
 30
0.0
 10
-4.454279527559056
 20
-0.1995433070866142
 30
0.0
 10
-4.493334645669291
 20
-0.1995433070866142
 30
0.0
 10
-4.493334645669291
 20
-0.1995433070866142
 30
0.0
 10
-4.532614173228347
 20
-0.1995433070866142
 30
0.0
 10
-4.558724409448819
 20
-0.2041535433070866
 30
0.0
 10
-4.571614173228347
 20
-0.2133228346456693
 30
0.0
 10
-4.571614173228347
 20
-0.2133228346456693
 30
0.0
 10
-4.584559055118111
 20
-0.222488188976378
 30
0.0
 10
-4.591003937007875
 20
-0.2338779527559055
 30
0.0
 10
-4.591003937007875
 20
-0.2475433070866142
 30
0.0
 10
-4.591003937007875
 20
-0.2475433070866142
 30
0.0
 10
-4.591003937007875
 20
-0.2610433070866142
 30
0.0
 10
-4.585279527559055
 20
-0.2717677165354331
 30
0.0
 10
-4.573893700787401
 20
-0.2798228346456693
 30
0.0
 10
-4.573893700787401
 20
-0.2798228346456693
 30
0.0
 10
-4.559393700787402
 20
-0.2898779527559055
 30
0.0
 10
-4.532503937007874
 20
-0.2949330708661417
 30
0.0
 10
-4.493334645669291
 20
-0.2949330708661417
 30
0.0
  0
SPLINE
  5
35
330
1F
100
AcDbEntity
  8
Capa 1
100
AcDbSpline
210
0.0
220
0.0
230
1.0
 70
    11
 71
     3
 72
   116
 73
   112
 74
     0
 42
0.0000000001
 43
0.0000000001
 40
0.0
 40
0.0
 40
0.0
 40
0.0
 40
0.0357142857142857
 40
0.0357142857142857
 40
0.0357142857142857
 40
0.0357142857142857
 40
0.0714285714285714
 40
0.0714285714285714
 40
0.0714285714285714
 40
0.0714285714285714
 40
0.1071428571428571
 40
0.1071428571428571
 40
0.1071428571428571
 40
0.1071428571428571
 40
0.1428571428571429
 40
0.1428571428571429
 40
0.1428571428571429
 40
0.1428571428571429
 40
0.1785714285714286
 40
0.1785714285714286
 40
0.1785714285714286
 40
0.1785714285714286
 40
0.2142857142857143
 40
0.2142857142857143
 40
0.2142857142857143
 40
0.2142857142857143
 40
0.2499999999999999
 40
0.2499999999999999
 40
0.2499999999999999
 40
0.2499999999999999
 40
0.2857142857142856
 40
0.2857142857142856
 40
0.2857142857142856
 40
0.2857142857142856
 40
0.3214285714285713
 40
0.3214285714285713
 40
0.3214285714285713
 40
0.3214285714285713
 40
0.357142857142857
 40
0.357142857142857
 40
0.357142857142857
 40
0.357142857142857
 40
0.3928571428571427
 40
0.3928571428571427
 40
0.3928571428571427
 40
0.3928571428571427
 40
0.4285714285714284
 40
0.4285714285714284
 40
0.4285714285714284
 40
0.4285714285714284
 40
0.4642857142857141
 40
0.4642857142857141
 40
0.4642857142857141
 40
0.4642857142857141
 40
0.4999999999999998
 40
0.4999999999999998
 40
0.4999999999999998
 40
0.4999999999999998
 40
0.5357142857142856
 40
0.5357142857142856
 40
0.5357142857142856
 40
0.5357142857142856
 40
0.5714285714285713
 40
0.5714285714285713
 40
0.5714285714285713
 40
0.5714285714285713
 40
0.607142857142857
 40
0.607142857142857
 40
0.607142857142857
 40
0.607142857142857
 40
0.6428571428571427
 40
0.6428571428571427
 40
0.6428571428571427
 40
0.6428571428571427
 40
0.6785714285714284
 40
0.6785714285714284
 40
0.6785714285714284
 40
0.6785714285714284
 40
0.7142857142857141
 40
0.7142857142857141
 40
0.7142857142857141
 40
0.7142857142857141
 40
0.7499999999999998
 40
0.7499999999999998
 40
0.7499999999999998
 40
0.7499999999999998
 40
0.7857142857142855
 40
0.7857142857142855
 40
0.7857142857142855
 40
0.7857142857142855
 40
0.8214285714285712
 40
0.8214285714285712
 40
0.8214285714285712
 40
0.8214285714285712
 40
0.8571428571428569
 40
0.8571428571428569
 40
0.8571428571428569
 40
0.8571428571428569
 40
0.8928571428571426
 40
0.8928571428571426
 40
0.8928571428571426
 40
0.8928571428571426
 40
0.9285714285714283
 40
0.9285714285714283
 40
0.9285714285714283
 40
0.9285714285714283
 40
0.964285714285714
 40
0.964285714285714
 40
0.964285714285714
 40
0.964285714285714
 40
1.0
 40
1.0
 40
1.0
 40
1.0
 10
-4.375669291338583
 20
-0.0388779527559055
 30
0.0
 10
-4.375669291338583
 20
-0.0388779527559055
 30
0.0
 10
-4.548503937007874
 20
-0.0388779527559055
 30
0.0
 10
-4.548503937007874
 20
-0.0388779527559055
 30
0.0
 10
-4.548503937007874
 20
-0.0388779527559055
 30
0.0
 10
-4.548503937007874
 20
-0.0388779527559055
 30
0.0
 10
-4.548503937007874
 20
-0.0127125984251969
 30
0.0
 10
-4.548503937007874
 20
-0.0127125984251969
 30
0.0
 10
-4.548503937007874
 20
-0.0127125984251969
 30
0.0
 10
-4.548503937007874
 20
-0.0127125984251969
 30
0.0
 10
-4.524279527559055
 20
-0.0127125984251969
 30
0.0
 10
-4.524279527559055
 20
-0.0127125984251969
 30
0.0
 10
-4.524279527559055
 20
-0.0127125984251969
 30
0.0
 10
-4.532724409448819
 20
-0.0072677165354331
 30
0.0
 10
-4.539559055118111
 20
-0.0000433070866142
 30
0.0
 10
-4.544669291338582
 20
0.0089566929133858
 30
0.0
 10
-4.544669291338582
 20
0.0089566929133858
 30
0.0
 10
-4.549838582677166
 20
0.0179566929133858
 30
0.0
 10
-4.552448818897638
 20
0.0282322834645669
 30
0.0
 10
-4.552448818897638
 20
0.0397322834645669
 30
0.0
 10
-4.552448818897638
 20
0.0397322834645669
 30
0.0
 10
-4.552448818897638
 20
0.052511811023622
 30
0.0
 10
-4.549779527559055
 20
0.0630118110236221
 30
0.0
 10
-4.544448818897638
 20
0.0711771653543307
 30
0.0
 10
-4.544448818897638
 20
0.0711771653543307
 30
0.0
 10
-4.539114173228347
 20
0.0794015748031496
 30
0.0
 10
-4.531724409448819
 20
0.0851771653543307
 30
0.0
 10
-4.522169291338583
 20
0.088511811023622
 30
0.0
 10
-4.522169291338583
 20
0.088511811023622
 30
0.0
 10
-4.542338582677165
 20
0.1022322834645669
 30
0.0
 10
-4.552448818897638
 20
0.1200118110236221
 30
0.0
 10
-4.552448818897638
 20
0.1419015748031496
 30
0.0
 10
-4.552448818897638
 20
0.1419015748031496
 30
0.0
 10
-4.552448818897638
 20
0.1590669291338583
 30
0.0
 10
-4.547669291338583
 20
0.1722322834645669
 30
0.0
 10
-4.538169291338583
 20
0.1814566929133858
 30
0.0
 10
-4.538169291338583
 20
0.1814566929133858
 30
0.0
 10
-4.528669291338582
 20
0.1906771653543307
 30
0.0
 10
-4.514059055118111
 20
0.1952913385826772
 30
0.0
 10
-4.494334645669292
 20
0.1952913385826772
 30
0.0
 10
-4.494334645669292
 20
0.1952913385826772
 30
0.0
 10
-4.494334645669292
 20
0.1952913385826772
 30
0.0
 10
-4.375669291338583
 20
0.1952913385826772
 30
0.0
 10
-4.375669291338583
 20
0.1952913385826772
 30
0.0
 10
-4.375669291338583
 20
0.1952913385826772
 30
0.0
 10
-4.375669291338583
 20
0.1952913385826772
 30
0.0
 10
-4.375669291338583
 20
0.1661771653543307
 30
0.0
 10
-4.375669291338583
 20
0.1661771653543307
 30
0.0
 10
-4.375669291338583
 20
0.1661771653543307
 30
0.0
 10
-4.375669291338583
 20
0.1661771653543307
 30
0.0
 10
-4.48455905511811
 20
0.1661771653543307
 30
0.0
 10
-4.48455905511811
 20
0.1661771653543307
 30
0.0
 10
-4.48455905511811
 20
0.1661771653543307
 30
0.0
 10
-4.496279527559056
 20
0.1661771653543307
 30
0.0
 10
-4.504724409448819
 20
0.165232283464567
 30
0.0
 10
-4.509893700787401
 20
0.1633464566929134
 30
0.0
 10
-4.509893700787401
 20
0.1633464566929134
 30
0.0
 10
-4.515003937007874
 20
0.1614015748031496
 30
0.0
 10
-4.519169291338583
 20
0.1579566929133858
 30
0.0
 10
-4.522334645669291
 20
0.1530118110236221
 30
0.0
 10
-4.522334645669291
 20
0.1530118110236221
 30
0.0
 10
-4.525448818897638
 20
0.148011811023622
 30
0.0
 10
-4.527059055118111
 20
0.1421220472440945
 30
0.0
 10
-4.527059055118111
 20
0.1354015748031496
 30
0.0
 10
-4.527059055118111
 20
0.1354015748031496
 30
0.0
 10
-4.527059055118111
 20
0.1232322834645669
 30
0.0
 10
-4.523003937007874
 20
0.1131771653543307
 30
0.0
 10
-4.514893700787402
 20
0.1051220472440945
 30
0.0
 10
-4.514893700787402
 20
0.1051220472440945
 30
0.0
 10
-4.506834645669292
 20
0.0971220472440945
 30
0.0
 10
-4.493893700787401
 20
0.0930669291338583
 30
0.0
 10
-4.476114173228346
 20
0.0930669291338583
 30
0.0
 10
-4.476114173228346
 20
0.0930669291338583
 30
0.0
 10
-4.476114173228346
 20
0.0930669291338583
 30
0.0
 10
-4.375669291338583
 20
0.0930669291338583
 30
0.0
 10
-4.375669291338583
 20
0.0930669291338583
 30
0.0
 10
-4.375669291338583
 20
0.0930669291338583
 30
0.0
 10
-4.375669291338583
 20
0.0930669291338583
 30
0.0
 10
-4.375669291338583
 20
0.0637874015748032
 30
0.0
 10
-4.375669291338583
 20
0.0637874015748032
 30
0.0
 10
-4.375669291338583
 20
0.0637874015748032
 30
0.0
 10
-4.375669291338583
 20
0.0637874015748032
 30
0.0
 10
-4.487948818897638
 20
0.0637874015748032
 30
0.0
 10
-4.487948818897638
 20
0.0637874015748032
 30
0.0
 10
-4.487948818897638
 20
0.0637874015748032
 30
0.0
 10
-4.501003937007874
 20
0.0637874015748032
 30
0.0
 10
-4.510779527559055
 20
0.0614015748031496
 30
0.0
 10
-4.517279527559055
 20
0.0566220472440945
 30
0.0
 10
-4.517279527559055
 20
0.0566220472440945
 30
0.0
 10
-4.523779527559055
 20
0.0518464566929134
 30
0.0
 10
-4.527059055118111
 20
0.0440669291338583
 30
0.0
 10
-4.527059055118111
 20
0.0331771653543307
 30
0.0
 10
-4.527059055118111
 20
0.0331771653543307
 30
0.0
 10
-4.527059055118111
 20
0.0249566929133858
 30
0.0
 10
-4.524893700787402
 20
0.0173464566929134
 30
0.0
 10
-4.520503937007875
 20
0.0103464566929134
 30
0.0
 10
-4.520503937007875
 20
0.0103464566929134
 30
0.0
 10
-4.516169291338583
 20
0.0033464566929134
 30
0.0
 10
-4.509834645669292
 20
-0.0017677165354331
 30
0.0
 10
-4.501503937007874
 20
-0.0048779527559055
 30
0.0
 10
-4.501503937007874
 20
-0.0048779527559055
 30
0.0
 10
-4.493114173228347
 20
-0.0080433070866142
 30
0.0
 10
-4.48105905511811
 20
-0.0095984251968504
 30
0.0
 10
-4.465334645669292
 20
-0.0095984251968504
 30
0.0
 10
-4.465334645669292
 20
-0.0095984251968504
 30
0.0
 10
-4.465334645669292
 20
-0.0095984251968504
 30
0.0
 10
-4.375669291338583
 20
-0.0095984251968504
 30
0.0
 10
-4.375669291338583
 20
-0.0095984251968504
 30
0.0
 10
-4.375669291338583
 20
-0.0095984251968504
 30
0.0
 10
-4.375669291338583
 20
-0.0095984251968504
 30
0.0
 10
-4.375669291338583
 20
-0.0388779527559055
 30
0.0
 10
-4.375669291338583
 20
-0.0388779527559055
 30
0.0
  0
SPLINE
  5
36
330
1F
100
AcDbEntity
  8
Capa 1
100
AcDbSpline
210
0.0
220
0.0
230
1.0
 70
    11
 71
     3
 72
   116
 73
   112
 74
     0
 42
0.0000000001
 43
0.0000000001
 40
0.0
 40
0.0
 40
0.0
 40
0.0
 40
0.0357142857142857
 40
0.0357142857142857
 40
0.0357142857142857
 40
0.0357142857142857
 40
0.0714285714285714
 40
0.0714285714285714
 40
0.0714285714285714
 40
0.0714285714285714
 40
0.1071428571428571
 40
0.1071428571428571
 40
0.1071428571428571
 40
0.1071428571428571
 40
0.1428571428571429
 40
0.1428571428571429
 40
0.1428571428571429
 40
0.1428571428571429
 40
0.1785714285714286
 40
0.1785714285714286
 40
0.1785714285714286
 40
0.1785714285714286
 40
0.2142857142857143
 40
0.2142857142857143
 40
0.2142857142857143
 40
0.2142857142857143
 40
0.2499999999999999
 40
0.2499999999999999
 40
0.2499999999999999
 40
0.2499999999999999
 40
0.2857142857142856
 40
0.2857142857142856
 40
0.2857142857142856
 40
0.2857142857142856
 40
0.3214285714285713
 40
0.3214285714285713
 40
0.3214285714285713
 40
0.3214285714285713
 40
0.357142857142857
 40
0.357142857142857
 40
0.357142857142857
 40
0.357142857142857
 40
0.3928571428571427
 40
0.3928571428571427
 40
0.3928571428571427
 40
0.3928571428571427
 40
0.4285714285714284
 40
0.4285714285714284
 40
0.4285714285714284
 40
0.4285714285714284
 40
0.4642857142857141
 40
0.4642857142857141
 40
0.4642857142857141
 40
0.4642857142857141
 40
0.4999999999999998
 40
0.4999999999999998
 40
0.4999999999999998
 40
0.4999999999999998
 40
0.5357142857142856
 40
0.5357142857142856
 40
0.5357142857142856
 40
0.5357142857142856
 40
0.5714285714285713
 40
0.5714285714285713
 40
0.5714285714285713
 40
0.5714285714285713
 40
0.607142857142857
 40
0.607142857142857
 40
0.607142857142857
 40
0.607142857142857
 40
0.6428571428571427
 40
0.6428571428571427
 40
0.6428571428571427
 40
0.6428571428571427
 40
0.6785714285714284
 40
0.6785714285714284
 40
0.6785714285714284
 40
0.6785714285714284
 40
0.7142857142857141
 40
0.7142857142857141
 40
0.7142857142857141
 40
0.7142857142857141
 40
0.7499999999999998
 40
0.7499999999999998
 40
0.7499999999999998
 40
0.7499999999999998
 40
0.7857142857142855
 40
0.7857142857142855
 40
0.7857142857142855
 40
0.7857142857142855
 40
0.8214285714285712
 40
0.8214285714285712
 40
0.8214285714285712
 40
0.8214285714285712
 40
0.8571428571428569
 40
0.8571428571428569
 40
0.8571428571428569
 40
0.8571428571428569
 40
0.8928571428571426
 40
0.8928571428571426
 40
0.8928571428571426
 40
0.8928571428571426
 40
0.9285714285714283
 40
0.9285714285714283
 40
0.9285714285714283
 40
0.9285714285714283
 40
0.964285714285714
 40
0.964285714285714
 40
0.964285714285714
 40
0.964285714285714
 40
1.0
 40
1.0
 40
1.0
 40
1.0
 10
-4.375669291338583
 20
0.2387913385826772
 30
0.0
 10
-4.375669291338583
 20
0.2387913385826772
 30
0.0
 10
-4.548503937007874
 20
0.2387913385826772
 30
0.0
 10
-4.548503937007874
 20
0.2387913385826772
 30
0.0
 10
-4.548503937007874
 20
0.2387913385826772
 30
0.0
 10
-4.548503937007874
 20
0.2387913385826772
 30
0.0
 10
-4.548503937007874
 20
0.2649566929133859
 30
0.0
 10
-4.548503937007874
 20
0.2649566929133859
 30
0.0
 10
-4.548503937007874
 20
0.2649566929133859
 30
0.0
 10
-4.548503937007874
 20
0.2649566929133859
 30
0.0
 10
-4.524279527559055
 20
0.2649566929133859
 30
0.0
 10
-4.524279527559055
 20
0.2649566929133859
 30
0.0
 10
-4.524279527559055
 20
0.2649566929133859
 30
0.0
 10
-4.532724409448819
 20
0.2704015748031496
 30
0.0
 10
-4.539559055118111
 20
0.2776259842519685
 30
0.0
 10
-4.544669291338582
 20
0.2866259842519685
 30
0.0
 10
-4.544669291338582
 20
0.2866259842519685
 30
0.0
 10
-4.549838582677166
 20
0.2956259842519685
 30
0.0
 10
-4.552448818897638
 20
0.3059015748031496
 30
0.0
 10
-4.552448818897638
 20
0.3174015748031496
 30
0.0
 10
-4.552448818897638
 20
0.3174015748031496
 30
0.0
 10
-4.552448818897638
 20
0.3301811023622047
 30
0.0
 10
-4.549779527559055
 20
0.3406811023622047
 30
0.0
 10
-4.544448818897638
 20
0.3488464566929134
 30
0.0
 10
-4.544448818897638
 20
0.3488464566929134
 30
0.0
 10
-4.539114173228347
 20
0.3570708661417323
 30
0.0
 10
-4.531724409448819
 20
0.3628464566929134
 30
0.0
 10
-4.522169291338583
 20
0.3661811023622048
 30
0.0
 10
-4.522169291338583
 20
0.3661811023622048
 30
0.0
 10
-4.542338582677165
 20
0.3799015748031496
 30
0.0
 10
-4.552448818897638
 20
0.3976811023622047
 30
0.0
 10
-4.552448818897638
 20
0.4195708661417323
 30
0.0
 10
-4.552448818897638
 20
0.4195708661417323
 30
0.0
 10
-4.552448818897638
 20
0.436736220472441
 30
0.0
 10
-4.547669291338583
 20
0.4499015748031496
 30
0.0
 10
-4.538169291338583
 20
0.4591259842519685
 30
0.0
 10
-4.538169291338583
 20
0.4591259842519685
 30
0.0
 10
-4.528669291338582
 20
0.4683464566929134
 30
0.0
 10
-4.514059055118111
 20
0.4729606299212599
 30
0.0
 10
-4.494334645669292
 20
0.4729606299212599
 30
0.0
 10
-4.494334645669292
 20
0.4729606299212599
 30
0.0
 10
-4.494334645669292
 20
0.4729606299212599
 30
0.0
 10
-4.375669291338583
 20
0.4729606299212599
 30
0.0
 10
-4.375669291338583
 20
0.4729606299212599
 30
0.0
 10
-4.375669291338583
 20
0.4729606299212599
 30
0.0
 10
-4.375669291338583
 20
0.4729606299212599
 30
0.0
 10
-4.375669291338583
 20
0.4438464566929134
 30
0.0
 10
-4.375669291338583
 20
0.4438464566929134
 30
0.0
 10
-4.375669291338583
 20
0.4438464566929134
 30
0.0
 10
-4.375669291338583
 20
0.4438464566929134
 30
0.0
 10
-4.48455905511811
 20
0.4438464566929134
 30
0.0
 10
-4.48455905511811
 20
0.4438464566929134
 30
0.0
 10
-4.48455905511811
 20
0.4438464566929134
 30
0.0
 10
-4.496279527559056
 20
0.4438464566929134
 30
0.0
 10
-4.504724409448819
 20
0.4429015748031496
 30
0.0
 10
-4.509893700787401
 20
0.4410157480314961
 30
0.0
 10
-4.509893700787401
 20
0.4410157480314961
 30
0.0
 10
-4.515003937007874
 20
0.4390708661417323
 30
0.0
 10
-4.519169291338583
 20
0.4356259842519685
 30
0.0
 10
-4.522334645669291
 20
0.4306811023622048
 30
0.0
 10
-4.522334645669291
 20
0.4306811023622048
 30
0.0
 10
-4.525448818897638
 20
0.4256811023622047
 30
0.0
 10
-4.527059055118111
 20
0.4197913385826772
 30
0.0
 10
-4.527059055118111
 20
0.4130708661417323
 30
0.0
 10
-4.527059055118111
 20
0.4130708661417323
 30
0.0
 10
-4.527059055118111
 20
0.4009015748031496
 30
0.0
 10
-4.523003937007874
 20
0.3908464566929134
 30
0.0
 10
-4.514893700787402
 20
0.3827913385826772
 30
0.0
 10
-4.514893700787402
 20
0.3827913385826772
 30
0.0
 10
-4.506834645669292
 20
0.3747913385826772
 30
0.0
 10
-4.493893700787401
 20
0.370736220472441
 30
0.0
 10
-4.476114173228346
 20
0.370736220472441
 30
0.0
 10
-4.476114173228346
 20
0.370736220472441
 30
0.0
 10
-4.476114173228346
 20
0.370736220472441
 30
0.0
 10
-4.375669291338583
 20
0.370736220472441
 30
0.0
 10
-4.375669291338583
 20
0.370736220472441
 30
0.0
 10
-4.375669291338583
 20
0.370736220472441
 30
0.0
 10
-4.375669291338583
 20
0.370736220472441
 30
0.0
 10
-4.375669291338583
 20
0.3414566929133858
 30
0.0
 10
-4.375669291338583
 20
0.3414566929133858
 30
0.0
 10
-4.375669291338583
 20
0.3414566929133858
 30
0.0
 10
-4.375669291338583
 20
0.3414566929133858
 30
0.0
 10
-4.487948818897638
 20
0.3414566929133858
 30
0.0
 10
-4.487948818897638
 20
0.3414566929133858
 30
0.0
 10
-4.487948818897638
 20
0.3414566929133858
 30
0.0
 10
-4.501003937007874
 20
0.3414566929133858
 30
0.0
 10
-4.510779527559055
 20
0.3390708661417323
 30
0.0
 10
-4.517279527559055
 20
0.3342913385826772
 30
0.0
 10
-4.517279527559055
 20
0.3342913385826772
 30
0.0
 10
-4.523779527559055
 20
0.3295157480314961
 30
0.0
 10
-4.527059055118111
 20
0.3217362204724409
 30
0.0
 10
-4.527059055118111
 20
0.3108464566929134
 30
0.0
 10
-4.527059055118111
 20
0.3108464566929134
 30
0.0
 10
-4.527059055118111
 20
0.3026259842519685
 30
0.0
 10
-4.524893700787402
 20
0.2950157480314961
 30
0.0
 10
-4.520503937007875
 20
0.2880157480314961
 30
0.0
 10
-4.520503937007875
 20
0.2880157480314961
 30
0.0
 10
-4.516169291338583
 20
0.2810157480314961
 30
0.0
 10
-4.509834645669292
 20
0.2759015748031496
 30
0.0
 10
-4.501503937007874
 20
0.2727913385826772
 30
0.0
 10
-4.501503937007874
 20
0.2727913385826772
 30
0.0
 10
-4.493114173228347
 20
0.2696259842519685
 30
0.0
 10
-4.48105905511811
 20
0.2680708661417323
 30
0.0
 10
-4.465334645669292
 20
0.2680708661417323
 30
0.0
 10
-4.465334645669292
 20
0.2680708661417323
 30
0.0
 10
-4.465334645669292
 20
0.2680708661417323
 30
0.0
 10
-4.375669291338583
 20
0.2680708661417323
 30
0.0
 10
-4.375669291338583
 20
0.2680708661417323
 30
0.0
 10
-4.375669291338583
 20
0.2680708661417323
 30
0.0
 10
-4.375669291338583
 20
0.2680708661417323
 30
0.0
 10
-4.375669291338583
 20
0.2387913385826772
 30
0.0
 10
-4.375669291338583
 20
0.2387913385826772
 30
0.0
  0
SPLINE
  5
37
330
1F
100
AcDbEntity
  8
Capa 1
370
     5
100
AcDbSpline
210
0.0
220
0.0
230
1.0
 70
    24
 71
     3
 72
     8
 73
     4
 74
     0
 42
0.0000000001
 43
0.0000000001
 40
0.0
 40
0.0
 40
0.0
 40
0.0
 40
1.0
 40
1.0
 40
1.0
 40
1.0
 10
0.8413070866141733
 20
6.563503937007874
 30
0.0
 10
0.8413070866141733
 20
6.563503937007874
 30
0.0
 10
3.543303149606299
 20
6.563503937007874
 30
0.0
 10
3.543303149606299
 20
6.563503937007874
 30
0.0
  0
SPLINE
  5
38
330
1F
100
AcDbEntity
  8
Capa 1
370
     5
100
AcDbSpline
210
0.0
220
0.0
230
1.0
 70
    24
 71
     3
 72
     8
 73
     4
 74
     0
 42
0.0000000001
 43
0.0000000001
 40
0.0
 40
0.0
 40
0.0
 40
0.0
 40
1.0
 40
1.0
 40
1.0
 40
1.0
 10
-3.543307086614173
 20
6.563503937007874
 30
0.0
 10
-3.543307086614173
 20
6.563503937007874
 30
0.0
 10
-0.8413070866141733
 20
6.563503937007874
 30
0.0
 10
-0.8413070866141733
 20
6.563503937007874
 30
0.0
  0
SPLINE
  5
39
330
1F
100
AcDbEntity
  8
Capa 1
370
     5
100
AcDbSpline
210
0.0
220
0.0
230
1.0
 70
    24
 71
     3
 72
     8
 73
     4
 74
     0
 42
0.0000000001
 43
0.0000000001
 40
0.0
 40
0.0
 40
0.0
 40
0.0
 40
1.0
 40
1.0
 40
1.0
 40
1.0
 10
3.543303149606299
 20
3.650748031496063
 30
0.0
 10
3.543303149606299
 20
3.650748031496063
 30
0.0
 10
3.543303149606299
 20
6.763503937007874
 30
0.0
 10
3.543303149606299
 20
6.763503937007874
 30
0.0
  0
SPLINE
  5
3A
330
1F
100
AcDbEntity
  8
Capa 1
370
     5
100
AcDbSpline
210
0.0
220
0.0
230
1.0
 70
    24
 71
     3
 72
     8
 73
     4
 74
     0
 42
0.0000000001
 43
0.0000000001
 40
0.0
 40
0.0
 40
0.0
 40
0.0
 40
1.0
 40
1.0
 40
1.0
 40
1.0
 10
-3.543307086614173
 20
3.830078740157481
 30
0.0
 10
-3.543307086614173
 20
3.830078740157481
 30
0.0
 10
-3.543307086614173
 20
6.763503937007874
 30
0.0
 10
-3.543307086614173
 20
6.763503937007874
 30
0.0
  0
SPLINE
  5
3B
330
1F
100
AcDbEntity
  8
Capa 1
100
AcDbSpline
210
0.0
220
0.0
230
1.0
 70
    11
 71
     3
 72
    40
 73
    36
 74
     0
 42
0.0000000001
 43
0.0000000001
 40
0.0
 40
0.0
 40
0.0
 40
0.0
 40
0.1111111111111111
 40
0.1111111111111111
 40
0.1111111111111111
 40
0.1111111111111111
 40
0.2222222222222222
 40
0.2222222222222222
 40
0.2222222222222222
 40
0.2222222222222222
 40
0.3333333333333333
 40
0.3333333333333333
 40
0.3333333333333333
 40
0.3333333333333333
 40
0.4444444444444444
 40
0.4444444444444444
 40
0.4444444444444444
 40
0.4444444444444444
 40
0.5555555555555556
 40
0.5555555555555556
 40
0.5555555555555556
 40
0.5555555555555556
 40
0.6666666666666667
 40
0.6666666666666667
 40
0.6666666666666667
 40
0.6666666666666667
 40
0.7777777777777779
 40
0.7777777777777779
 40
0.7777777777777779
 40
0.7777777777777779
 40
0.8888888888888891
 40
0.8888888888888891
 40
0.8888888888888891
 40
0.8888888888888891
 40
1.0
 40
1.0
 40
1.0
 40
1.0
 10
-0.4671456692913386
 20
6.445728346456694
 30
0.0
 10
-0.4671456692913386
 20
6.445728346456694
 30
0.0
 10
-0.4964212598425197
 20
6.445728346456694
 30
0.0
 10
-0.4964212598425197
 20
6.445728346456694
 30
0.0
 10
-0.4964212598425197
 20
6.445728346456694
 30
0.0
 10
-0.4964212598425197
 20
6.445728346456694
 30
0.0
 10
-0.4964212598425197
 20
6.632397637795276
 30
0.0
 10
-0.4964212598425197
 20
6.632397637795276
 30
0.0
 10
-0.4964212598425197
 20
6.632397637795276
 30
0.0
 10
-0.5034763779527559
 20
6.625673228346457
 30
0.0
 10
-0.5127007874015749
 20
6.618952755905512
 30
0.0
 10
-0.5241456692913387
 20
6.612228346456694
 30
0.0
 10
-0.5241456692913387
 20
6.612228346456694
 30
0.0
 10
-0.5356456692913386
 20
6.605507874015748
 30
0.0
 10
-0.5459212598425197
 20
6.600452755905512
 30
0.0
 10
-0.5550314960629922
 20
6.597118110236221
 30
0.0
 10
-0.5550314960629922
 20
6.597118110236221
 30
0.0
 10
-0.5550314960629922
 20
6.597118110236221
 30
0.0
 10
-0.5550314960629922
 20
6.625397637795276
 30
0.0
 10
-0.5550314960629922
 20
6.625397637795276
 30
0.0
 10
-0.5550314960629922
 20
6.625397637795276
 30
0.0
 10
-0.5386456692913386
 20
6.633118110236221
 30
0.0
 10
-0.5243110236220473
 20
6.642452755905512
 30
0.0
 10
-0.5120314960629921
 20
6.653397637795276
 30
0.0
 10
-0.5120314960629921
 20
6.653397637795276
 30
0.0
 10
-0.4998110236220473
 20
6.664397637795276
 30
0.0
 10
-0.4910866141732284
 20
6.675007874015749
 30
0.0
 10
-0.4859763779527559
 20
6.685338582677166
 30
0.0
 10
-0.4859763779527559
 20
6.685338582677166
 30
0.0
 10
-0.4859763779527559
 20
6.685338582677166
 30
0.0
 10
-0.4671456692913386
 20
6.685338582677166
 30
0.0
 10
-0.4671456692913386
 20
6.685338582677166
 30
0.0
 10
-0.4671456692913386
 20
6.685338582677166
 30
0.0
 10
-0.4671456692913386
 20
6.685338582677166
 30
0.0
 10
-0.4671456692913386
 20
6.445728346456694
 30
0.0
 10
-0.4671456692913386
 20
6.445728346456694
 30
0.0
  0
SPLINE
  5
3C
330
1F
100
AcDbEntity
  8
Capa 1
100
AcDbSpline
210
0.0
220
0.0
230
1.0
 70
    11
 71
     3
 72
    68
 73
    64
 74
     0
 42
0.0000000001
 43
0.0000000001
 40
0.0
 40
0.0
 40
0.0
 40
0.0
 40
0.0625
 40
0.0625
 40
0.0625
 40
0.0625
 40
0.125
 40
0.125
 40
0.125
 40
0.125
 40
0.1875
 40
0.1875
 40
0.1875
 40
0.1875
 40
0.25
 40
0.25
 40
0.25
 40
0.25
 40
0.3125
 40
0.3125
 40
0.3125
 40
0.3125
 40
0.375
 40
0.375
 40
0.375
 40
0.375
 40
0.4375
 40
0.4375
 40
0.4375
 40
0.4375
 40
0.5
 40
0.5
 40
0.5
 40
0.5
 40
0.5625
 40
0.5625
 40
0.5625
 40
0.5625
 40
0.625
 40
0.625
 40
0.625
 40
0.625
 40
0.6875
 40
0.6875
 40
0.6875
 40
0.6875
 40
0.75
 40
0.75
 40
0.75
 40
0.75
 40
0.8125
 40
0.8125
 40
0.8125
 40
0.8125
 40
0.875
 40
0.875
 40
0.875
 40
0.875
 40
0.9375
 40
0.9375
 40
0.9375
 40
0.9375
 40
1.0
 40
1.0
 40
1.0
 40
1.0
 10
-0.3469763779527559
 20
6.575118110236221
 30
0.0
 10
-0.3591417322834646
 20
6.579562992125984
 30
0.0
 10
-0.3681417322834646
 20
6.585893700787402
 30
0.0
 10
-0.3740314960629921
 20
6.594173228346457
 30
0.0
 10
-0.3740314960629921
 20
6.594173228346457
 30
0.0
 10
-0.3798661417322835
 20
6.602393700787402
 30
0.0
 10
-0.3828110236220473
 20
6.61228346456693
 30
0.0
 10
-0.3828110236220473
 20
6.623783464566929
 30
0.0
 10
-0.3828110236220473
 20
6.623783464566929
 30
0.0
 10
-0.3828110236220473
 20
6.641173228346457
 30
0.0
 10
-0.3765866141732284
 20
6.655728346456693
 30
0.0
 10
-0.3640866141732284
 20
6.667562992125984
 30
0.0
 10
-0.3640866141732284
 20
6.667562992125984
 30
0.0
 10
-0.3515866141732283
 20
6.679397637795276
 30
0.0
 10
-0.3350314960629922
 20
6.685338582677166
 30
0.0
 10
-0.3143110236220473
 20
6.685338582677166
 30
0.0
 10
-0.3143110236220473
 20
6.685338582677166
 30
0.0
 10
-0.2934763779527559
 20
6.685338582677166
 30
0.0
 10
-0.2766968503937008
 20
6.67928346456693
 30
0.0
 10
-0.2639763779527559
 20
6.667173228346457
 30
0.0
 10
-0.2639763779527559
 20
6.667173228346457
 30
0.0
 10
-0.2513110236220473
 20
6.655062992125984
 30
0.0
 10
-0.2449763779527559
 20
6.640338582677166
 30
0.0
 10
-0.2449763779527559
 20
6.622952755905512
 30
0.0
 10
-0.2449763779527559
 20
6.622952755905512
 30
0.0
 10
-0.2449763779527559
 20
6.611893700787402
 30
0.0
 10
-0.2478661417322835
 20
6.60228346456693
 30
0.0
 10
-0.2536417322834646
 20
6.594062992125984
 30
0.0
 10
-0.2536417322834646
 20
6.594062992125984
 30
0.0
 10
-0.2594763779527559
 20
6.585893700787402
 30
0.0
 10
-0.2682559055118111
 20
6.579562992125984
 30
0.0
 10
-0.2800866141732283
 20
6.575118110236221
 30
0.0
 10
-0.2800866141732283
 20
6.575118110236221
 30
0.0
 10
-0.2654763779527559
 20
6.570338582677166
 30
0.0
 10
-0.2543110236220473
 20
6.562673228346457
 30
0.0
 10
-0.2466417322834646
 20
6.552007874015748
 30
0.0
 10
-0.2466417322834646
 20
6.552007874015748
 30
0.0
 10
-0.2390314960629921
 20
6.541393700787402
 30
0.0
 10
-0.2351968503937008
 20
6.528673228346457
 30
0.0
 10
-0.2351968503937008
 20
6.513952755905512
 30
0.0
 10
-0.2351968503937008
 20
6.513952755905512
 30
0.0
 10
-0.2351968503937008
 20
6.493507874015748
 30
0.0
 10
-0.2424212598425197
 20
6.476393700787402
 30
0.0
 10
-0.2568110236220473
 20
6.462507874015748
 30
0.0
 10
-0.2568110236220473
 20
6.462507874015748
 30
0.0
 10
-0.2712559055118111
 20
6.448618110236221
 30
0.0
 10
-0.290255905511811
 20
6.441673228346457
 30
0.0
 10
-0.3138110236220473
 20
6.441673228346457
 30
0.0
 10
-0.3138110236220473
 20
6.441673228346457
 30
0.0
 10
-0.3373661417322835
 20
6.441673228346457
 30
0.0
 10
-0.3563110236220473
 20
6.448618110236221
 30
0.0
 10
-0.370755905511811
 20
6.462562992125984
 30
0.0
 10
-0.370755905511811
 20
6.462562992125984
 30
0.0
 10
-0.3852007874015748
 20
6.476507874015749
 30
0.0
 10
-0.3924212598425197
 20
6.493893700787402
 30
0.0
 10
-0.3924212598425197
 20
6.514728346456693
 30
0.0
 10
-0.3924212598425197
 20
6.514728346456693
 30
0.0
 10
-0.3924212598425197
 20
6.530228346456693
 30
0.0
 10
-0.3884763779527559
 20
6.543228346456694
 30
0.0
 10
-0.3805866141732284
 20
6.553728346456693
 30
0.0
 10
-0.3805866141732284
 20
6.553728346456693
 30
0.0
 10
-0.372755905511811
 20
6.564173228346457
 30
0.0
 10
-0.3615314960629921
 20
6.571338582677166
 30
0.0
 10
-0.3469763779527559
 20
6.575118110236221
 30
0.0
  0
SPLINE
  5
3D
330
1F
100
AcDbEntity
  8
Capa 1
100
AcDbSpline
210
0.0
220
0.0
230
1.0
 70
    11
 71
     3
 72
    36
 73
    32
 74
     0
 42
0.0000000001
 43
0.0000000001
 40
0.0
 40
0.0
 40
0.0
 40
0.0
 40
0.125
 40
0.125
 40
0.125
 40
0.125
 40
0.25
 40
0.25
 40
0.25
 40
0.25
 40
0.375
 40
0.375
 40
0.375
 40
0.375
 40
0.5
 40
0.5
 40
0.5
 40
0.5
 40
0.625
 40
0.625
 40
0.625
 40
0.625
 40
0.75
 40
0.75
 40
0.75
 40
0.75
 40
0.875
 40
0.875
 40
0.875
 40
0.875
 40
1.0
 40
1.0
 40
1.0
 40
1.0
 10
-0.3528661417322835
 20
6.62478346456693
 30
0.0
 10
-0.3528661417322835
 20
6.613507874015748
 30
0.0
 10
-0.3491968503937008
 20
6.60428346456693
 30
0.0
 10
-0.3419763779527559
 20
6.597118110236221
 30
0.0
 10
-0.3419763779527559
 20
6.597118110236221
 30
0.0
 10
-0.3346968503937008
 20
6.589952755905512
 30
0.0
 10
-0.3252559055118111
 20
6.586338582677166
 30
0.0
 10
-0.3136417322834646
 20
6.586338582677166
 30
0.0
 10
-0.3136417322834646
 20
6.586338582677166
 30
0.0
 10
-0.3023661417322835
 20
6.586338582677166
 30
0.0
 10
-0.2930866141732283
 20
6.589893700787401
 30
0.0
 10
-0.2858661417322835
 20
6.597007874015748
 30
0.0
 10
-0.2858661417322835
 20
6.597007874015748
 30
0.0
 10
-0.2786417322834646
 20
6.604118110236221
 30
0.0
 10
-0.2750866141732284
 20
6.612838582677165
 30
0.0
 10
-0.2750866141732284
 20
6.623118110236221
 30
0.0
 10
-0.2750866141732284
 20
6.623118110236221
 30
0.0
 10
-0.2750866141732284
 20
6.633897637795275
 30
0.0
 10
-0.278755905511811
 20
6.642897637795276
 30
0.0
 10
-0.2861968503937008
 20
6.650228346456693
 30
0.0
 10
-0.2861968503937008
 20
6.650228346456693
 30
0.0
 10
-0.2936417322834646
 20
6.657562992125985
 30
0.0
 10
-0.3028661417322835
 20
6.661228346456693
 30
0.0
 10
-0.3139763779527559
 20
6.661228346456693
 30
0.0
 10
-0.3139763779527559
 20
6.661228346456693
 30
0.0
 10
-0.3251417322834646
 20
6.661228346456693
 30
0.0
 10
-0.3344212598425197
 20
6.65761811023622
 30
0.0
 10
-0.3418110236220472
 20
6.650507874015748
 30
0.0
 10
-0.3418110236220472
 20
6.650507874015748
 30
0.0
 10
-0.3491968503937008
 20
6.643338582677166
 30
0.0
 10
-0.3528661417322835
 20
6.634728346456694
 30
0.0
 10
-0.3528661417322835
 20
6.62478346456693
 30
0.0
  0
SPLINE
  5
3E
330
1F
100
AcDbEntity
  8
Capa 1
100
AcDbSpline
210
0.0
220
0.0
230
1.0
 70
    11
 71
     3
 72
    40
 73
    36
 74
     0
 42
0.0000000001
 43
0.0000000001
 40
0.0
 40
0.0
 40
0.0
 40
0.0
 40
0.1111111111111111
 40
0.1111111111111111
 40
0.1111111111111111
 40
0.1111111111111111
 40
0.2222222222222222
 40
0.2222222222222222
 40
0.2222222222222222
 40
0.2222222222222222
 40
0.3333333333333333
 40
0.3333333333333333
 40
0.3333333333333333
 40
0.3333333333333333
 40
0.4444444444444444
 40
0.4444444444444444
 40
0.4444444444444444
 40
0.4444444444444444
 40
0.5555555555555556
 40
0.5555555555555556
 40
0.5555555555555556
 40
0.5555555555555556
 40
0.6666666666666667
 40
0.6666666666666667
 40
0.6666666666666667
 40
0.6666666666666667
 40
0.7777777777777779
 40
0.7777777777777779
 40
0.7777777777777779
 40
0.7777777777777779
 40
0.8888888888888891
 40
0.8888888888888891
 40
0.8888888888888891
 40
0.8888888888888891
 40
1.0
 40
1.0
 40
1.0
 40
1.0
 10
-0.3623110236220473
 20
6.514562992125985
 30
0.0
 10
-0.3623110236220473
 20
6.506228346456693
 30
0.0
 10
-0.3603110236220473
 20
6.498118110236221
 30
0.0
 10
-0.3563661417322835
 20
6.490338582677166
 30
0.0
 10
-0.3563661417322835
 20
6.490338582677166
 30
0.0
 10
-0.3524212598425197
 20
6.482507874015749
 30
0.0
 10
-0.3465314960629922
 20
6.476448818897638
 30
0.0
 10
-0.3386968503937008
 20
6.472173228346457
 30
0.0
 10
-0.3386968503937008
 20
6.472173228346457
 30
0.0
 10
-0.3308661417322835
 20
6.467893700787402
 30
0.0
 10
-0.3224763779527559
 20
6.465728346456693
 30
0.0
 10
-0.3134763779527559
 20
6.465728346456693
 30
0.0
 10
-0.3134763779527559
 20
6.465728346456693
 30
0.0
 10
-0.2994763779527559
 20
6.465728346456693
 30
0.0
 10
-0.2879212598425197
 20
6.470228346456693
 30
0.0
 10
-0.2788110236220472
 20
6.47928346456693
 30
0.0
 10
-0.2788110236220472
 20
6.47928346456693
 30
0.0
 10
-0.2696968503937008
 20
6.488283464566929
 30
0.0
 10
-0.2651417322834646
 20
6.499728346456693
 30
0.0
 10
-0.2651417322834646
 20
6.51361811023622
 30
0.0
 10
-0.2651417322834646
 20
6.51361811023622
 30
0.0
 10
-0.2651417322834646
 20
6.527728346456693
 30
0.0
 10
-0.2698110236220472
 20
6.539393700787402
 30
0.0
 10
-0.2791968503937008
 20
6.54861811023622
 30
0.0
 10
-0.2791968503937008
 20
6.54861811023622
 30
0.0
 10
-0.2885866141732283
 20
6.557838582677166
 30
0.0
 10
-0.3003661417322835
 20
6.562452755905512
 30
0.0
 10
-0.3144763779527559
 20
6.562452755905512
 30
0.0
 10
-0.3144763779527559
 20
6.562452755905512
 30
0.0
 10
-0.3282559055118111
 20
6.562452755905512
 30
0.0
 10
-0.3396417322834646
 20
6.557893700787401
 30
0.0
 10
-0.3486968503937008
 20
6.548783464566929
 30
0.0
 10
-0.3486968503937008
 20
6.548783464566929
 30
0.0
 10
-0.357755905511811
 20
6.539618110236221
 30
0.0
 10
-0.3623110236220473
 20
6.528228346456693
 30
0.0
 10
-0.3623110236220473
 20
6.514562992125985
 30
0.0
  0
SPLINE
  5
3F
330
1F
100
AcDbEntity
  8
Capa 1
100
AcDbSpline
210
0.0
220
0.0
230
1.0
 70
    11
 71
     3
 72
    52
 73
    48
 74
     0
 42
0.0000000001
 43
0.0000000001
 40
0.0
 40
0.0
 40
0.0
 40
0.0
 40
0.0833333333333333
 40
0.0833333333333333
 40
0.0833333333333333
 40
0.0833333333333333
 40
0.1666666666666667
 40
0.1666666666666667
 40
0.1666666666666667
 40
0.1666666666666667
 40
0.25
 40
0.25
 40
0.25
 40
0.25
 40
0.3333333333333333
 40
0.3333333333333333
 40
0.3333333333333333
 40
0.3333333333333333
 40
0.4166666666666666
 40
0.4166666666666666
 40
0.4166666666666666
 40
0.4166666666666666
 40
0.4999999999999999
 40
0.4999999999999999
 40
0.4999999999999999
 40
0.4999999999999999
 40
0.5833333333333333
 40
0.5833333333333333
 40
0.5833333333333333
 40
0.5833333333333333
 40
0.6666666666666666
 40
0.6666666666666666
 40
0.6666666666666666
 40
0.6666666666666666
 40
0.75
 40
0.75
 40
0.75
 40
0.75
 40
0.8333333333333334
 40
0.8333333333333334
 40
0.8333333333333334
 40
0.8333333333333334
 40
0.9166666666666667
 40
0.9166666666666667
 40
0.9166666666666667
 40
0.9166666666666667
 40
1.0
 40
1.0
 40
1.0
 40
1.0
 10
-0.2066968503937008
 20
6.563393700787402
 30
0.0
 10
-0.2066968503937008
 20
6.591618110236221
 30
0.0
 10
-0.2038110236220473
 20
6.614338582677165
 30
0.0
 10
-0.1979763779527559
 20
6.631507874015749
 30
0.0
 10
-0.1979763779527559
 20
6.631507874015749
 30
0.0
 10
-0.1921968503937008
 20
6.648728346456693
 30
0.0
 10
-0.1835314960629921
 20
6.662007874015749
 30
0.0
 10
-0.1720866141732284
 20
6.671338582677166
 30
0.0
 10
-0.1720866141732284
 20
6.671338582677166
 30
0.0
 10
-0.1606417322834646
 20
6.680673228346457
 30
0.0
 10
-0.146251968503937
 20
6.685338582677166
 30
0.0
 10
-0.1289212598425197
 20
6.685338582677166
 30
0.0
 10
-0.1289212598425197
 20
6.685338582677166
 30
0.0
 10
-0.1160866141732284
 20
6.685338582677166
 30
0.0
 10
-0.1048661417322835
 20
6.682728346456694
 30
0.0
 10
-0.0951968503937008
 20
6.677562992125985
 30
0.0
 10
-0.0951968503937008
 20
6.677562992125985
 30
0.0
 10
-0.0855314960629921
 20
6.672452755905512
 30
0.0
 10
-0.0775866141732283
 20
6.665007874015748
 30
0.0
 10
-0.071251968503937
 20
6.65528346456693
 30
0.0
 10
-0.071251968503937
 20
6.65528346456693
 30
0.0
 10
-0.0649763779527559
 20
6.645562992125985
 30
0.0
 10
-0.0600314960629921
 20
6.633728346456693
 30
0.0
 10
-0.0564763779527559
 20
6.61978346456693
 30
0.0
 10
-0.0564763779527559
 20
6.61978346456693
 30
0.0
 10
-0.0528622047244095
 20
6.605838582677166
 30
0.0
 10
-0.0510866141732284
 20
6.587062992125985
 30
0.0
 10
-0.0510866141732284
 20
6.563393700787402
 30
0.0
 10
-0.0510866141732284
 20
6.563393700787402
 30
0.0
 10
-0.0510866141732284
 20
6.535393700787401
 30
0.0
 10
-0.0539763779527559
 20
6.512838582677166
 30
0.0
 10
-0.0596968503937008
 20
6.495618110236221
 30
0.0
 10
-0.0596968503937008
 20
6.495618110236221
 30
0.0
 10
-0.0654763779527559
 20
6.478393700787402
 30
0.0
 10
-0.0740866141732283
 20
6.465118110236221
 30
0.0
 10
-0.0855314960629921
 20
6.455728346456693
 30
0.0
 10
-0.0855314960629921
 20
6.455728346456693
 30
0.0
 10
-0.0969763779527559
 20
6.446338582677166
 30
0.0
 10
-0.1114212598425197
 20
6.441673228346457
 30
0.0
 10
-0.1289212598425197
 20
6.441673228346457
 30
0.0
 10
-0.1289212598425197
 20
6.441673228346457
 30
0.0
 10
-0.1519212598425197
 20
6.441673228346457
 30
0.0
 10
-0.1699763779527559
 20
6.449893700787402
 30
0.0
 10
-0.1830866141732284
 20
6.466393700787402
 30
0.0
 10
-0.1830866141732284
 20
6.466393700787402
 30
0.0
 10
-0.1988110236220473
 20
6.486228346456693
 30
0.0
 10
-0.2066968503937008
 20
6.518618110236221
 30
0.0
 10
-0.2066968503937008
 20
6.563393700787402
 30
0.0
  0
SPLINE
  5
40
330
1F
100
AcDbEntity
  8
Capa 1
100
AcDbSpline
210
0.0
220
0.0
230
1.0
 70
    11
 71
     3
 72
    36
 73
    32
 74
     0
 42
0.0000000001
 43
0.0000000001
 40
0.0
 40
0.0
 40
0.0
 40
0.0
 40
0.125
 40
0.125
 40
0.125
 40
0.125
 40
0.25
 40
0.25
 40
0.25
 40
0.25
 40
0.375
 40
0.375
 40
0.375
 40
0.375
 40
0.5
 40
0.5
 40
0.5
 40
0.5
 40
0.625
 40
0.625
 40
0.625
 40
0.625
 40
0.75
 40
0.75
 40
0.75
 40
0.75
 40
0.875
 40
0.875
 40
0.875
 40
0.875
 40
1.0
 40
1.0
 40
1.0
 40
1.0
 10
-0.1765866141732284
 20
6.563393700787402
 30
0.0
 10
-0.1765866141732284
 20
6.524228346456694
 30
0.0
 10
-0.1719763779527559
 20
6.498173228346457
 30
0.0
 10
-0.1628070866141732
 20
6.485173228346457
 30
0.0
 10
-0.1628070866141732
 20
6.485173228346457
 30
0.0
 10
-0.1536417322834646
 20
6.472228346456693
 30
0.0
 10
-0.1423661417322835
 20
6.465728346456693
 30
0.0
 10
-0.1289212598425197
 20
6.465728346456693
 30
0.0
 10
-0.1289212598425197
 20
6.465728346456693
 30
0.0
 10
-0.1154212598425197
 20
6.465728346456693
 30
0.0
 10
-0.1041417322834646
 20
6.472283464566929
 30
0.0
 10
-0.0949763779527559
 20
6.48528346456693
 30
0.0
 10
-0.0949763779527559
 20
6.48528346456693
 30
0.0
 10
-0.0858070866141732
 20
6.49828346456693
 30
0.0
 10
-0.0811968503937008
 20
6.524338582677165
 30
0.0
 10
-0.0811968503937008
 20
6.563393700787402
 30
0.0
 10
-0.0811968503937008
 20
6.563393700787402
 30
0.0
 10
-0.0811968503937008
 20
6.602673228346457
 30
0.0
 10
-0.0858070866141732
 20
6.628783464566929
 30
0.0
 10
-0.0949763779527559
 20
6.641673228346457
 30
0.0
 10
-0.0949763779527559
 20
6.641673228346457
 30
0.0
 10
-0.1041417322834646
 20
6.65461811023622
 30
0.0
 10
-0.1155314960629921
 20
6.661062992125984
 30
0.0
 10
-0.1291968503937008
 20
6.661062992125984
 30
0.0
 10
-0.1291968503937008
 20
6.661062992125984
 30
0.0
 10
-0.1426968503937008
 20
6.661062992125984
 30
0.0
 10
-0.1534212598425197
 20
6.655338582677166
 30
0.0
 10
-0.1614763779527559
 20
6.643952755905512
 30
0.0
 10
-0.1614763779527559
 20
6.643952755905512
 30
0.0
 10
-0.1715314960629921
 20
6.629452755905512
 30
0.0
 10
-0.1765866141732284
 20
6.602562992125985
 30
0.0
 10
-0.1765866141732284
 20
6.563393700787402
 30
0.0
  0
SPLINE
  5
41
330
1F
100
AcDbEntity
  8
Capa 1
100
AcDbSpline
210
0.0
220
0.0
230
1.0
 70
    11
 71
     3
 72
   116
 73
   112
 74
     0
 42
0.0000000001
 43
0.0000000001
 40
0.0
 40
0.0
 40
0.0
 40
0.0
 40
0.0357142857142857
 40
0.0357142857142857
 40
0.0357142857142857
 40
0.0357142857142857
 40
0.0714285714285714
 40
0.0714285714285714
 40
0.0714285714285714
 40
0.0714285714285714
 40
0.1071428571428571
 40
0.1071428571428571
 40
0.1071428571428571
 40
0.1071428571428571
 40
0.1428571428571429
 40
0.1428571428571429
 40
0.1428571428571429
 40
0.1428571428571429
 40
0.1785714285714286
 40
0.1785714285714286
 40
0.1785714285714286
 40
0.1785714285714286
 40
0.2142857142857143
 40
0.2142857142857143
 40
0.2142857142857143
 40
0.2142857142857143
 40
0.2499999999999999
 40
0.2499999999999999
 40
0.2499999999999999
 40
0.2499999999999999
 40
0.2857142857142856
 40
0.2857142857142856
 40
0.2857142857142856
 40
0.2857142857142856
 40
0.3214285714285713
 40
0.3214285714285713
 40
0.3214285714285713
 40
0.3214285714285713
 40
0.357142857142857
 40
0.357142857142857
 40
0.357142857142857
 40
0.357142857142857
 40
0.3928571428571427
 40
0.3928571428571427
 40
0.3928571428571427
 40
0.3928571428571427
 40
0.4285714285714284
 40
0.4285714285714284
 40
0.4285714285714284
 40
0.4285714285714284
 40
0.4642857142857141
 40
0.4642857142857141
 40
0.4642857142857141
 40
0.4642857142857141
 40
0.4999999999999998
 40
0.4999999999999998
 40
0.4999999999999998
 40
0.4999999999999998
 40
0.5357142857142856
 40
0.5357142857142856
 40
0.5357142857142856
 40
0.5357142857142856
 40
0.5714285714285713
 40
0.5714285714285713
 40
0.5714285714285713
 40
0.5714285714285713
 40
0.607142857142857
 40
0.607142857142857
 40
0.607142857142857
 40
0.607142857142857
 40
0.6428571428571427
 40
0.6428571428571427
 40
0.6428571428571427
 40
0.6428571428571427
 40
0.6785714285714284
 40
0.6785714285714284
 40
0.6785714285714284
 40
0.6785714285714284
 40
0.7142857142857141
 40
0.7142857142857141
 40
0.7142857142857141
 40
0.7142857142857141
 40
0.7499999999999998
 40
0.7499999999999998
 40
0.7499999999999998
 40
0.7499999999999998
 40
0.7857142857142855
 40
0.7857142857142855
 40
0.7857142857142855
 40
0.7857142857142855
 40
0.8214285714285712
 40
0.8214285714285712
 40
0.8214285714285712
 40
0.8214285714285712
 40
0.8571428571428569
 40
0.8571428571428569
 40
0.8571428571428569
 40
0.8571428571428569
 40
0.8928571428571426
 40
0.8928571428571426
 40
0.8928571428571426
 40
0.8928571428571426
 40
0.9285714285714283
 40
0.9285714285714283
 40
0.9285714285714283
 40
0.9285714285714283
 40
0.964285714285714
 40
0.964285714285714
 40
0.964285714285714
 40
0.964285714285714
 40
1.0
 40
1.0
 40
1.0
 40
1.0
 10
0.0794685039370079
 20
6.445728346456694
 30
0.0
 10
0.0794685039370079
 20
6.445728346456694
 30
0.0
 10
0.0794685039370079
 20
6.618562992125985
 30
0.0
 10
0.0794685039370079
 20
6.618562992125985
 30
0.0
 10
0.0794685039370079
 20
6.618562992125985
 30
0.0
 10
0.0794685039370079
 20
6.618562992125985
 30
0.0
 10
0.1056338582677165
 20
6.618562992125985
 30
0.0
 10
0.1056338582677165
 20
6.618562992125985
 30
0.0
 10
0.1056338582677165
 20
6.618562992125985
 30
0.0
 10
0.1056338582677165
 20
6.618562992125985
 30
0.0
 10
0.1056338582677165
 20
6.594338582677166
 30
0.0
 10
0.1056338582677165
 20
6.594338582677166
 30
0.0
 10
0.1056338582677165
 20
6.594338582677166
 30
0.0
 10
0.1110787401574803
 20
6.602783464566929
 30
0.0
 10
0.1183031496062992
 20
6.60961811023622
 30
0.0
 10
0.1273031496062992
 20
6.614728346456693
 30
0.0
 10
0.1273031496062992
 20
6.614728346456693
 30
0.0
 10
0.1363031496062992
 20
6.619897637795276
 30
0.0
 10
0.1465787401574803
 20
6.622507874015748
 30
0.0
 10
0.1580787401574803
 20
6.622507874015748
 30
0.0
 10
0.1580787401574803
 20
6.622507874015748
 30
0.0
 10
0.1708582677165355
 20
6.622507874015748
 30
0.0
 10
0.1813582677165354
 20
6.619838582677166
 30
0.0
 10
0.1895236220472441
 20
6.614507874015748
 30
0.0
 10
0.1895236220472441
 20
6.614507874015748
 30
0.0
 10
0.197748031496063
 20
6.609173228346457
 30
0.0
 10
0.2035236220472441
 20
6.601783464566929
 30
0.0
 10
0.2068582677165355
 20
6.592228346456693
 30
0.0
 10
0.2068582677165355
 20
6.592228346456693
 30
0.0
 10
0.2205787401574803
 20
6.612397637795276
 30
0.0
 10
0.2383582677165355
 20
6.622507874015748
 30
0.0
 10
0.260248031496063
 20
6.622507874015748
 30
0.0
 10
0.260248031496063
 20
6.622507874015748
 30
0.0
 10
0.2774133858267717
 20
6.622507874015748
 30
0.0
 10
0.2905787401574803
 20
6.617728346456693
 30
0.0
 10
0.2998031496062992
 20
6.608228346456693
 30
0.0
 10
0.2998031496062992
 20
6.608228346456693
 30
0.0
 10
0.3090236220472441
 20
6.598728346456693
 30
0.0
 10
0.3136377952755906
 20
6.58411811023622
 30
0.0
 10
0.3136377952755906
 20
6.564393700787402
 30
0.0
 10
0.3136377952755906
 20
6.564393700787402
 30
0.0
 10
0.3136377952755906
 20
6.564393700787402
 30
0.0
 10
0.3136377952755906
 20
6.445728346456694
 30
0.0
 10
0.3136377952755906
 20
6.445728346456694
 30
0.0
 10
0.3136377952755906
 20
6.445728346456694
 30
0.0
 10
0.3136377952755906
 20
6.445728346456694
 30
0.0
 10
0.2845236220472441
 20
6.445728346456694
 30
0.0
 10
0.2845236220472441
 20
6.445728346456694
 30
0.0
 10
0.2845236220472441
 20
6.445728346456694
 30
0.0
 10
0.2845236220472441
 20
6.445728346456694
 30
0.0
 10
0.2845236220472441
 20
6.554618110236221
 30
0.0
 10
0.2845236220472441
 20
6.554618110236221
 30
0.0
 10
0.2845236220472441
 20
6.554618110236221
 30
0.0
 10
0.2845236220472441
 20
6.566338582677165
 30
0.0
 10
0.2835787401574803
 20
6.574783464566929
 30
0.0
 10
0.2816929133858268
 20
6.579952755905512
 30
0.0
 10
0.2816929133858268
 20
6.579952755905512
 30
0.0
 10
0.279748031496063
 20
6.585062992125985
 30
0.0
 10
0.2763031496062992
 20
6.589228346456693
 30
0.0
 10
0.2713582677165354
 20
6.592393700787402
 30
0.0
 10
0.2713582677165354
 20
6.592393700787402
 30
0.0
 10
0.2663582677165354
 20
6.595507874015748
 30
0.0
 10
0.2604685039370079
 20
6.597118110236221
 30
0.0
 10
0.253748031496063
 20
6.597118110236221
 30
0.0
 10
0.253748031496063
 20
6.597118110236221
 30
0.0
 10
0.2415787401574803
 20
6.597118110236221
 30
0.0
 10
0.2315236220472441
 20
6.593062992125985
 30
0.0
 10
0.2234685039370079
 20
6.584952755905512
 30
0.0
 10
0.2234685039370079
 20
6.584952755905512
 30
0.0
 10
0.2154685039370079
 20
6.576893700787402
 30
0.0
 10
0.2114133858267717
 20
6.563952755905512
 30
0.0
 10
0.2114133858267717
 20
6.546173228346457
 30
0.0
 10
0.2114133858267717
 20
6.546173228346457
 30
0.0
 10
0.2114133858267717
 20
6.546173228346457
 30
0.0
 10
0.2114133858267717
 20
6.445728346456694
 30
0.0
 10
0.2114133858267717
 20
6.445728346456694
 30
0.0
 10
0.2114133858267717
 20
6.445728346456694
 30
0.0
 10
0.2114133858267717
 20
6.445728346456694
 30
0.0
 10
0.1821338582677166
 20
6.445728346456694
 30
0.0
 10
0.1821338582677166
 20
6.445728346456694
 30
0.0
 10
0.1821338582677166
 20
6.445728346456694
 30
0.0
 10
0.1821338582677166
 20
6.445728346456694
 30
0.0
 10
0.1821338582677166
 20
6.558007874015749
 30
0.0
 10
0.1821338582677166
 20
6.558007874015749
 30
0.0
 10
0.1821338582677166
 20
6.558007874015749
 30
0.0
 10
0.1821338582677166
 20
6.571062992125984
 30
0.0
 10
0.179748031496063
 20
6.580838582677166
 30
0.0
 10
0.1749685039370079
 20
6.587338582677166
 30
0.0
 10
0.1749685039370079
 20
6.587338582677166
 30
0.0
 10
0.1701929133858268
 20
6.593838582677166
 30
0.0
 10
0.1624133858267717
 20
6.597118110236221
 30
0.0
 10
0.1515236220472441
 20
6.597118110236221
 30
0.0
 10
0.1515236220472441
 20
6.597118110236221
 30
0.0
 10
0.1433031496062992
 20
6.597118110236221
 30
0.0
 10
0.1356929133858268
 20
6.594952755905512
 30
0.0
 10
0.1286929133858268
 20
6.590562992125984
 30
0.0
 10
0.1286929133858268
 20
6.590562992125984
 30
0.0
 10
0.1216929133858268
 20
6.586228346456693
 30
0.0
 10
0.1165787401574803
 20
6.579893700787402
 30
0.0
 10
0.1134685039370079
 20
6.571562992125984
 30
0.0
 10
0.1134685039370079
 20
6.571562992125984
 30
0.0
 10
0.1103031496062992
 20
6.563173228346457
 30
0.0
 10
0.108748031496063
 20
6.551118110236221
 30
0.0
 10
0.108748031496063
 20
6.535393700787401
 30
0.0
 10
0.108748031496063
 20
6.535393700787401
 30
0.0
 10
0.108748031496063
 20
6.535393700787401
 30
0.0
 10
0.108748031496063
 20
6.445728346456694
 30
0.0
 10
0.108748031496063
 20
6.445728346456694
 30
0.0
 10
0.108748031496063
 20
6.445728346456694
 30
0.0
 10
0.108748031496063
 20
6.445728346456694
 30
0.0
 10
0.0794685039370079
 20
6.445728346456694
 30
0.0
 10
0.0794685039370079
 20
6.445728346456694
 30
0.0
  0
SPLINE
  5
42
330
1F
100
AcDbEntity
  8
Capa 1
100
AcDbSpline
210
0.0
220
0.0
230
1.0
 70
    11
 71
     3
 72
   116
 73
   112
 74
     0
 42
0.0000000001
 43
0.0000000001
 40
0.0
 40
0.0
 40
0.0
 40
0.0
 40
0.0357142857142857
 40
0.0357142857142857
 40
0.0357142857142857
 40
0.0357142857142857
 40
0.0714285714285714
 40
0.0714285714285714
 40
0.0714285714285714
 40
0.0714285714285714
 40
0.1071428571428571
 40
0.1071428571428571
 40
0.1071428571428571
 40
0.1071428571428571
 40
0.1428571428571429
 40
0.1428571428571429
 40
0.1428571428571429
 40
0.1428571428571429
 40
0.1785714285714286
 40
0.1785714285714286
 40
0.1785714285714286
 40
0.1785714285714286
 40
0.2142857142857143
 40
0.2142857142857143
 40
0.2142857142857143
 40
0.2142857142857143
 40
0.2499999999999999
 40
0.2499999999999999
 40
0.2499999999999999
 40
0.2499999999999999
 40
0.2857142857142856
 40
0.2857142857142856
 40
0.2857142857142856
 40
0.2857142857142856
 40
0.3214285714285713
 40
0.3214285714285713
 40
0.3214285714285713
 40
0.3214285714285713
 40
0.357142857142857
 40
0.357142857142857
 40
0.357142857142857
 40
0.357142857142857
 40
0.3928571428571427
 40
0.3928571428571427
 40
0.3928571428571427
 40
0.3928571428571427
 40
0.4285714285714284
 40
0.4285714285714284
 40
0.4285714285714284
 40
0.4285714285714284
 40
0.4642857142857141
 40
0.4642857142857141
 40
0.4642857142857141
 40
0.4642857142857141
 40
0.4999999999999998
 40
0.4999999999999998
 40
0.4999999999999998
 40
0.4999999999999998
 40
0.5357142857142856
 40
0.5357142857142856
 40
0.5357142857142856
 40
0.5357142857142856
 40
0.5714285714285713
 40
0.5714285714285713
 40
0.5714285714285713
 40
0.5714285714285713
 40
0.607142857142857
 40
0.607142857142857
 40
0.607142857142857
 40
0.607142857142857
 40
0.6428571428571427
 40
0.6428571428571427
 40
0.6428571428571427
 40
0.6428571428571427
 40
0.6785714285714284
 40
0.6785714285714284
 40
0.6785714285714284
 40
0.6785714285714284
 40
0.7142857142857141
 40
0.7142857142857141
 40
0.7142857142857141
 40
0.7142857142857141
 40
0.7499999999999998
 40
0.7499999999999998
 40
0.7499999999999998
 40
0.7499999999999998
 40
0.7857142857142855
 40
0.7857142857142855
 40
0.7857142857142855
 40
0.7857142857142855
 40
0.8214285714285712
 40
0.8214285714285712
 40
0.8214285714285712
 40
0.8214285714285712
 40
0.8571428571428569
 40
0.8571428571428569
 40
0.8571428571428569
 40
0.8571428571428569
 40
0.8928571428571426
 40
0.8928571428571426
 40
0.8928571428571426
 40
0.8928571428571426
 40
0.9285714285714283
 40
0.9285714285714283
 40
0.9285714285714283
 40
0.9285714285714283
 40
0.964285714285714
 40
0.964285714285714
 40
0.964285714285714
 40
0.964285714285714
 40
1.0
 40
1.0
 40
1.0
 40
1.0
 10
0.3571377952755906
 20
6.445728346456694
 30
0.0
 10
0.3571377952755906
 20
6.445728346456694
 30
0.0
 10
0.3571377952755906
 20
6.618562992125985
 30
0.0
 10
0.3571377952755906
 20
6.618562992125985
 30
0.0
 10
0.3571377952755906
 20
6.618562992125985
 30
0.0
 10
0.3571377952755906
 20
6.618562992125985
 30
0.0
 10
0.3833031496062992
 20
6.618562992125985
 30
0.0
 10
0.3833031496062992
 20
6.618562992125985
 30
0.0
 10
0.3833031496062992
 20
6.618562992125985
 30
0.0
 10
0.3833031496062992
 20
6.618562992125985
 30
0.0
 10
0.3833031496062992
 20
6.594338582677166
 30
0.0
 10
0.3833031496062992
 20
6.594338582677166
 30
0.0
 10
0.3833031496062992
 20
6.594338582677166
 30
0.0
 10
0.388748031496063
 20
6.602783464566929
 30
0.0
 10
0.3959724409448819
 20
6.60961811023622
 30
0.0
 10
0.4049724409448819
 20
6.614728346456693
 30
0.0
 10
0.4049724409448819
 20
6.614728346456693
 30
0.0
 10
0.4139724409448819
 20
6.619897637795276
 30
0.0
 10
0.424248031496063
 20
6.622507874015748
 30
0.0
 10
0.435748031496063
 20
6.622507874015748
 30
0.0
 10
0.435748031496063
 20
6.622507874015748
 30
0.0
 10
0.4485275590551182
 20
6.622507874015748
 30
0.0
 10
0.4590275590551181
 20
6.619838582677166
 30
0.0
 10
0.4671929133858268
 20
6.614507874015748
 30
0.0
 10
0.4671929133858268
 20
6.614507874015748
 30
0.0
 10
0.4754173228346457
 20
6.609173228346457
 30
0.0
 10
0.4811929133858268
 20
6.601783464566929
 30
0.0
 10
0.4845275590551181
 20
6.592228346456693
 30
0.0
 10
0.4845275590551181
 20
6.592228346456693
 30
0.0
 10
0.498248031496063
 20
6.612397637795276
 30
0.0
 10
0.5160275590551181
 20
6.622507874015748
 30
0.0
 10
0.5379173228346457
 20
6.622507874015748
 30
0.0
 10
0.5379173228346457
 20
6.622507874015748
 30
0.0
 10
0.5550826771653543
 20
6.622507874015748
 30
0.0
 10
0.5682480314960631
 20
6.617728346456693
 30
0.0
 10
0.5774724409448819
 20
6.608228346456693
 30
0.0
 10
0.5774724409448819
 20
6.608228346456693
 30
0.0
 10
0.5866929133858267
 20
6.598728346456693
 30
0.0
 10
0.5913070866141733
 20
6.58411811023622
 30
0.0
 10
0.5913070866141733
 20
6.564393700787402
 30
0.0
 10
0.5913070866141733
 20
6.564393700787402
 30
0.0
 10
0.5913070866141733
 20
6.564393700787402
 30
0.0
 10
0.5913070866141733
 20
6.445728346456694
 30
0.0
 10
0.5913070866141733
 20
6.445728346456694
 30
0.0
 10
0.5913070866141733
 20
6.445728346456694
 30
0.0
 10
0.5913070866141733
 20
6.445728346456694
 30
0.0
 10
0.5621929133858268
 20
6.445728346456694
 30
0.0
 10
0.5621929133858268
 20
6.445728346456694
 30
0.0
 10
0.5621929133858268
 20
6.445728346456694
 30
0.0
 10
0.5621929133858268
 20
6.445728346456694
 30
0.0
 10
0.5621929133858268
 20
6.554618110236221
 30
0.0
 10
0.5621929133858268
 20
6.554618110236221
 30
0.0
 10
0.5621929133858268
 20
6.554618110236221
 30
0.0
 10
0.5621929133858268
 20
6.566338582677165
 30
0.0
 10
0.5612480314960631
 20
6.574783464566929
 30
0.0
 10
0.5593622047244095
 20
6.579952755905512
 30
0.0
 10
0.5593622047244095
 20
6.579952755905512
 30
0.0
 10
0.5574173228346457
 20
6.585062992125985
 30
0.0
 10
0.553972440944882
 20
6.589228346456693
 30
0.0
 10
0.5490275590551181
 20
6.592393700787402
 30
0.0
 10
0.5490275590551181
 20
6.592393700787402
 30
0.0
 10
0.5440275590551181
 20
6.595507874015748
 30
0.0
 10
0.5381377952755906
 20
6.597118110236221
 30
0.0
 10
0.5314173228346457
 20
6.597118110236221
 30
0.0
 10
0.5314173228346457
 20
6.597118110236221
 30
0.0
 10
0.519248031496063
 20
6.597118110236221
 30
0.0
 10
0.5091929133858268
 20
6.593062992125985
 30
0.0
 10
0.5011377952755906
 20
6.584952755905512
 30
0.0
 10
0.5011377952755906
 20
6.584952755905512
 30
0.0
 10
0.4931377952755906
 20
6.576893700787402
 30
0.0
 10
0.4890826771653544
 20
6.563952755905512
 30
0.0
 10
0.4890826771653544
 20
6.546173228346457
 30
0.0
 10
0.4890826771653544
 20
6.546173228346457
 30
0.0
 10
0.4890826771653544
 20
6.546173228346457
 30
0.0
 10
0.4890826771653544
 20
6.445728346456694
 30
0.0
 10
0.4890826771653544
 20
6.445728346456694
 30
0.0
 10
0.4890826771653544
 20
6.445728346456694
 30
0.0
 10
0.4890826771653544
 20
6.445728346456694
 30
0.0
 10
0.4598031496062993
 20
6.445728346456694
 30
0.0
 10
0.4598031496062993
 20
6.445728346456694
 30
0.0
 10
0.4598031496062993
 20
6.445728346456694
 30
0.0
 10
0.4598031496062993
 20
6.445728346456694
 30
0.0
 10
0.4598031496062993
 20
6.558007874015749
 30
0.0
 10
0.4598031496062993
 20
6.558007874015749
 30
0.0
 10
0.4598031496062993
 20
6.558007874015749
 30
0.0
 10
0.4598031496062993
 20
6.571062992125984
 30
0.0
 10
0.4574173228346457
 20
6.580838582677166
 30
0.0
 10
0.4526377952755906
 20
6.587338582677166
 30
0.0
 10
0.4526377952755906
 20
6.587338582677166
 30
0.0
 10
0.4478622047244095
 20
6.593838582677166
 30
0.0
 10
0.4400826771653544
 20
6.597118110236221
 30
0.0
 10
0.4291929133858268
 20
6.597118110236221
 30
0.0
 10
0.4291929133858268
 20
6.597118110236221
 30
0.0
 10
0.4209724409448819
 20
6.597118110236221
 30
0.0
 10
0.4133622047244095
 20
6.594952755905512
 30
0.0
 10
0.4063622047244095
 20
6.590562992125984
 30
0.0
 10
0.4063622047244095
 20
6.590562992125984
 30
0.0
 10
0.3993622047244095
 20
6.586228346456693
 30
0.0
 10
0.394248031496063
 20
6.579893700787402
 30
0.0
 10
0.3911377952755906
 20
6.571562992125984
 30
0.0
 10
0.3911377952755906
 20
6.571562992125984
 30
0.0
 10
0.3879724409448819
 20
6.563173228346457
 30
0.0
 10
0.3864173228346457
 20
6.551118110236221
 30
0.0
 10
0.3864173228346457
 20
6.535393700787401
 30
0.0
 10
0.3864173228346457
 20
6.535393700787401
 30
0.0
 10
0.3864173228346457
 20
6.535393700787401
 30
0.0
 10
0.3864173228346457
 20
6.445728346456694
 30
0.0
 10
0.3864173228346457
 20
6.445728346456694
 30
0.0
 10
0.3864173228346457
 20
6.445728346456694
 30
0.0
 10
0.3864173228346457
 20
6.445728346456694
 30
0.0
 10
0.3571377952755906
 20
6.445728346456694
 30
0.0
 10
0.3571377952755906
 20
6.445728346456694
 30
0.0
  0
SPLINE
  5
43
330
1F
100
AcDbEntity
  8
Capa 1
370
     5
100
AcDbSpline
210
0.0
220
0.0
230
1.0
 70
    24
 71
     3
 72
     8
 73
     4
 74
     0
 42
0.0000000001
 43
0.0000000001
 40
0.0
 40
0.0
 40
0.0
 40
0.0
 40
1.0
 40
1.0
 40
1.0
 40
1.0
 10
-3.385826771653544
 20
5.060629921259843
 30
0.0
 10
-3.385826771653544
 20
5.060629921259843
 30
0.0
 10
-3.385826771653544
 20
5.580858267716535
 30
0.0
 10
-3.385826771653544
 20
5.580858267716535
 30
0.0
  0
SPLINE
  5
44
330
1F
100
AcDbEntity
  8
Capa 1
370
     5
100
AcDbSpline
210
0.0
220
0.0
230
1.0
 70
    24
 71
     3
 72
     8
 73
     4
 74
     0
 42
0.0000000001
 43
0.0000000001
 40
0.0
 40
0.0
 40
0.0
 40
0.0
 40
1.0
 40
1.0
 40
1.0
 40
1.0
 10
-3.543307086614173
 20
4.992503937007874
 30
0.0
 10
-3.543307086614173
 20
4.992503937007874
 30
0.0
 10
-3.543307086614173
 20
5.580858267716535
 30
0.0
 10
-3.543307086614173
 20
5.580858267716535
 30
0.0
  0
SPLINE
  5
45
330
1F
100
AcDbEntity
  8
Capa 1
370
     5
100
AcDbSpline
210
0.0
220
0.0
230
1.0
 70
    24
 71
     3
 72
     8
 73
     4
 74
     0
 42
0.0000000001
 43
0.0000000001
 40
0.0
 40
0.0
 40
0.0
 40
0.0
 40
1.0
 40
1.0
 40
1.0
 40
1.0
 10
-3.385826771653544
 20
5.380858267716536
 30
0.0
 10
-3.385826771653544
 20
5.380858267716536
 30
0.0
 10
-3.543307086614173
 20
5.380858267716536
 30
0.0
 10
-3.543307086614173
 20
5.380858267716536
 30
0.0
  0
SPLINE
  5
46
330
1F
100
AcDbEntity
  8
Capa 1
100
AcDbSpline
210
0.0
220
0.0
230
1.0
 70
    11
 71
     3
 72
    48
 73
    44
 74
     0
 42
0.0000000001
 43
0.0000000001
 40
0.0
 40
0.0
 40
0.0
 40
0.0
 40
0.0909090909090909
 40
0.0909090909090909
 40
0.0909090909090909
 40
0.0909090909090909
 40
0.1818181818181818
 40
0.1818181818181818
 40
0.1818181818181818
 40
0.1818181818181818
 40
0.2727272727272727
 40
0.2727272727272727
 40
0.2727272727272727
 40
0.2727272727272727
 40
0.3636363636363637
 40
0.3636363636363637
 40
0.3636363636363637
 40
0.3636363636363637
 40
0.4545454545454546
 40
0.4545454545454546
 40
0.4545454545454546
 40
0.4545454545454546
 40
0.5454545454545455
 40
0.5454545454545455
 40
0.5454545454545455
 40
0.5454545454545455
 40
0.6363636363636365
 40
0.6363636363636365
 40
0.6363636363636365
 40
0.6363636363636365
 40
0.7272727272727274
 40
0.7272727272727274
 40
0.7272727272727274
 40
0.7272727272727274
 40
0.8181818181818183
 40
0.8181818181818183
 40
0.8181818181818183
 40
0.8181818181818183
 40
0.9090909090909093
 40
0.9090909090909093
 40
0.9090909090909093
 40
0.9090909090909093
 40
1.0
 40
1.0
 40
1.0
 40
1.0
 10
-3.159433070866142
 20
5.261555118110237
 30
0.0
 10
-3.159433070866142
 20
5.261555118110237
 30
0.0
 10
-3.159433070866142
 20
5.318665354330709
 30
0.0
 10
-3.159433070866142
 20
5.318665354330709
 30
0.0
 10
-3.159433070866142
 20
5.318665354330709
 30
0.0
 10
-3.159433070866142
 20
5.318665354330709
 30
0.0
 10
-3.262937007874016
 20
5.318665354330709
 30
0.0
 10
-3.262937007874016
 20
5.318665354330709
 30
0.0
 10
-3.262937007874016
 20
5.318665354330709
 30
0.0
 10
-3.262937007874016
 20
5.318665354330709
 30
0.0
 10
-3.262937007874016
 20
5.345555118110236
 30
0.0
 10
-3.262937007874016
 20
5.345555118110236
 30
0.0
 10
-3.262937007874016
 20
5.345555118110236
 30
0.0
 10
-3.262937007874016
 20
5.345555118110236
 30
0.0
 10
-3.154047244094488
 20
5.500165354330709
 30
0.0
 10
-3.154047244094488
 20
5.500165354330709
 30
0.0
 10
-3.154047244094488
 20
5.500165354330709
 30
0.0
 10
-3.154047244094488
 20
5.500165354330709
 30
0.0
 10
-3.130102362204724
 20
5.500165354330709
 30
0.0
 10
-3.130102362204724
 20
5.500165354330709
 30
0.0
 10
-3.130102362204724
 20
5.500165354330709
 30
0.0
 10
-3.130102362204724
 20
5.500165354330709
 30
0.0
 10
-3.130102362204724
 20
5.345555118110236
 30
0.0
 10
-3.130102362204724
 20
5.345555118110236
 30
0.0
 10
-3.130102362204724
 20
5.345555118110236
 30
0.0
 10
-3.130102362204724
 20
5.345555118110236
 30
0.0
 10
-3.097877952755906
 20
5.345555118110236
 30
0.0
 10
-3.097877952755906
 20
5.345555118110236
 30
0.0
 10
-3.097877952755906
 20
5.345555118110236
 30
0.0
 10
-3.097877952755906
 20
5.345555118110236
 30
0.0
 10
-3.097877952755906
 20
5.318665354330709
 30
0.0
 10
-3.097877952755906
 20
5.318665354330709
 30
0.0
 10
-3.097877952755906
 20
5.318665354330709
 30
0.0
 10
-3.097877952755906
 20
5.318665354330709
 30
0.0
 10
-3.130102362204724
 20
5.318665354330709
 30
0.0
 10
-3.130102362204724
 20
5.318665354330709
 30
0.0
 10
-3.130102362204724
 20
5.318665354330709
 30
0.0
 10
-3.130102362204724
 20
5.318665354330709
 30
0.0
 10
-3.130102362204724
 20
5.261555118110237
 30
0.0
 10
-3.130102362204724
 20
5.261555118110237
 30
0.0
 10
-3.130102362204724
 20
5.261555118110237
 30
0.0
 10
-3.130102362204724
 20
5.261555118110237
 30
0.0
 10
-3.159433070866142
 20
5.261555118110237
 30
0.0
 10
-3.159433070866142
 20
5.261555118110237
 30
0.0
  0
SPLINE
  5
47
330
1F
100
AcDbEntity
  8
Capa 1
100
AcDbSpline
210
0.0
220
0.0
230
1.0
 70
    11
 71
     3
 72
    16
 73
    12
 74
     0
 42
0.0000000001
 43
0.0000000001
 40
0.0
 40
0.0
 40
0.0
 40
0.0
 40
0.3333333333333333
 40
0.3333333333333333
 40
0.3333333333333333
 40
0.3333333333333333
 40
0.6666666666666666
 40
0.6666666666666666
 40
0.6666666666666666
 40
0.6666666666666666
 40
1.0
 40
1.0
 40
1.0
 40
1.0
 10
-3.159433070866142
 20
5.345555118110236
 30
0.0
 10
-3.159433070866142
 20
5.345555118110236
 30
0.0
 10
-3.159433070866142
 20
5.453110236220473
 30
0.0
 10
-3.159433070866142
 20
5.453110236220473
 30
0.0
 10
-3.159433070866142
 20
5.453110236220473
 30
0.0
 10
-3.159433070866142
 20
5.453110236220473
 30
0.0
 10
-3.234102362204725
 20
5.345555118110236
 30
0.0
 10
-3.234102362204725
 20
5.345555118110236
 30
0.0
 10
-3.234102362204725
 20
5.345555118110236
 30
0.0
 10
-3.234102362204725
 20
5.345555118110236
 30
0.0
 10
-3.159433070866142
 20
5.345555118110236
 30
0.0
 10
-3.159433070866142
 20
5.345555118110236
 30
0.0
  0
SPLINE
  5
48
330
1F
100
AcDbEntity
  8
Capa 1
100
AcDbSpline
210
0.0
220
0.0
230
1.0
 70
    11
 71
     3
 72
   116
 73
   112
 74
     0
 42
0.0000000001
 43
0.0000000001
 40
0.0
 40
0.0
 40
0.0
 40
0.0
 40
0.0357142857142857
 40
0.0357142857142857
 40
0.0357142857142857
 40
0.0357142857142857
 40
0.0714285714285714
 40
0.0714285714285714
 40
0.0714285714285714
 40
0.0714285714285714
 40
0.1071428571428571
 40
0.1071428571428571
 40
0.1071428571428571
 40
0.1071428571428571
 40
0.1428571428571429
 40
0.1428571428571429
 40
0.1428571428571429
 40
0.1428571428571429
 40
0.1785714285714286
 40
0.1785714285714286
 40
0.1785714285714286
 40
0.1785714285714286
 40
0.2142857142857143
 40
0.2142857142857143
 40
0.2142857142857143
 40
0.2142857142857143
 40
0.2499999999999999
 40
0.2499999999999999
 40
0.2499999999999999
 40
0.2499999999999999
 40
0.2857142857142856
 40
0.2857142857142856
 40
0.2857142857142856
 40
0.2857142857142856
 40
0.3214285714285713
 40
0.3214285714285713
 40
0.3214285714285713
 40
0.3214285714285713
 40
0.357142857142857
 40
0.357142857142857
 40
0.357142857142857
 40
0.357142857142857
 40
0.3928571428571427
 40
0.3928571428571427
 40
0.3928571428571427
 40
0.3928571428571427
 40
0.4285714285714284
 40
0.4285714285714284
 40
0.4285714285714284
 40
0.4285714285714284
 40
0.4642857142857141
 40
0.4642857142857141
 40
0.4642857142857141
 40
0.4642857142857141
 40
0.4999999999999998
 40
0.4999999999999998
 40
0.4999999999999998
 40
0.4999999999999998
 40
0.5357142857142856
 40
0.5357142857142856
 40
0.5357142857142856
 40
0.5357142857142856
 40
0.5714285714285713
 40
0.5714285714285713
 40
0.5714285714285713
 40
0.5714285714285713
 40
0.607142857142857
 40
0.607142857142857
 40
0.607142857142857
 40
0.607142857142857
 40
0.6428571428571427
 40
0.6428571428571427
 40
0.6428571428571427
 40
0.6428571428571427
 40
0.6785714285714284
 40
0.6785714285714284
 40
0.6785714285714284
 40
0.6785714285714284
 40
0.7142857142857141
 40
0.7142857142857141
 40
0.7142857142857141
 40
0.7142857142857141
 40
0.7499999999999998
 40
0.7499999999999998
 40
0.7499999999999998
 40
0.7499999999999998
 40
0.7857142857142855
 40
0.7857142857142855
 40
0.7857142857142855
 40
0.7857142857142855
 40
0.8214285714285712
 40
0.8214285714285712
 40
0.8214285714285712
 40
0.8214285714285712
 40
0.8571428571428569
 40
0.8571428571428569
 40
0.8571428571428569
 40
0.8571428571428569
 40
0.8928571428571426
 40
0.8928571428571426
 40
0.8928571428571426
 40
0.8928571428571426
 40
0.9285714285714283
 40
0.9285714285714283
 40
0.9285714285714283
 40
0.9285714285714283
 40
0.964285714285714
 40
0.964285714285714
 40
0.964285714285714
 40
0.964285714285714
 40
1.0
 40
1.0
 40
1.0
 40
1.0
 10
-2.967157480314961
 20
5.261555118110237
 30
0.0
 10
-2.967157480314961
 20
5.261555118110237
 30
0.0
 10
-2.967157480314961
 20
5.434389763779528
 30
0.0
 10
-2.967157480314961
 20
5.434389763779528
 30
0.0
 10
-2.967157480314961
 20
5.434389763779528
 30
0.0
 10
-2.967157480314961
 20
5.434389763779528
 30
0.0
 10
-2.940992125984252
 20
5.434389763779528
 30
0.0
 10
-2.940992125984252
 20
5.434389763779528
 30
0.0
 10
-2.940992125984252
 20
5.434389763779528
 30
0.0
 10
-2.940992125984252
 20
5.434389763779528
 30
0.0
 10
-2.940992125984252
 20
5.410165354330709
 30
0.0
 10
-2.940992125984252
 20
5.410165354330709
 30
0.0
 10
-2.940992125984252
 20
5.410165354330709
 30
0.0
 10
-2.935547244094488
 20
5.418610236220473
 30
0.0
 10
-2.92832283464567
 20
5.425444881889764
 30
0.0
 10
-2.919322834645669
 20
5.430555118110236
 30
0.0
 10
-2.919322834645669
 20
5.430555118110236
 30
0.0
 10
-2.910322834645669
 20
5.435724409448819
 30
0.0
 10
-2.900047244094488
 20
5.438334645669292
 30
0.0
 10
-2.888547244094488
 20
5.438334645669292
 30
0.0
 10
-2.888547244094488
 20
5.438334645669292
 30
0.0
 10
-2.875767716535433
 20
5.438334645669292
 30
0.0
 10
-2.865267716535433
 20
5.435665354330709
 30
0.0
 10
-2.857102362204725
 20
5.430334645669292
 30
0.0
 10
-2.857102362204725
 20
5.430334645669292
 30
0.0
 10
-2.848877952755906
 20
5.425
 30
0.0
 10
-2.843102362204725
 20
5.417610236220472
 30
0.0
 10
-2.839767716535433
 20
5.408055118110236
 30
0.0
 10
-2.839767716535433
 20
5.408055118110236
 30
0.0
 10
-2.826047244094488
 20
5.428224409448819
 30
0.0
 10
-2.808267716535433
 20
5.438334645669292
 30
0.0
 10
-2.786377952755906
 20
5.438334645669292
 30
0.0
 10
-2.786377952755906
 20
5.438334645669292
 30
0.0
 10
-2.769212598425197
 20
5.438334645669292
 30
0.0
 10
-2.756047244094488
 20
5.433555118110236
 30
0.0
 10
-2.746822834645669
 20
5.424055118110236
 30
0.0
 10
-2.746822834645669
 20
5.424055118110236
 30
0.0
 10
-2.737602362204724
 20
5.414555118110236
 30
0.0
 10
-2.732988188976378
 20
5.399944881889764
 30
0.0
 10
-2.732988188976378
 20
5.380220472440946
 30
0.0
 10
-2.732988188976378
 20
5.380220472440946
 30
0.0
 10
-2.732988188976378
 20
5.380220472440946
 30
0.0
 10
-2.732988188976378
 20
5.261555118110237
 30
0.0
 10
-2.732988188976378
 20
5.261555118110237
 30
0.0
 10
-2.732988188976378
 20
5.261555118110237
 30
0.0
 10
-2.732988188976378
 20
5.261555118110237
 30
0.0
 10
-2.762102362204725
 20
5.261555118110237
 30
0.0
 10
-2.762102362204725
 20
5.261555118110237
 30
0.0
 10
-2.762102362204725
 20
5.261555118110237
 30
0.0
 10
-2.762102362204725
 20
5.261555118110237
 30
0.0
 10
-2.762102362204725
 20
5.370444881889764
 30
0.0
 10
-2.762102362204725
 20
5.370444881889764
 30
0.0
 10
-2.762102362204725
 20
5.370444881889764
 30
0.0
 10
-2.762102362204725
 20
5.382165354330709
 30
0.0
 10
-2.763047244094488
 20
5.390610236220473
 30
0.0
 10
-2.764933070866142
 20
5.395779527559055
 30
0.0
 10
-2.764933070866142
 20
5.395779527559055
 30
0.0
 10
-2.766877952755906
 20
5.400889763779528
 30
0.0
 10
-2.770322834645669
 20
5.405055118110236
 30
0.0
 10
-2.775267716535433
 20
5.408220472440945
 30
0.0
 10
-2.775267716535433
 20
5.408220472440945
 30
0.0
 10
-2.780267716535433
 20
5.411334645669292
 30
0.0
 10
-2.786157480314961
 20
5.412944881889764
 30
0.0
 10
-2.792877952755906
 20
5.412944881889764
 30
0.0
 10
-2.792877952755906
 20
5.412944881889764
 30
0.0
 10
-2.805047244094488
 20
5.412944881889764
 30
0.0
 10
-2.815102362204724
 20
5.408889763779528
 30
0.0
 10
-2.823157480314961
 20
5.400779527559055
 30
0.0
 10
-2.823157480314961
 20
5.400779527559055
 30
0.0
 10
-2.831157480314961
 20
5.392720472440945
 30
0.0
 10
-2.835212598425197
 20
5.379779527559055
 30
0.0
 10
-2.835212598425197
 20
5.362
 30
0.0
 10
-2.835212598425197
 20
5.362
 30
0.0
 10
-2.835212598425197
 20
5.362
 30
0.0
 10
-2.835212598425197
 20
5.261555118110237
 30
0.0
 10
-2.835212598425197
 20
5.261555118110237
 30
0.0
 10
-2.835212598425197
 20
5.261555118110237
 30
0.0
 10
-2.835212598425197
 20
5.261555118110237
 30
0.0
 10
-2.864492125984252
 20
5.261555118110237
 30
0.0
 10
-2.864492125984252
 20
5.261555118110237
 30
0.0
 10
-2.864492125984252
 20
5.261555118110237
 30
0.0
 10
-2.864492125984252
 20
5.261555118110237
 30
0.0
 10
-2.864492125984252
 20
5.373834645669292
 30
0.0
 10
-2.864492125984252
 20
5.373834645669292
 30
0.0
 10
-2.864492125984252
 20
5.373834645669292
 30
0.0
 10
-2.864492125984252
 20
5.386889763779528
 30
0.0
 10
-2.866877952755905
 20
5.396665354330709
 30
0.0
 10
-2.871657480314961
 20
5.403165354330709
 30
0.0
 10
-2.871657480314961
 20
5.403165354330709
 30
0.0
 10
-2.876433070866142
 20
5.409665354330709
 30
0.0
 10
-2.884212598425197
 20
5.412944881889764
 30
0.0
 10
-2.895102362204725
 20
5.412944881889764
 30
0.0
 10
-2.895102362204725
 20
5.412944881889764
 30
0.0
 10
-2.903322834645669
 20
5.412944881889764
 30
0.0
 10
-2.910933070866142
 20
5.410779527559055
 30
0.0
 10
-2.917933070866142
 20
5.406389763779528
 30
0.0
 10
-2.917933070866142
 20
5.406389763779528
 30
0.0
 10
-2.924933070866142
 20
5.402055118110236
 30
0.0
 10
-2.930047244094488
 20
5.395720472440945
 30
0.0
 10
-2.933157480314961
 20
5.387389763779527
 30
0.0
 10
-2.933157480314961
 20
5.387389763779527
 30
0.0
 10
-2.93632283464567
 20
5.379
 30
0.0
 10
-2.937877952755906
 20
5.366944881889764
 30
0.0
 10
-2.937877952755906
 20
5.351220472440945
 30
0.0
 10
-2.937877952755906
 20
5.351220472440945
 30
0.0
 10
-2.937877952755906
 20
5.351220472440945
 30
0.0
 10
-2.937877952755906
 20
5.261555118110237
 30
0.0
 10
-2.937877952755906
 20
5.261555118110237
 30
0.0
 10
-2.937877952755906
 20
5.261555118110237
 30
0.0
 10
-2.937877952755906
 20
5.261555118110237
 30
0.0
 10
-2.967157480314961
 20
5.261555118110237
 30
0.0
 10
-2.967157480314961
 20
5.261555118110237
 30
0.0
  0
SPLINE
  5
49
330
1F
100
AcDbEntity
  8
Capa 1
100
AcDbSpline
210
0.0
220
0.0
230
1.0
 70
    11
 71
     3
 72
   116
 73
   112
 74
     0
 42
0.0000000001
 43
0.0000000001
 40
0.0
 40
0.0
 40
0.0
 40
0.0
 40
0.0357142857142857
 40
0.0357142857142857
 40
0.0357142857142857
 40
0.0357142857142857
 40
0.0714285714285714
 40
0.0714285714285714
 40
0.0714285714285714
 40
0.0714285714285714
 40
0.1071428571428571
 40
0.1071428571428571
 40
0.1071428571428571
 40
0.1071428571428571
 40
0.1428571428571429
 40
0.1428571428571429
 40
0.1428571428571429
 40
0.1428571428571429
 40
0.1785714285714286
 40
0.1785714285714286
 40
0.1785714285714286
 40
0.1785714285714286
 40
0.2142857142857143
 40
0.2142857142857143
 40
0.2142857142857143
 40
0.2142857142857143
 40
0.2499999999999999
 40
0.2499999999999999
 40
0.2499999999999999
 40
0.2499999999999999
 40
0.2857142857142856
 40
0.2857142857142856
 40
0.2857142857142856
 40
0.2857142857142856
 40
0.3214285714285713
 40
0.3214285714285713
 40
0.3214285714285713
 40
0.3214285714285713
 40
0.357142857142857
 40
0.357142857142857
 40
0.357142857142857
 40
0.357142857142857
 40
0.3928571428571427
 40
0.3928571428571427
 40
0.3928571428571427
 40
0.3928571428571427
 40
0.4285714285714284
 40
0.4285714285714284
 40
0.4285714285714284
 40
0.4285714285714284
 40
0.4642857142857141
 40
0.4642857142857141
 40
0.4642857142857141
 40
0.4642857142857141
 40
0.4999999999999998
 40
0.4999999999999998
 40
0.4999999999999998
 40
0.4999999999999998
 40
0.5357142857142856
 40
0.5357142857142856
 40
0.5357142857142856
 40
0.5357142857142856
 40
0.5714285714285713
 40
0.5714285714285713
 40
0.5714285714285713
 40
0.5714285714285713
 40
0.607142857142857
 40
0.607142857142857
 40
0.607142857142857
 40
0.607142857142857
 40
0.6428571428571427
 40
0.6428571428571427
 40
0.6428571428571427
 40
0.6428571428571427
 40
0.6785714285714284
 40
0.6785714285714284
 40
0.6785714285714284
 40
0.6785714285714284
 40
0.7142857142857141
 40
0.7142857142857141
 40
0.7142857142857141
 40
0.7142857142857141
 40
0.7499999999999998
 40
0.7499999999999998
 40
0.7499999999999998
 40
0.7499999999999998
 40
0.7857142857142855
 40
0.7857142857142855
 40
0.7857142857142855
 40
0.7857142857142855
 40
0.8214285714285712
 40
0.8214285714285712
 40
0.8214285714285712
 40
0.8214285714285712
 40
0.8571428571428569
 40
0.8571428571428569
 40
0.8571428571428569
 40
0.8571428571428569
 40
0.8928571428571426
 40
0.8928571428571426
 40
0.8928571428571426
 40
0.8928571428571426
 40
0.9285714285714283
 40
0.9285714285714283
 40
0.9285714285714283
 40
0.9285714285714283
 40
0.964285714285714
 40
0.964285714285714
 40
0.964285714285714
 40
0.964285714285714
 40
1.0
 40
1.0
 40
1.0
 40
1.0
 10
-2.689488188976378
 20
5.261555118110237
 30
0.0
 10
-2.689488188976378
 20
5.261555118110237
 30
0.0
 10
-2.689488188976378
 20
5.434389763779528
 30
0.0
 10
-2.689488188976378
 20
5.434389763779528
 30
0.0
 10
-2.689488188976378
 20
5.434389763779528
 30
0.0
 10
-2.689488188976378
 20
5.434389763779528
 30
0.0
 10
-2.663322834645669
 20
5.434389763779528
 30
0.0
 10
-2.663322834645669
 20
5.434389763779528
 30
0.0
 10
-2.663322834645669
 20
5.434389763779528
 30
0.0
 10
-2.663322834645669
 20
5.434389763779528
 30
0.0
 10
-2.663322834645669
 20
5.410165354330709
 30
0.0
 10
-2.663322834645669
 20
5.410165354330709
 30
0.0
 10
-2.663322834645669
 20
5.410165354330709
 30
0.0
 10
-2.657877952755906
 20
5.418610236220473
 30
0.0
 10
-2.650653543307087
 20
5.425444881889764
 30
0.0
 10
-2.641653543307087
 20
5.430555118110236
 30
0.0
 10
-2.641653543307087
 20
5.430555118110236
 30
0.0
 10
-2.632653543307087
 20
5.435724409448819
 30
0.0
 10
-2.622377952755906
 20
5.438334645669292
 30
0.0
 10
-2.610877952755906
 20
5.438334645669292
 30
0.0
 10
-2.610877952755906
 20
5.438334645669292
 30
0.0
 10
-2.59809842519685
 20
5.438334645669292
 30
0.0
 10
-2.587598425196851
 20
5.435665354330709
 30
0.0
 10
-2.579433070866142
 20
5.430334645669292
 30
0.0
 10
-2.579433070866142
 20
5.430334645669292
 30
0.0
 10
-2.571208661417323
 20
5.425
 30
0.0
 10
-2.565433070866142
 20
5.417610236220472
 30
0.0
 10
-2.56209842519685
 20
5.408055118110236
 30
0.0
 10
-2.56209842519685
 20
5.408055118110236
 30
0.0
 10
-2.548377952755906
 20
5.428224409448819
 30
0.0
 10
-2.530598425196851
 20
5.438334645669292
 30
0.0
 10
-2.508708661417323
 20
5.438334645669292
 30
0.0
 10
-2.508708661417323
 20
5.438334645669292
 30
0.0
 10
-2.491543307086614
 20
5.438334645669292
 30
0.0
 10
-2.478377952755906
 20
5.433555118110236
 30
0.0
 10
-2.469153543307087
 20
5.424055118110236
 30
0.0
 10
-2.469153543307087
 20
5.424055118110236
 30
0.0
 10
-2.459933070866142
 20
5.414555118110236
 30
0.0
 10
-2.455318897637795
 20
5.399944881889764
 30
0.0
 10
-2.455318897637795
 20
5.380220472440946
 30
0.0
 10
-2.455318897637795
 20
5.380220472440946
 30
0.0
 10
-2.455318897637795
 20
5.380220472440946
 30
0.0
 10
-2.455318897637795
 20
5.261555118110237
 30
0.0
 10
-2.455318897637795
 20
5.261555118110237
 30
0.0
 10
-2.455318897637795
 20
5.261555118110237
 30
0.0
 10
-2.455318897637795
 20
5.261555118110237
 30
0.0
 10
-2.484433070866142
 20
5.261555118110237
 30
0.0
 10
-2.484433070866142
 20
5.261555118110237
 30
0.0
 10
-2.484433070866142
 20
5.261555118110237
 30
0.0
 10
-2.484433070866142
 20
5.261555118110237
 30
0.0
 10
-2.484433070866142
 20
5.370444881889764
 30
0.0
 10
-2.484433070866142
 20
5.370444881889764
 30
0.0
 10
-2.484433070866142
 20
5.370444881889764
 30
0.0
 10
-2.484433070866142
 20
5.382165354330709
 30
0.0
 10
-2.485377952755906
 20
5.390610236220473
 30
0.0
 10
-2.487263779527559
 20
5.395779527559055
 30
0.0
 10
-2.487263779527559
 20
5.395779527559055
 30
0.0
 10
-2.489208661417323
 20
5.400889763779528
 30
0.0
 10
-2.492653543307087
 20
5.405055118110236
 30
0.0
 10
-2.497598425196851
 20
5.408220472440945
 30
0.0
 10
-2.497598425196851
 20
5.408220472440945
 30
0.0
 10
-2.502598425196851
 20
5.411334645669292
 30
0.0
 10
-2.508488188976378
 20
5.412944881889764
 30
0.0
 10
-2.515208661417323
 20
5.412944881889764
 30
0.0
 10
-2.515208661417323
 20
5.412944881889764
 30
0.0
 10
-2.527377952755906
 20
5.412944881889764
 30
0.0
 10
-2.537433070866142
 20
5.408889763779528
 30
0.0
 10
-2.545488188976378
 20
5.400779527559055
 30
0.0
 10
-2.545488188976378
 20
5.400779527559055
 30
0.0
 10
-2.553488188976378
 20
5.392720472440945
 30
0.0
 10
-2.557543307086614
 20
5.379779527559055
 30
0.0
 10
-2.557543307086614
 20
5.362
 30
0.0
 10
-2.557543307086614
 20
5.362
 30
0.0
 10
-2.557543307086614
 20
5.362
 30
0.0
 10
-2.557543307086614
 20
5.261555118110237
 30
0.0
 10
-2.557543307086614
 20
5.261555118110237
 30
0.0
 10
-2.557543307086614
 20
5.261555118110237
 30
0.0
 10
-2.557543307086614
 20
5.261555118110237
 30
0.0
 10
-2.586822834645669
 20
5.261555118110237
 30
0.0
 10
-2.586822834645669
 20
5.261555118110237
 30
0.0
 10
-2.586822834645669
 20
5.261555118110237
 30
0.0
 10
-2.586822834645669
 20
5.261555118110237
 30
0.0
 10
-2.586822834645669
 20
5.373834645669292
 30
0.0
 10
-2.586822834645669
 20
5.373834645669292
 30
0.0
 10
-2.586822834645669
 20
5.373834645669292
 30
0.0
 10
-2.586822834645669
 20
5.386889763779528
 30
0.0
 10
-2.589208661417323
 20
5.396665354330709
 30
0.0
 10
-2.593988188976378
 20
5.403165354330709
 30
0.0
 10
-2.593988188976378
 20
5.403165354330709
 30
0.0
 10
-2.598763779527559
 20
5.409665354330709
 30
0.0
 10
-2.606543307086614
 20
5.412944881889764
 30
0.0
 10
-2.617433070866142
 20
5.412944881889764
 30
0.0
 10
-2.617433070866142
 20
5.412944881889764
 30
0.0
 10
-2.625653543307087
 20
5.412944881889764
 30
0.0
 10
-2.633263779527559
 20
5.410779527559055
 30
0.0
 10
-2.640263779527559
 20
5.406389763779528
 30
0.0
 10
-2.640263779527559
 20
5.406389763779528
 30
0.0
 10
-2.647263779527559
 20
5.402055118110236
 30
0.0
 10
-2.652377952755906
 20
5.395720472440945
 30
0.0
 10
-2.655488188976378
 20
5.387389763779527
 30
0.0
 10
-2.655488188976378
 20
5.387389763779527
 30
0.0
 10
-2.658653543307087
 20
5.379
 30
0.0
 10
-2.660208661417323
 20
5.366944881889764
 30
0.0
 10
-2.660208661417323
 20
5.351220472440945
 30
0.0
 10
-2.660208661417323
 20
5.351220472440945
 30
0.0
 10
-2.660208661417323
 20
5.351220472440945
 30
0.0
 10
-2.660208661417323
 20
5.261555118110237
 30
0.0
 10
-2.660208661417323
 20
5.261555118110237
 30
0.0
 10
-2.660208661417323
 20
5.261555118110237
 30
0.0
 10
-2.660208661417323
 20
5.261555118110237
 30
0.0
 10
-2.689488188976378
 20
5.261555118110237
 30
0.0
 10
-2.689488188976378
 20
5.261555118110237
 30
0.0
  0
SPLINE
  5
4A
330
1F
100
AcDbEntity
  8
Capa 1
370
     5
100
AcDbSpline
210
0.0
220
0.0
230
1.0
 70
    24
 71
     3
 72
     8
 73
     4
 74
     0
 42
0.0000000001
 43
0.0000000001
 40
0.0
 40
0.0
 40
0.0
 40
0.0
 40
1.0
 40
1.0
 40
1.0
 40
1.0
 10
-3.485826771653544
 20
4.960629921259843
 30
0.0
 10
-3.485826771653544
 20
4.960629921259843
 30
0.0
 10
-4.218842519685039
 20
4.960629921259843
 30
0.0
 10
-4.218842519685039
 20
4.960629921259843
 30
0.0
  0
SPLINE
  5
4B
330
1F
100
AcDbEntity
  8
Capa 1
370
     5
100
AcDbSpline
210
0.0
220
0.0
230
1.0
 70
    24
 71
     3
 72
     8
 73
     4
 74
     0
 42
0.0000000001
 43
0.0000000001
 40
0.0
 40
0.0
 40
0.0
 40
0.0
 40
1.0
 40
1.0
 40
1.0
 40
1.0
 10
-3.419913385826772
 20
5.118110236220472
 30
0.0
 10
-3.419913385826772
 20
5.118110236220472
 30
0.0
 10
-4.218842519685039
 20
5.118110236220472
 30
0.0
 10
-4.218842519685039
 20
5.118110236220472
 30
0.0
  0
SPLINE
  5
4C
330
1F
100
AcDbEntity
  8
Capa 1
370
     5
100
AcDbSpline
210
0.0
220
0.0
230
1.0
 70
    24
 71
     3
 72
     8
 73
     4
 74
     0
 42
0.0000000001
 43
0.0000000001
 40
0.0
 40
0.0
 40
0.0
 40
0.0
 40
1.0
 40
1.0
 40
1.0
 40
1.0
 10
-4.018842519685039
 20
4.960629921259843
 30
0.0
 10
-4.018842519685039
 20
4.960629921259843
 30
0.0
 10
-4.018842519685039
 20
5.118110236220472
 30
0.0
 10
-4.018842519685039
 20
5.118110236220472
 30
0.0
  0
SPLINE
  5
4D
330
1F
100
AcDbEntity
  8
Capa 1
100
AcDbSpline
210
0.0
220
0.0
230
1.0
 70
    11
 71
     3
 72
    48
 73
    44
 74
     0
 42
0.0000000001
 43
0.0000000001
 40
0.0
 40
0.0
 40
0.0
 40
0.0
 40
0.0909090909090909
 40
0.0909090909090909
 40
0.0909090909090909
 40
0.0909090909090909
 40
0.1818181818181818
 40
0.1818181818181818
 40
0.1818181818181818
 40
0.1818181818181818
 40
0.2727272727272727
 40
0.2727272727272727
 40
0.2727272727272727
 40
0.2727272727272727
 40
0.3636363636363637
 40
0.3636363636363637
 40
0.3636363636363637
 40
0.3636363636363637
 40
0.4545454545454546
 40
0.4545454545454546
 40
0.4545454545454546
 40
0.4545454545454546
 40
0.5454545454545455
 40
0.5454545454545455
 40
0.5454545454545455
 40
0.5454545454545455
 40
0.6363636363636365
 40
0.6363636363636365
 40
0.6363636363636365
 40
0.6363636363636365
 40
0.7272727272727274
 40
0.7272727272727274
 40
0.7272727272727274
 40
0.7272727272727274
 40
0.8181818181818183
 40
0.8181818181818183
 40
0.8181818181818183
 40
0.8181818181818183
 40
0.9090909090909093
 40
0.9090909090909093
 40
0.9090909090909093
 40
0.9090909090909093
 40
1.0
 40
1.0
 40
1.0
 40
1.0
 10
-3.89953937007874
 20
3.952787401574804
 30
0.0
 10
-3.89953937007874
 20
3.952787401574804
 30
0.0
 10
-3.956649606299213
 20
3.952787401574804
 30
0.0
 10
-3.956649606299213
 20
3.952787401574804
 30
0.0
 10
-3.956649606299213
 20
3.952787401574804
 30
0.0
 10
-3.956649606299213
 20
3.952787401574804
 30
0.0
 10
-3.956649606299213
 20
3.849283464566929
 30
0.0
 10
-3.956649606299213
 20
3.849283464566929
 30
0.0
 10
-3.956649606299213
 20
3.849283464566929
 30
0.0
 10
-3.956649606299213
 20
3.849283464566929
 30
0.0
 10
-3.983539370078741
 20
3.849283464566929
 30
0.0
 10
-3.983539370078741
 20
3.849283464566929
 30
0.0
 10
-3.983539370078741
 20
3.849283464566929
 30
0.0
 10
-3.983539370078741
 20
3.849283464566929
 30
0.0
 10
-4.138149606299213
 20
3.958173228346457
 30
0.0
 10
-4.138149606299213
 20
3.958173228346457
 30
0.0
 10
-4.138149606299213
 20
3.958173228346457
 30
0.0
 10
-4.138149606299213
 20
3.958173228346457
 30
0.0
 10
-4.138149606299213
 20
3.98211811023622
 30
0.0
 10
-4.138149606299213
 20
3.98211811023622
 30
0.0
 10
-4.138149606299213
 20
3.98211811023622
 30
0.0
 10
-4.138149606299213
 20
3.98211811023622
 30
0.0
 10
-3.983539370078741
 20
3.98211811023622
 30
0.0
 10
-3.983539370078741
 20
3.98211811023622
 30
0.0
 10
-3.983539370078741
 20
3.98211811023622
 30
0.0
 10
-3.983539370078741
 20
3.98211811023622
 30
0.0
 10
-3.983539370078741
 20
4.014342519685039
 30
0.0
 10
-3.983539370078741
 20
4.014342519685039
 30
0.0
 10
-3.983539370078741
 20
4.014342519685039
 30
0.0
 10
-3.983539370078741
 20
4.014342519685039
 30
0.0
 10
-3.956649606299213
 20
4.014342519685039
 30
0.0
 10
-3.956649606299213
 20
4.014342519685039
 30
0.0
 10
-3.956649606299213
 20
4.014342519685039
 30
0.0
 10
-3.956649606299213
 20
4.014342519685039
 30
0.0
 10
-3.956649606299213
 20
3.98211811023622
 30
0.0
 10
-3.956649606299213
 20
3.98211811023622
 30
0.0
 10
-3.956649606299213
 20
3.98211811023622
 30
0.0
 10
-3.956649606299213
 20
3.98211811023622
 30
0.0
 10
-3.89953937007874
 20
3.98211811023622
 30
0.0
 10
-3.89953937007874
 20
3.98211811023622
 30
0.0
 10
-3.89953937007874
 20
3.98211811023622
 30
0.0
 10
-3.89953937007874
 20
3.98211811023622
 30
0.0
 10
-3.89953937007874
 20
3.952787401574804
 30
0.0
 10
-3.89953937007874
 20
3.952787401574804
 30
0.0
  0
SPLINE
  5
4E
330
1F
100
AcDbEntity
  8
Capa 1
100
AcDbSpline
210
0.0
220
0.0
230
1.0
 70
    11
 71
     3
 72
    16
 73
    12
 74
     0
 42
0.0000000001
 43
0.0000000001
 40
0.0
 40
0.0
 40
0.0
 40
0.0
 40
0.3333333333333333
 40
0.3333333333333333
 40
0.3333333333333333
 40
0.3333333333333333
 40
0.6666666666666666
 40
0.6666666666666666
 40
0.6666666666666666
 40
0.6666666666666666
 40
1.0
 40
1.0
 40
1.0
 40
1.0
 10
-3.983539370078741
 20
3.952787401574804
 30
0.0
 10
-3.983539370078741
 20
3.952787401574804
 30
0.0
 10
-4.091094488188976
 20
3.952787401574804
 30
0.0
 10
-4.091094488188976
 20
3.952787401574804
 30
0.0
 10
-4.091094488188976
 20
3.952787401574804
 30
0.0
 10
-4.091094488188976
 20
3.952787401574804
 30
0.0
 10
-3.983539370078741
 20
3.878118110236221
 30
0.0
 10
-3.983539370078741
 20
3.878118110236221
 30
0.0
 10
-3.983539370078741
 20
3.878118110236221
 30
0.0
 10
-3.983539370078741
 20
3.878118110236221
 30
0.0
 10
-3.983539370078741
 20
3.952787401574804
 30
0.0
 10
-3.983539370078741
 20
3.952787401574804
 30
0.0
  0
SPLINE
  5
4F
330
1F
100
AcDbEntity
  8
Capa 1
100
AcDbSpline
210
0.0
220
0.0
230
1.0
 70
    11
 71
     3
 72
   116
 73
   112
 74
     0
 42
0.0000000001
 43
0.0000000001
 40
0.0
 40
0.0
 40
0.0
 40
0.0
 40
0.0357142857142857
 40
0.0357142857142857
 40
0.0357142857142857
 40
0.0357142857142857
 40
0.0714285714285714
 40
0.0714285714285714
 40
0.0714285714285714
 40
0.0714285714285714
 40
0.1071428571428571
 40
0.1071428571428571
 40
0.1071428571428571
 40
0.1071428571428571
 40
0.1428571428571429
 40
0.1428571428571429
 40
0.1428571428571429
 40
0.1428571428571429
 40
0.1785714285714286
 40
0.1785714285714286
 40
0.1785714285714286
 40
0.1785714285714286
 40
0.2142857142857143
 40
0.2142857142857143
 40
0.2142857142857143
 40
0.2142857142857143
 40
0.2499999999999999
 40
0.2499999999999999
 40
0.2499999999999999
 40
0.2499999999999999
 40
0.2857142857142856
 40
0.2857142857142856
 40
0.2857142857142856
 40
0.2857142857142856
 40
0.3214285714285713
 40
0.3214285714285713
 40
0.3214285714285713
 40
0.3214285714285713
 40
0.357142857142857
 40
0.357142857142857
 40
0.357142857142857
 40
0.357142857142857
 40
0.3928571428571427
 40
0.3928571428571427
 40
0.3928571428571427
 40
0.3928571428571427
 40
0.4285714285714284
 40
0.4285714285714284
 40
0.4285714285714284
 40
0.4285714285714284
 40
0.4642857142857141
 40
0.4642857142857141
 40
0.4642857142857141
 40
0.4642857142857141
 40
0.4999999999999998
 40
0.4999999999999998
 40
0.4999999999999998
 40
0.4999999999999998
 40
0.5357142857142856
 40
0.5357142857142856
 40
0.5357142857142856
 40
0.5357142857142856
 40
0.5714285714285713
 40
0.5714285714285713
 40
0.5714285714285713
 40
0.5714285714285713
 40
0.607142857142857
 40
0.607142857142857
 40
0.607142857142857
 40
0.607142857142857
 40
0.6428571428571427
 40
0.6428571428571427
 40
0.6428571428571427
 40
0.6428571428571427
 40
0.6785714285714284
 40
0.6785714285714284
 40
0.6785714285714284
 40
0.6785714285714284
 40
0.7142857142857141
 40
0.7142857142857141
 40
0.7142857142857141
 40
0.7142857142857141
 40
0.7499999999999998
 40
0.7499999999999998
 40
0.7499999999999998
 40
0.7499999999999998
 40
0.7857142857142855
 40
0.7857142857142855
 40
0.7857142857142855
 40
0.7857142857142855
 40
0.8214285714285712
 40
0.8214285714285712
 40
0.8214285714285712
 40
0.8214285714285712
 40
0.8571428571428569
 40
0.8571428571428569
 40
0.8571428571428569
 40
0.8571428571428569
 40
0.8928571428571426
 40
0.8928571428571426
 40
0.8928571428571426
 40
0.8928571428571426
 40
0.9285714285714283
 40
0.9285714285714283
 40
0.9285714285714283
 40
0.9285714285714283
 40
0.964285714285714
 40
0.964285714285714
 40
0.964285714285714
 40
0.964285714285714
 40
1.0
 40
1.0
 40
1.0
 40
1.0
 10
-3.89953937007874
 20
4.145062992125984
 30
0.0
 10
-3.89953937007874
 20
4.145062992125984
 30
0.0
 10
-4.072374015748031
 20
4.145062992125984
 30
0.0
 10
-4.072374015748031
 20
4.145062992125984
 30
0.0
 10
-4.072374015748031
 20
4.145062992125984
 30
0.0
 10
-4.072374015748031
 20
4.145062992125984
 30
0.0
 10
-4.072374015748031
 20
4.171228346456693
 30
0.0
 10
-4.072374015748031
 20
4.171228346456693
 30
0.0
 10
-4.072374015748031
 20
4.171228346456693
 30
0.0
 10
-4.072374015748031
 20
4.171228346456693
 30
0.0
 10
-4.048149606299213
 20
4.171228346456693
 30
0.0
 10
-4.048149606299213
 20
4.171228346456693
 30
0.0
 10
-4.048149606299213
 20
4.171228346456693
 30
0.0
 10
-4.056594488188977
 20
4.176673228346457
 30
0.0
 10
-4.063429133858268
 20
4.183897637795276
 30
0.0
 10
-4.06853937007874
 20
4.192897637795276
 30
0.0
 10
-4.06853937007874
 20
4.192897637795276
 30
0.0
 10
-4.073708661417323
 20
4.201897637795276
 30
0.0
 10
-4.076318897637796
 20
4.212173228346457
 30
0.0
 10
-4.076318897637796
 20
4.223673228346457
 30
0.0
 10
-4.076318897637796
 20
4.223673228346457
 30
0.0
 10
-4.076318897637796
 20
4.236452755905512
 30
0.0
 10
-4.073649606299213
 20
4.246952755905512
 30
0.0
 10
-4.068318897637796
 20
4.255118110236221
 30
0.0
 10
-4.068318897637796
 20
4.255118110236221
 30
0.0
 10
-4.062984251968504
 20
4.26334251968504
 30
0.0
 10
-4.055594488188977
 20
4.269118110236221
 30
0.0
 10
-4.046039370078741
 20
4.272452755905512
 30
0.0
 10
-4.046039370078741
 20
4.272452755905512
 30
0.0
 10
-4.066208661417323
 20
4.286173228346457
 30
0.0
 10
-4.076318897637796
 20
4.303952755905512
 30
0.0
 10
-4.076318897637796
 20
4.32584251968504
 30
0.0
 10
-4.076318897637796
 20
4.32584251968504
 30
0.0
 10
-4.076318897637796
 20
4.343007874015748
 30
0.0
 10
-4.071539370078741
 20
4.356173228346457
 30
0.0
 10
-4.062039370078741
 20
4.365397637795276
 30
0.0
 10
-4.062039370078741
 20
4.365397637795276
 30
0.0
 10
-4.05253937007874
 20
4.374618110236221
 30
0.0
 10
-4.037929133858268
 20
4.379232283464567
 30
0.0
 10
-4.018204724409449
 20
4.379232283464567
 30
0.0
 10
-4.018204724409449
 20
4.379232283464567
 30
0.0
 10
-4.018204724409449
 20
4.379232283464567
 30
0.0
 10
-3.89953937007874
 20
4.379232283464567
 30
0.0
 10
-3.89953937007874
 20
4.379232283464567
 30
0.0
 10
-3.89953937007874
 20
4.379232283464567
 30
0.0
 10
-3.89953937007874
 20
4.379232283464567
 30
0.0
 10
-3.89953937007874
 20
4.35011811023622
 30
0.0
 10
-3.89953937007874
 20
4.35011811023622
 30
0.0
 10
-3.89953937007874
 20
4.35011811023622
 30
0.0
 10
-3.89953937007874
 20
4.35011811023622
 30
0.0
 10
-4.008429133858268
 20
4.35011811023622
 30
0.0
 10
-4.008429133858268
 20
4.35011811023622
 30
0.0
 10
-4.008429133858268
 20
4.35011811023622
 30
0.0
 10
-4.020149606299213
 20
4.35011811023622
 30
0.0
 10
-4.028594488188976
 20
4.349173228346457
 30
0.0
 10
-4.033763779527559
 20
4.347287401574803
 30
0.0
 10
-4.033763779527559
 20
4.347287401574803
 30
0.0
 10
-4.038874015748032
 20
4.34534251968504
 30
0.0
 10
-4.04303937007874
 20
4.341897637795276
 30
0.0
 10
-4.046204724409449
 20
4.336952755905512
 30
0.0
 10
-4.046204724409449
 20
4.336952755905512
 30
0.0
 10
-4.049318897637796
 20
4.331952755905512
 30
0.0
 10
-4.050929133858268
 20
4.326062992125984
 30
0.0
 10
-4.050929133858268
 20
4.31934251968504
 30
0.0
 10
-4.050929133858268
 20
4.31934251968504
 30
0.0
 10
-4.050929133858268
 20
4.307173228346457
 30
0.0
 10
-4.046874015748032
 20
4.29711811023622
 30
0.0
 10
-4.038763779527559
 20
4.289062992125984
 30
0.0
 10
-4.038763779527559
 20
4.289062992125984
 30
0.0
 10
-4.030704724409449
 20
4.281062992125984
 30
0.0
 10
-4.017763779527559
 20
4.277007874015748
 30
0.0
 10
-3.999984251968504
 20
4.277007874015748
 30
0.0
 10
-3.999984251968504
 20
4.277007874015748
 30
0.0
 10
-3.999984251968504
 20
4.277007874015748
 30
0.0
 10
-3.89953937007874
 20
4.277007874015748
 30
0.0
 10
-3.89953937007874
 20
4.277007874015748
 30
0.0
 10
-3.89953937007874
 20
4.277007874015748
 30
0.0
 10
-3.89953937007874
 20
4.277007874015748
 30
0.0
 10
-3.89953937007874
 20
4.247728346456693
 30
0.0
 10
-3.89953937007874
 20
4.247728346456693
 30
0.0
 10
-3.89953937007874
 20
4.247728346456693
 30
0.0
 10
-3.89953937007874
 20
4.247728346456693
 30
0.0
 10
-4.011818897637795
 20
4.247728346456693
 30
0.0
 10
-4.011818897637795
 20
4.247728346456693
 30
0.0
 10
-4.011818897637795
 20
4.247728346456693
 30
0.0
 10
-4.024874015748032
 20
4.247728346456693
 30
0.0
 10
-4.034649606299213
 20
4.24534251968504
 30
0.0
 10
-4.041149606299213
 20
4.240562992125985
 30
0.0
 10
-4.041149606299213
 20
4.240562992125985
 30
0.0
 10
-4.047649606299212
 20
4.235787401574803
 30
0.0
 10
-4.050929133858268
 20
4.228007874015749
 30
0.0
 10
-4.050929133858268
 20
4.21711811023622
 30
0.0
 10
-4.050929133858268
 20
4.21711811023622
 30
0.0
 10
-4.050929133858268
 20
4.208897637795276
 30
0.0
 10
-4.048763779527559
 20
4.201287401574803
 30
0.0
 10
-4.044374015748032
 20
4.194287401574804
 30
0.0
 10
-4.044374015748032
 20
4.194287401574804
 30
0.0
 10
-4.04003937007874
 20
4.187287401574803
 30
0.0
 10
-4.033704724409449
 20
4.182173228346457
 30
0.0
 10
-4.025374015748032
 20
4.179062992125984
 30
0.0
 10
-4.025374015748032
 20
4.179062992125984
 30
0.0
 10
-4.016984251968504
 20
4.175897637795276
 30
0.0
 10
-4.004929133858268
 20
4.174342519685039
 30
0.0
 10
-3.989204724409449
 20
4.174342519685039
 30
0.0
 10
-3.989204724409449
 20
4.174342519685039
 30
0.0
 10
-3.989204724409449
 20
4.174342519685039
 30
0.0
 10
-3.89953937007874
 20
4.174342519685039
 30
0.0
 10
-3.89953937007874
 20
4.174342519685039
 30
0.0
 10
-3.89953937007874
 20
4.174342519685039
 30
0.0
 10
-3.89953937007874
 20
4.174342519685039
 30
0.0
 10
-3.89953937007874
 20
4.145062992125984
 30
0.0
 10
-3.89953937007874
 20
4.145062992125984
 30
0.0
  0
SPLINE
  5
50
330
1F
100
AcDbEntity
  8
Capa 1
100
AcDbSpline
210
0.0
220
0.0
230
1.0
 70
    11
 71
     3
 72
   116
 73
   112
 74
     0
 42
0.0000000001
 43
0.0000000001
 40
0.0
 40
0.0
 40
0.0
 40
0.0
 40
0.0357142857142857
 40
0.0357142857142857
 40
0.0357142857142857
 40
0.0357142857142857
 40
0.0714285714285714
 40
0.0714285714285714
 40
0.0714285714285714
 40
0.0714285714285714
 40
0.1071428571428571
 40
0.1071428571428571
 40
0.1071428571428571
 40
0.1071428571428571
 40
0.1428571428571429
 40
0.1428571428571429
 40
0.1428571428571429
 40
0.1428571428571429
 40
0.1785714285714286
 40
0.1785714285714286
 40
0.1785714285714286
 40
0.1785714285714286
 40
0.2142857142857143
 40
0.2142857142857143
 40
0.2142857142857143
 40
0.2142857142857143
 40
0.2499999999999999
 40
0.2499999999999999
 40
0.2499999999999999
 40
0.2499999999999999
 40
0.2857142857142856
 40
0.2857142857142856
 40
0.2857142857142856
 40
0.2857142857142856
 40
0.3214285714285713
 40
0.3214285714285713
 40
0.3214285714285713
 40
0.3214285714285713
 40
0.357142857142857
 40
0.357142857142857
 40
0.357142857142857
 40
0.357142857142857
 40
0.3928571428571427
 40
0.3928571428571427
 40
0.3928571428571427
 40
0.3928571428571427
 40
0.4285714285714284
 40
0.4285714285714284
 40
0.4285714285714284
 40
0.4285714285714284
 40
0.4642857142857141
 40
0.4642857142857141
 40
0.4642857142857141
 40
0.4642857142857141
 40
0.4999999999999998
 40
0.4999999999999998
 40
0.4999999999999998
 40
0.4999999999999998
 40
0.5357142857142856
 40
0.5357142857142856
 40
0.5357142857142856
 40
0.5357142857142856
 40
0.5714285714285713
 40
0.5714285714285713
 40
0.5714285714285713
 40
0.5714285714285713
 40
0.607142857142857
 40
0.607142857142857
 40
0.607142857142857
 40
0.607142857142857
 40
0.6428571428571427
 40
0.6428571428571427
 40
0.6428571428571427
 40
0.6428571428571427
 40
0.6785714285714284
 40
0.6785714285714284
 40
0.6785714285714284
 40
0.6785714285714284
 40
0.7142857142857141
 40
0.7142857142857141
 40
0.7142857142857141
 40
0.7142857142857141
 40
0.7499999999999998
 40
0.7499999999999998
 40
0.7499999999999998
 40
0.7499999999999998
 40
0.7857142857142855
 40
0.7857142857142855
 40
0.7857142857142855
 40
0.7857142857142855
 40
0.8214285714285712
 40
0.8214285714285712
 40
0.8214285714285712
 40
0.8214285714285712
 40
0.8571428571428569
 40
0.8571428571428569
 40
0.8571428571428569
 40
0.8571428571428569
 40
0.8928571428571426
 40
0.8928571428571426
 40
0.8928571428571426
 40
0.8928571428571426
 40
0.9285714285714283
 40
0.9285714285714283
 40
0.9285714285714283
 40
0.9285714285714283
 40
0.964285714285714
 40
0.964285714285714
 40
0.964285714285714
 40
0.964285714285714
 40
1.0
 40
1.0
 40
1.0
 40
1.0
 10
-3.89953937007874
 20
4.422732283464567
 30
0.0
 10
-3.89953937007874
 20
4.422732283464567
 30
0.0
 10
-4.072374015748031
 20
4.422732283464567
 30
0.0
 10
-4.072374015748031
 20
4.422732283464567
 30
0.0
 10
-4.072374015748031
 20
4.422732283464567
 30
0.0
 10
-4.072374015748031
 20
4.422732283464567
 30
0.0
 10
-4.072374015748031
 20
4.448897637795276
 30
0.0
 10
-4.072374015748031
 20
4.448897637795276
 30
0.0
 10
-4.072374015748031
 20
4.448897637795276
 30
0.0
 10
-4.072374015748031
 20
4.448897637795276
 30
0.0
 10
-4.048149606299213
 20
4.448897637795276
 30
0.0
 10
-4.048149606299213
 20
4.448897637795276
 30
0.0
 10
-4.048149606299213
 20
4.448897637795276
 30
0.0
 10
-4.056594488188977
 20
4.45434251968504
 30
0.0
 10
-4.063429133858268
 20
4.461566929133858
 30
0.0
 10
-4.06853937007874
 20
4.470566929133859
 30
0.0
 10
-4.06853937007874
 20
4.470566929133859
 30
0.0
 10
-4.073708661417323
 20
4.479566929133858
 30
0.0
 10
-4.076318897637796
 20
4.489842519685039
 30
0.0
 10
-4.076318897637796
 20
4.501342519685039
 30
0.0
 10
-4.076318897637796
 20
4.501342519685039
 30
0.0
 10
-4.076318897637796
 20
4.514122047244094
 30
0.0
 10
-4.073649606299213
 20
4.524622047244095
 30
0.0
 10
-4.068318897637796
 20
4.532787401574804
 30
0.0
 10
-4.068318897637796
 20
4.532787401574804
 30
0.0
 10
-4.062984251968504
 20
4.541011811023623
 30
0.0
 10
-4.055594488188977
 20
4.546787401574803
 30
0.0
 10
-4.046039370078741
 20
4.550122047244095
 30
0.0
 10
-4.046039370078741
 20
4.550122047244095
 30
0.0
 10
-4.066208661417323
 20
4.563842519685039
 30
0.0
 10
-4.076318897637796
 20
4.581622047244094
 30
0.0
 10
-4.076318897637796
 20
4.603511811023623
 30
0.0
 10
-4.076318897637796
 20
4.603511811023623
 30
0.0
 10
-4.076318897637796
 20
4.620677165354331
 30
0.0
 10
-4.071539370078741
 20
4.63384251968504
 30
0.0
 10
-4.062039370078741
 20
4.643066929133859
 30
0.0
 10
-4.062039370078741
 20
4.643066929133859
 30
0.0
 10
-4.05253937007874
 20
4.652287401574803
 30
0.0
 10
-4.037929133858268
 20
4.65690157480315
 30
0.0
 10
-4.018204724409449
 20
4.65690157480315
 30
0.0
 10
-4.018204724409449
 20
4.65690157480315
 30
0.0
 10
-4.018204724409449
 20
4.65690157480315
 30
0.0
 10
-3.89953937007874
 20
4.65690157480315
 30
0.0
 10
-3.89953937007874
 20
4.65690157480315
 30
0.0
 10
-3.89953937007874
 20
4.65690157480315
 30
0.0
 10
-3.89953937007874
 20
4.65690157480315
 30
0.0
 10
-3.89953937007874
 20
4.627787401574803
 30
0.0
 10
-3.89953937007874
 20
4.627787401574803
 30
0.0
 10
-3.89953937007874
 20
4.627787401574803
 30
0.0
 10
-3.89953937007874
 20
4.627787401574803
 30
0.0
 10
-4.008429133858268
 20
4.627787401574803
 30
0.0
 10
-4.008429133858268
 20
4.627787401574803
 30
0.0
 10
-4.008429133858268
 20
4.627787401574803
 30
0.0
 10
-4.020149606299213
 20
4.627787401574803
 30
0.0
 10
-4.028594488188976
 20
4.62684251968504
 30
0.0
 10
-4.033763779527559
 20
4.624956692913386
 30
0.0
 10
-4.033763779527559
 20
4.624956692913386
 30
0.0
 10
-4.038874015748032
 20
4.623011811023623
 30
0.0
 10
-4.04303937007874
 20
4.619566929133859
 30
0.0
 10
-4.046204724409449
 20
4.614622047244095
 30
0.0
 10
-4.046204724409449
 20
4.614622047244095
 30
0.0
 10
-4.049318897637796
 20
4.609622047244095
 30
0.0
 10
-4.050929133858268
 20
4.603732283464567
 30
0.0
 10
-4.050929133858268
 20
4.597011811023623
 30
0.0
 10
-4.050929133858268
 20
4.597011811023623
 30
0.0
 10
-4.050929133858268
 20
4.58484251968504
 30
0.0
 10
-4.046874015748032
 20
4.574787401574803
 30
0.0
 10
-4.038763779527559
 20
4.566732283464567
 30
0.0
 10
-4.038763779527559
 20
4.566732283464567
 30
0.0
 10
-4.030704724409449
 20
4.558732283464567
 30
0.0
 10
-4.017763779527559
 20
4.554677165354331
 30
0.0
 10
-3.999984251968504
 20
4.554677165354331
 30
0.0
 10
-3.999984251968504
 20
4.554677165354331
 30
0.0
 10
-3.999984251968504
 20
4.554677165354331
 30
0.0
 10
-3.89953937007874
 20
4.554677165354331
 30
0.0
 10
-3.89953937007874
 20
4.554677165354331
 30
0.0
 10
-3.89953937007874
 20
4.554677165354331
 30
0.0
 10
-3.89953937007874
 20
4.554677165354331
 30
0.0
 10
-3.89953937007874
 20
4.525397637795276
 30
0.0
 10
-3.89953937007874
 20
4.525397637795276
 30
0.0
 10
-3.89953937007874
 20
4.525397637795276
 30
0.0
 10
-3.89953937007874
 20
4.525397637795276
 30
0.0
 10
-4.011818897637795
 20
4.525397637795276
 30
0.0
 10
-4.011818897637795
 20
4.525397637795276
 30
0.0
 10
-4.011818897637795
 20
4.525397637795276
 30
0.0
 10
-4.024874015748032
 20
4.525397637795276
 30
0.0
 10
-4.034649606299213
 20
4.523011811023622
 30
0.0
 10
-4.041149606299213
 20
4.518232283464567
 30
0.0
 10
-4.041149606299213
 20
4.518232283464567
 30
0.0
 10
-4.047649606299212
 20
4.513456692913386
 30
0.0
 10
-4.050929133858268
 20
4.505677165354331
 30
0.0
 10
-4.050929133858268
 20
4.494787401574803
 30
0.0
 10
-4.050929133858268
 20
4.494787401574803
 30
0.0
 10
-4.050929133858268
 20
4.486566929133859
 30
0.0
 10
-4.048763779527559
 20
4.478956692913386
 30
0.0
 10
-4.044374015748032
 20
4.471956692913386
 30
0.0
 10
-4.044374015748032
 20
4.471956692913386
 30
0.0
 10
-4.04003937007874
 20
4.464956692913386
 30
0.0
 10
-4.033704724409449
 20
4.45984251968504
 30
0.0
 10
-4.025374015748032
 20
4.456732283464567
 30
0.0
 10
-4.025374015748032
 20
4.456732283464567
 30
0.0
 10
-4.016984251968504
 20
4.453566929133858
 30
0.0
 10
-4.004929133858268
 20
4.452011811023622
 30
0.0
 10
-3.989204724409449
 20
4.452011811023622
 30
0.0
 10
-3.989204724409449
 20
4.452011811023622
 30
0.0
 10
-3.989204724409449
 20
4.452011811023622
 30
0.0
 10
-3.89953937007874
 20
4.452011811023622
 30
0.0
 10
-3.89953937007874
 20
4.452011811023622
 30
0.0
 10
-3.89953937007874
 20
4.452011811023622
 30
0.0
 10
-3.89953937007874
 20
4.452011811023622
 30
0.0
 10
-3.89953937007874
 20
4.422732283464567
 30
0.0
 10
-3.89953937007874
 20
4.422732283464567
 30
0.0
  0
SPLINE
  5
51
330
1F
100
AcDbEntity
  8
Capa 1
370
     5
100
AcDbSpline
210
0.0
220
0.0
230
1.0
 70
    24
 71
     3
 72
     8
 73
     4
 74
     0
 42
0.0000000001
 43
0.0000000001
 40
0.0
 40
0.0
 40
0.0
 40
0.0
 40
1.0
 40
1.0
 40
1.0
 40
1.0
 10
3.800972440944882
 20
5.118110236220472
 30
0.0
 10
3.800972440944882
 20
5.118110236220472
 30
0.0
 10
3.800972440944882
 20
4.960629921259843
 30
0.0
 10
3.800972440944882
 20
4.960629921259843
 30
0.0
  0
SPLINE
  5
52
330
1F
100
AcDbEntity
  8
Capa 1
370
     5
100
AcDbSpline
210
0.0
220
0.0
230
1.0
 70
    24
 71
     3
 72
     8
 73
     4
 74
     0
 42
0.0000000001
 43
0.0000000001
 40
0.0
 40
0.0
 40
0.0
 40
0.0
 40
1.0
 40
1.0
 40
1.0
 40
1.0
 10
3.485822834645669
 20
4.960629921259843
 30
0.0
 10
3.485822834645669
 20
4.960629921259843
 30
0.0
 10
4.000972440944882
 20
4.960629921259843
 30
0.0
 10
4.000972440944882
 20
4.960629921259843
 30
0.0
  0
SPLINE
  5
53
330
1F
100
AcDbEntity
  8
Capa 1
370
     5
100
AcDbSpline
210
0.0
220
0.0
230
1.0
 70
    24
 71
     3
 72
     8
 73
     4
 74
     0
 42
0.0000000001
 43
0.0000000001
 40
0.0
 40
0.0
 40
0.0
 40
0.0
 40
1.0
 40
1.0
 40
1.0
 40
1.0
 10
3.470677165354331
 20
5.118110236220472
 30
0.0
 10
3.470677165354331
 20
5.118110236220472
 30
0.0
 10
4.000972440944882
 20
5.118110236220472
 30
0.0
 10
4.000972440944882
 20
5.118110236220472
 30
0.0
  0
SPLINE
  5
54
330
1F
100
AcDbEntity
  8
Capa 1
100
AcDbSpline
210
0.0
220
0.0
230
1.0
 70
    11
 71
     3
 72
    48
 73
    44
 74
     0
 42
0.0000000001
 43
0.0000000001
 40
0.0
 40
0.0
 40
0.0
 40
0.0
 40
0.0909090909090909
 40
0.0909090909090909
 40
0.0909090909090909
 40
0.0909090909090909
 40
0.1818181818181818
 40
0.1818181818181818
 40
0.1818181818181818
 40
0.1818181818181818
 40
0.2727272727272727
 40
0.2727272727272727
 40
0.2727272727272727
 40
0.2727272727272727
 40
0.3636363636363637
 40
0.3636363636363637
 40
0.3636363636363637
 40
0.3636363636363637
 40
0.4545454545454546
 40
0.4545454545454546
 40
0.4545454545454546
 40
0.4545454545454546
 40
0.5454545454545455
 40
0.5454545454545455
 40
0.5454545454545455
 40
0.5454545454545455
 40
0.6363636363636365
 40
0.6363636363636365
 40
0.6363636363636365
 40
0.6363636363636365
 40
0.7272727272727274
 40
0.7272727272727274
 40
0.7272727272727274
 40
0.7272727272727274
 40
0.8181818181818183
 40
0.8181818181818183
 40
0.8181818181818183
 40
0.8181818181818183
 40
0.9090909090909093
 40
0.9090909090909093
 40
0.9090909090909093
 40
0.9090909090909093
 40
1.0
 40
1.0
 40
1.0
 40
1.0
 10
3.911314960629921
 20
4.202866141732284
 30
0.0
 10
3.911314960629921
 20
4.202866141732284
 30
0.0
 10
3.854204724409449
 20
4.202866141732284
 30
0.0
 10
3.854204724409449
 20
4.202866141732284
 30
0.0
 10
3.854204724409449
 20
4.202866141732284
 30
0.0
 10
3.854204724409449
 20
4.202866141732284
 30
0.0
 10
3.854204724409449
 20
4.09936220472441
 30
0.0
 10
3.854204724409449
 20
4.09936220472441
 30
0.0
 10
3.854204724409449
 20
4.09936220472441
 30
0.0
 10
3.854204724409449
 20
4.09936220472441
 30
0.0
 10
3.827314960629921
 20
4.09936220472441
 30
0.0
 10
3.827314960629921
 20
4.09936220472441
 30
0.0
 10
3.827314960629921
 20
4.09936220472441
 30
0.0
 10
3.827314960629921
 20
4.09936220472441
 30
0.0
 10
3.672704724409449
 20
4.208251968503937
 30
0.0
 10
3.672704724409449
 20
4.208251968503937
 30
0.0
 10
3.672704724409449
 20
4.208251968503937
 30
0.0
 10
3.672704724409449
 20
4.208251968503937
 30
0.0
 10
3.672704724409449
 20
4.232196850393701
 30
0.0
 10
3.672704724409449
 20
4.232196850393701
 30
0.0
 10
3.672704724409449
 20
4.232196850393701
 30
0.0
 10
3.672704724409449
 20
4.232196850393701
 30
0.0
 10
3.827314960629921
 20
4.232196850393701
 30
0.0
 10
3.827314960629921
 20
4.232196850393701
 30
0.0
 10
3.827314960629921
 20
4.232196850393701
 30
0.0
 10
3.827314960629921
 20
4.232196850393701
 30
0.0
 10
3.827314960629921
 20
4.26442125984252
 30
0.0
 10
3.827314960629921
 20
4.26442125984252
 30
0.0
 10
3.827314960629921
 20
4.26442125984252
 30
0.0
 10
3.827314960629921
 20
4.26442125984252
 30
0.0
 10
3.854204724409449
 20
4.26442125984252
 30
0.0
 10
3.854204724409449
 20
4.26442125984252
 30
0.0
 10
3.854204724409449
 20
4.26442125984252
 30
0.0
 10
3.854204724409449
 20
4.26442125984252
 30
0.0
 10
3.854204724409449
 20
4.232196850393701
 30
0.0
 10
3.854204724409449
 20
4.232196850393701
 30
0.0
 10
3.854204724409449
 20
4.232196850393701
 30
0.0
 10
3.854204724409449
 20
4.232196850393701
 30
0.0
 10
3.911314960629921
 20
4.232196850393701
 30
0.0
 10
3.911314960629921
 20
4.232196850393701
 30
0.0
 10
3.911314960629921
 20
4.232196850393701
 30
0.0
 10
3.911314960629921
 20
4.232196850393701
 30
0.0
 10
3.911314960629921
 20
4.202866141732284
 30
0.0
 10
3.911314960629921
 20
4.202866141732284
 30
0.0
  0
SPLINE
  5
55
330
1F
100
AcDbEntity
  8
Capa 1
100
AcDbSpline
210
0.0
220
0.0
230
1.0
 70
    11
 71
     3
 72
    16
 73
    12
 74
     0
 42
0.0000000001
 43
0.0000000001
 40
0.0
 40
0.0
 40
0.0
 40
0.0
 40
0.3333333333333333
 40
0.3333333333333333
 40
0.3333333333333333
 40
0.3333333333333333
 40
0.6666666666666666
 40
0.6666666666666666
 40
0.6666666666666666
 40
0.6666666666666666
 40
1.0
 40
1.0
 40
1.0
 40
1.0
 10
3.827314960629921
 20
4.202866141732284
 30
0.0
 10
3.827314960629921
 20
4.202866141732284
 30
0.0
 10
3.719759842519685
 20
4.202866141732284
 30
0.0
 10
3.719759842519685
 20
4.202866141732284
 30
0.0
 10
3.719759842519685
 20
4.202866141732284
 30
0.0
 10
3.719759842519685
 20
4.202866141732284
 30
0.0
 10
3.827314960629921
 20
4.128196850393701
 30
0.0
 10
3.827314960629921
 20
4.128196850393701
 30
0.0
 10
3.827314960629921
 20
4.128196850393701
 30
0.0
 10
3.827314960629921
 20
4.128196850393701
 30
0.0
 10
3.827314960629921
 20
4.202866141732284
 30
0.0
 10
3.827314960629921
 20
4.202866141732284
 30
0.0
  0
SPLINE
  5
56
330
1F
100
AcDbEntity
  8
Capa 1
100
AcDbSpline
210
0.0
220
0.0
230
1.0
 70
    11
 71
     3
 72
   116
 73
   112
 74
     0
 42
0.0000000001
 43
0.0000000001
 40
0.0
 40
0.0
 40
0.0
 40
0.0
 40
0.0357142857142857
 40
0.0357142857142857
 40
0.0357142857142857
 40
0.0357142857142857
 40
0.0714285714285714
 40
0.0714285714285714
 40
0.0714285714285714
 40
0.0714285714285714
 40
0.1071428571428571
 40
0.1071428571428571
 40
0.1071428571428571
 40
0.1071428571428571
 40
0.1428571428571429
 40
0.1428571428571429
 40
0.1428571428571429
 40
0.1428571428571429
 40
0.1785714285714286
 40
0.1785714285714286
 40
0.1785714285714286
 40
0.1785714285714286
 40
0.2142857142857143
 40
0.2142857142857143
 40
0.2142857142857143
 40
0.2142857142857143
 40
0.2499999999999999
 40
0.2499999999999999
 40
0.2499999999999999
 40
0.2499999999999999
 40
0.2857142857142856
 40
0.2857142857142856
 40
0.2857142857142856
 40
0.2857142857142856
 40
0.3214285714285713
 40
0.3214285714285713
 40
0.3214285714285713
 40
0.3214285714285713
 40
0.357142857142857
 40
0.357142857142857
 40
0.357142857142857
 40
0.357142857142857
 40
0.3928571428571427
 40
0.3928571428571427
 40
0.3928571428571427
 40
0.3928571428571427
 40
0.4285714285714284
 40
0.4285714285714284
 40
0.4285714285714284
 40
0.4285714285714284
 40
0.4642857142857141
 40
0.4642857142857141
 40
0.4642857142857141
 40
0.4642857142857141
 40
0.4999999999999998
 40
0.4999999999999998
 40
0.4999999999999998
 40
0.4999999999999998
 40
0.5357142857142856
 40
0.5357142857142856
 40
0.5357142857142856
 40
0.5357142857142856
 40
0.5714285714285713
 40
0.5714285714285713
 40
0.5714285714285713
 40
0.5714285714285713
 40
0.607142857142857
 40
0.607142857142857
 40
0.607142857142857
 40
0.607142857142857
 40
0.6428571428571427
 40
0.6428571428571427
 40
0.6428571428571427
 40
0.6428571428571427
 40
0.6785714285714284
 40
0.6785714285714284
 40
0.6785714285714284
 40
0.6785714285714284
 40
0.7142857142857141
 40
0.7142857142857141
 40
0.7142857142857141
 40
0.7142857142857141
 40
0.7499999999999998
 40
0.7499999999999998
 40
0.7499999999999998
 40
0.7499999999999998
 40
0.7857142857142855
 40
0.7857142857142855
 40
0.7857142857142855
 40
0.7857142857142855
 40
0.8214285714285712
 40
0.8214285714285712
 40
0.8214285714285712
 40
0.8214285714285712
 40
0.8571428571428569
 40
0.8571428571428569
 40
0.8571428571428569
 40
0.8571428571428569
 40
0.8928571428571426
 40
0.8928571428571426
 40
0.8928571428571426
 40
0.8928571428571426
 40
0.9285714285714283
 40
0.9285714285714283
 40
0.9285714285714283
 40
0.9285714285714283
 40
0.964285714285714
 40
0.964285714285714
 40
0.964285714285714
 40
0.964285714285714
 40
1.0
 40
1.0
 40
1.0
 40
1.0
 10
3.911314960629921
 20
4.395141732283465
 30
0.0
 10
3.911314960629921
 20
4.395141732283465
 30
0.0
 10
3.73848031496063
 20
4.395141732283465
 30
0.0
 10
3.73848031496063
 20
4.395141732283465
 30
0.0
 10
3.73848031496063
 20
4.395141732283465
 30
0.0
 10
3.73848031496063
 20
4.395141732283465
 30
0.0
 10
3.73848031496063
 20
4.421307086614173
 30
0.0
 10
3.73848031496063
 20
4.421307086614173
 30
0.0
 10
3.73848031496063
 20
4.421307086614173
 30
0.0
 10
3.73848031496063
 20
4.421307086614173
 30
0.0
 10
3.762704724409449
 20
4.421307086614173
 30
0.0
 10
3.762704724409449
 20
4.421307086614173
 30
0.0
 10
3.762704724409449
 20
4.421307086614173
 30
0.0
 10
3.754259842519685
 20
4.426751968503937
 30
0.0
 10
3.747425196850394
 20
4.433976377952756
 30
0.0
 10
3.742314960629921
 20
4.442976377952756
 30
0.0
 10
3.742314960629921
 20
4.442976377952756
 30
0.0
 10
3.737145669291339
 20
4.451976377952756
 30
0.0
 10
3.734535433070866
 20
4.462251968503937
 30
0.0
 10
3.734535433070866
 20
4.473751968503938
 30
0.0
 10
3.734535433070866
 20
4.473751968503938
 30
0.0
 10
3.734535433070866
 20
4.486531496062993
 30
0.0
 10
3.737204724409449
 20
4.497031496062992
 30
0.0
 10
3.742535433070866
 20
4.505196850393701
 30
0.0
 10
3.742535433070866
 20
4.505196850393701
 30
0.0
 10
3.747870078740158
 20
4.51342125984252
 30
0.0
 10
3.755259842519685
 20
4.519196850393701
 30
0.0
 10
3.764814960629921
 20
4.522531496062992
 30
0.0
 10
3.764814960629921
 20
4.522531496062992
 30
0.0
 10
3.744645669291339
 20
4.536251968503938
 30
0.0
 10
3.734535433070866
 20
4.554031496062993
 30
0.0
 10
3.734535433070866
 20
4.57592125984252
 30
0.0
 10
3.734535433070866
 20
4.57592125984252
 30
0.0
 10
3.734535433070866
 20
4.593086614173228
 30
0.0
 10
3.739314960629921
 20
4.606251968503937
 30
0.0
 10
3.748814960629921
 20
4.615476377952756
 30
0.0
 10
3.748814960629921
 20
4.615476377952756
 30
0.0
 10
3.758314960629921
 20
4.624696850393701
 30
0.0
 10
3.772925196850394
 20
4.629311023622048
 30
0.0
 10
3.792649606299213
 20
4.629311023622048
 30
0.0
 10
3.792649606299213
 20
4.629311023622048
 30
0.0
 10
3.792649606299213
 20
4.629311023622048
 30
0.0
 10
3.911314960629921
 20
4.629311023622048
 30
0.0
 10
3.911314960629921
 20
4.629311023622048
 30
0.0
 10
3.911314960629921
 20
4.629311023622048
 30
0.0
 10
3.911314960629921
 20
4.629311023622048
 30
0.0
 10
3.911314960629921
 20
4.600196850393701
 30
0.0
 10
3.911314960629921
 20
4.600196850393701
 30
0.0
 10
3.911314960629921
 20
4.600196850393701
 30
0.0
 10
3.911314960629921
 20
4.600196850393701
 30
0.0
 10
3.802425196850394
 20
4.600196850393701
 30
0.0
 10
3.802425196850394
 20
4.600196850393701
 30
0.0
 10
3.802425196850394
 20
4.600196850393701
 30
0.0
 10
3.790704724409449
 20
4.600196850393701
 30
0.0
 10
3.782259842519685
 20
4.599251968503937
 30
0.0
 10
3.777090551181102
 20
4.597366141732284
 30
0.0
 10
3.777090551181102
 20
4.597366141732284
 30
0.0
 10
3.77198031496063
 20
4.59542125984252
 30
0.0
 10
3.767814960629921
 20
4.591976377952756
 30
0.0
 10
3.764649606299213
 20
4.587031496062992
 30
0.0
 10
3.764649606299213
 20
4.587031496062992
 30
0.0
 10
3.761535433070866
 20
4.582031496062992
 30
0.0
 10
3.759925196850394
 20
4.576141732283465
 30
0.0
 10
3.759925196850394
 20
4.56942125984252
 30
0.0
 10
3.759925196850394
 20
4.56942125984252
 30
0.0
 10
3.759925196850394
 20
4.557251968503937
 30
0.0
 10
3.76398031496063
 20
4.547196850393701
 30
0.0
 10
3.772090551181103
 20
4.539141732283465
 30
0.0
 10
3.772090551181103
 20
4.539141732283465
 30
0.0
 10
3.780149606299213
 20
4.531141732283465
 30
0.0
 10
3.793090551181102
 20
4.527086614173228
 30
0.0
 10
3.810870078740158
 20
4.527086614173228
 30
0.0
 10
3.810870078740158
 20
4.527086614173228
 30
0.0
 10
3.810870078740158
 20
4.527086614173228
 30
0.0
 10
3.911314960629921
 20
4.527086614173228
 30
0.0
 10
3.911314960629921
 20
4.527086614173228
 30
0.0
 10
3.911314960629921
 20
4.527086614173228
 30
0.0
 10
3.911314960629921
 20
4.527086614173228
 30
0.0
 10
3.911314960629921
 20
4.497807086614174
 30
0.0
 10
3.911314960629921
 20
4.497807086614174
 30
0.0
 10
3.911314960629921
 20
4.497807086614174
 30
0.0
 10
3.911314960629921
 20
4.497807086614174
 30
0.0
 10
3.799035433070866
 20
4.497807086614174
 30
0.0
 10
3.799035433070866
 20
4.497807086614174
 30
0.0
 10
3.799035433070866
 20
4.497807086614174
 30
0.0
 10
3.78598031496063
 20
4.497807086614174
 30
0.0
 10
3.776204724409449
 20
4.49542125984252
 30
0.0
 10
3.769704724409449
 20
4.490641732283465
 30
0.0
 10
3.769704724409449
 20
4.490641732283465
 30
0.0
 10
3.763204724409449
 20
4.485866141732283
 30
0.0
 10
3.759925196850394
 20
4.478086614173229
 30
0.0
 10
3.759925196850394
 20
4.467196850393701
 30
0.0
 10
3.759925196850394
 20
4.467196850393701
 30
0.0
 10
3.759925196850394
 20
4.458976377952756
 30
0.0
 10
3.762090551181103
 20
4.451366141732284
 30
0.0
 10
3.76648031496063
 20
4.444366141732283
 30
0.0
 10
3.76648031496063
 20
4.444366141732283
 30
0.0
 10
3.770814960629922
 20
4.437366141732284
 30
0.0
 10
3.777149606299213
 20
4.432251968503937
 30
0.0
 10
3.78548031496063
 20
4.429141732283465
 30
0.0
 10
3.78548031496063
 20
4.429141732283465
 30
0.0
 10
3.793870078740158
 20
4.425976377952756
 30
0.0
 10
3.805925196850394
 20
4.42442125984252
 30
0.0
 10
3.821649606299213
 20
4.42442125984252
 30
0.0
 10
3.821649606299213
 20
4.42442125984252
 30
0.0
 10
3.821649606299213
 20
4.42442125984252
 30
0.0
 10
3.911314960629921
 20
4.42442125984252
 30
0.0
 10
3.911314960629921
 20
4.42442125984252
 30
0.0
 10
3.911314960629921
 20
4.42442125984252
 30
0.0
 10
3.911314960629921
 20
4.42442125984252
 30
0.0
 10
3.911314960629921
 20
4.395141732283465
 30
0.0
 10
3.911314960629921
 20
4.395141732283465
 30
0.0
  0
SPLINE
  5
57
330
1F
100
AcDbEntity
  8
Capa 1
100
AcDbSpline
210
0.0
220
0.0
230
1.0
 70
    11
 71
     3
 72
   116
 73
   112
 74
     0
 42
0.0000000001
 43
0.0000000001
 40
0.0
 40
0.0
 40
0.0
 40
0.0
 40
0.0357142857142857
 40
0.0357142857142857
 40
0.0357142857142857
 40
0.0357142857142857
 40
0.0714285714285714
 40
0.0714285714285714
 40
0.0714285714285714
 40
0.0714285714285714
 40
0.1071428571428571
 40
0.1071428571428571
 40
0.1071428571428571
 40
0.1071428571428571
 40
0.1428571428571429
 40
0.1428571428571429
 40
0.1428571428571429
 40
0.1428571428571429
 40
0.1785714285714286
 40
0.1785714285714286
 40
0.1785714285714286
 40
0.1785714285714286
 40
0.2142857142857143
 40
0.2142857142857143
 40
0.2142857142857143
 40
0.2142857142857143
 40
0.2499999999999999
 40
0.2499999999999999
 40
0.2499999999999999
 40
0.2499999999999999
 40
0.2857142857142856
 40
0.2857142857142856
 40
0.2857142857142856
 40
0.2857142857142856
 40
0.3214285714285713
 40
0.3214285714285713
 40
0.3214285714285713
 40
0.3214285714285713
 40
0.357142857142857
 40
0.357142857142857
 40
0.357142857142857
 40
0.357142857142857
 40
0.3928571428571427
 40
0.3928571428571427
 40
0.3928571428571427
 40
0.3928571428571427
 40
0.4285714285714284
 40
0.4285714285714284
 40
0.4285714285714284
 40
0.4285714285714284
 40
0.4642857142857141
 40
0.4642857142857141
 40
0.4642857142857141
 40
0.4642857142857141
 40
0.4999999999999998
 40
0.4999999999999998
 40
0.4999999999999998
 40
0.4999999999999998
 40
0.5357142857142856
 40
0.5357142857142856
 40
0.5357142857142856
 40
0.5357142857142856
 40
0.5714285714285713
 40
0.5714285714285713
 40
0.5714285714285713
 40
0.5714285714285713
 40
0.607142857142857
 40
0.607142857142857
 40
0.607142857142857
 40
0.607142857142857
 40
0.6428571428571427
 40
0.6428571428571427
 40
0.6428571428571427
 40
0.6428571428571427
 40
0.6785714285714284
 40
0.6785714285714284
 40
0.6785714285714284
 40
0.6785714285714284
 40
0.7142857142857141
 40
0.7142857142857141
 40
0.7142857142857141
 40
0.7142857142857141
 40
0.7499999999999998
 40
0.7499999999999998
 40
0.7499999999999998
 40
0.7499999999999998
 40
0.7857142857142855
 40
0.7857142857142855
 40
0.7857142857142855
 40
0.7857142857142855
 40
0.8214285714285712
 40
0.8214285714285712
 40
0.8214285714285712
 40
0.8214285714285712
 40
0.8571428571428569
 40
0.8571428571428569
 40
0.8571428571428569
 40
0.8571428571428569
 40
0.8928571428571426
 40
0.8928571428571426
 40
0.8928571428571426
 40
0.8928571428571426
 40
0.9285714285714283
 40
0.9285714285714283
 40
0.9285714285714283
 40
0.9285714285714283
 40
0.964285714285714
 40
0.964285714285714
 40
0.964285714285714
 40
0.964285714285714
 40
1.0
 40
1.0
 40
1.0
 40
1.0
 10
3.911314960629921
 20
4.672811023622048
 30
0.0
 10
3.911314960629921
 20
4.672811023622048
 30
0.0
 10
3.73848031496063
 20
4.672811023622048
 30
0.0
 10
3.73848031496063
 20
4.672811023622048
 30
0.0
 10
3.73848031496063
 20
4.672811023622048
 30
0.0
 10
3.73848031496063
 20
4.672811023622048
 30
0.0
 10
3.73848031496063
 20
4.698976377952756
 30
0.0
 10
3.73848031496063
 20
4.698976377952756
 30
0.0
 10
3.73848031496063
 20
4.698976377952756
 30
0.0
 10
3.73848031496063
 20
4.698976377952756
 30
0.0
 10
3.762704724409449
 20
4.698976377952756
 30
0.0
 10
3.762704724409449
 20
4.698976377952756
 30
0.0
 10
3.762704724409449
 20
4.698976377952756
 30
0.0
 10
3.754259842519685
 20
4.70442125984252
 30
0.0
 10
3.747425196850394
 20
4.711645669291339
 30
0.0
 10
3.742314960629921
 20
4.720645669291339
 30
0.0
 10
3.742314960629921
 20
4.720645669291339
 30
0.0
 10
3.737145669291339
 20
4.729645669291339
 30
0.0
 10
3.734535433070866
 20
4.73992125984252
 30
0.0
 10
3.734535433070866
 20
4.75142125984252
 30
0.0
 10
3.734535433070866
 20
4.75142125984252
 30
0.0
 10
3.734535433070866
 20
4.764200787401575
 30
0.0
 10
3.737204724409449
 20
4.774700787401575
 30
0.0
 10
3.742535433070866
 20
4.782866141732284
 30
0.0
 10
3.742535433070866
 20
4.782866141732284
 30
0.0
 10
3.747870078740158
 20
4.791090551181102
 30
0.0
 10
3.755259842519685
 20
4.796866141732283
 30
0.0
 10
3.764814960629921
 20
4.800200787401575
 30
0.0
 10
3.764814960629921
 20
4.800200787401575
 30
0.0
 10
3.744645669291339
 20
4.81392125984252
 30
0.0
 10
3.734535433070866
 20
4.831700787401575
 30
0.0
 10
3.734535433070866
 20
4.853590551181102
 30
0.0
 10
3.734535433070866
 20
4.853590551181102
 30
0.0
 10
3.734535433070866
 20
4.870755905511811
 30
0.0
 10
3.739314960629921
 20
4.88392125984252
 30
0.0
 10
3.748814960629921
 20
4.893145669291338
 30
0.0
 10
3.748814960629921
 20
4.893145669291338
 30
0.0
 10
3.758314960629921
 20
4.902366141732284
 30
0.0
 10
3.772925196850394
 20
4.90698031496063
 30
0.0
 10
3.792649606299213
 20
4.90698031496063
 30
0.0
 10
3.792649606299213
 20
4.90698031496063
 30
0.0
 10
3.792649606299213
 20
4.90698031496063
 30
0.0
 10
3.911314960629921
 20
4.90698031496063
 30
0.0
 10
3.911314960629921
 20
4.90698031496063
 30
0.0
 10
3.911314960629921
 20
4.90698031496063
 30
0.0
 10
3.911314960629921
 20
4.90698031496063
 30
0.0
 10
3.911314960629921
 20
4.877866141732284
 30
0.0
 10
3.911314960629921
 20
4.877866141732284
 30
0.0
 10
3.911314960629921
 20
4.877866141732284
 30
0.0
 10
3.911314960629921
 20
4.877866141732284
 30
0.0
 10
3.802425196850394
 20
4.877866141732284
 30
0.0
 10
3.802425196850394
 20
4.877866141732284
 30
0.0
 10
3.802425196850394
 20
4.877866141732284
 30
0.0
 10
3.790704724409449
 20
4.877866141732284
 30
0.0
 10
3.782259842519685
 20
4.87692125984252
 30
0.0
 10
3.777090551181102
 20
4.875035433070867
 30
0.0
 10
3.777090551181102
 20
4.875035433070867
 30
0.0
 10
3.77198031496063
 20
4.873090551181103
 30
0.0
 10
3.767814960629921
 20
4.869645669291339
 30
0.0
 10
3.764649606299213
 20
4.864700787401575
 30
0.0
 10
3.764649606299213
 20
4.864700787401575
 30
0.0
 10
3.761535433070866
 20
4.859700787401575
 30
0.0
 10
3.759925196850394
 20
4.853811023622048
 30
0.0
 10
3.759925196850394
 20
4.847090551181102
 30
0.0
 10
3.759925196850394
 20
4.847090551181102
 30
0.0
 10
3.759925196850394
 20
4.83492125984252
 30
0.0
 10
3.76398031496063
 20
4.824866141732284
 30
0.0
 10
3.772090551181103
 20
4.816811023622048
 30
0.0
 10
3.772090551181103
 20
4.816811023622048
 30
0.0
 10
3.780149606299213
 20
4.808811023622048
 30
0.0
 10
3.793090551181102
 20
4.804755905511811
 30
0.0
 10
3.810870078740158
 20
4.804755905511811
 30
0.0
 10
3.810870078740158
 20
4.804755905511811
 30
0.0
 10
3.810870078740158
 20
4.804755905511811
 30
0.0
 10
3.911314960629921
 20
4.804755905511811
 30
0.0
 10
3.911314960629921
 20
4.804755905511811
 30
0.0
 10
3.911314960629921
 20
4.804755905511811
 30
0.0
 10
3.911314960629921
 20
4.804755905511811
 30
0.0
 10
3.911314960629921
 20
4.775476377952757
 30
0.0
 10
3.911314960629921
 20
4.775476377952757
 30
0.0
 10
3.911314960629921
 20
4.775476377952757
 30
0.0
 10
3.911314960629921
 20
4.775476377952757
 30
0.0
 10
3.799035433070866
 20
4.775476377952757
 30
0.0
 10
3.799035433070866
 20
4.775476377952757
 30
0.0
 10
3.799035433070866
 20
4.775476377952757
 30
0.0
 10
3.78598031496063
 20
4.775476377952757
 30
0.0
 10
3.776204724409449
 20
4.773090551181102
 30
0.0
 10
3.769704724409449
 20
4.768311023622047
 30
0.0
 10
3.769704724409449
 20
4.768311023622047
 30
0.0
 10
3.763204724409449
 20
4.763535433070866
 30
0.0
 10
3.759925196850394
 20
4.755755905511811
 30
0.0
 10
3.759925196850394
 20
4.744866141732284
 30
0.0
 10
3.759925196850394
 20
4.744866141732284
 30
0.0
 10
3.759925196850394
 20
4.736645669291339
 30
0.0
 10
3.762090551181103
 20
4.729035433070866
 30
0.0
 10
3.76648031496063
 20
4.722035433070866
 30
0.0
 10
3.76648031496063
 20
4.722035433070866
 30
0.0
 10
3.770814960629922
 20
4.715035433070867
 30
0.0
 10
3.777149606299213
 20
4.70992125984252
 30
0.0
 10
3.78548031496063
 20
4.706811023622048
 30
0.0
 10
3.78548031496063
 20
4.706811023622048
 30
0.0
 10
3.793870078740158
 20
4.703645669291339
 30
0.0
 10
3.805925196850394
 20
4.702090551181103
 30
0.0
 10
3.821649606299213
 20
4.702090551181103
 30
0.0
 10
3.821649606299213
 20
4.702090551181103
 30
0.0
 10
3.821649606299213
 20
4.702090551181103
 30
0.0
 10
3.911314960629921
 20
4.702090551181103
 30
0.0
 10
3.911314960629921
 20
4.702090551181103
 30
0.0
 10
3.911314960629921
 20
4.702090551181103
 30
0.0
 10
3.911314960629921
 20
4.702090551181103
 30
0.0
 10
3.911314960629921
 20
4.672811023622048
 30
0.0
 10
3.911314960629921
 20
4.672811023622048
 30
0.0
  0
SPLINE
  5
58
330
1F
100
AcDbEntity
  8
Capa 1
370
     5
100
AcDbSpline
210
0.0
220
0.0
230
1.0
 70
    24
 71
     3
 72
     8
 73
     4
 74
     0
 42
0.0000000001
 43
0.0000000001
 40
0.0
 40
0.0
 40
0.0
 40
0.0
 40
1.0
 40
1.0
 40
1.0
 40
1.0
 10
3.543303149606299
 20
4.77053937007874
 30
0.0
 10
3.543303149606299
 20
4.77053937007874
 30
0.0
 10
3.543303149606299
 20
5.695279527559055
 30
0.0
 10
3.543303149606299
 20
5.695279527559055
 30
0.0
  0
SPLINE
  5
59
330
1F
100
AcDbEntity
  8
Capa 1
370
     5
100
AcDbSpline
210
0.0
220
0.0
230
1.0
 70
    24
 71
     3
 72
     8
 73
     4
 74
     0
 42
0.0000000001
 43
0.0000000001
 40
0.0
 40
0.0
 40
0.0
 40
0.0
 40
1.0
 40
1.0
 40
1.0
 40
1.0
 10
3.38582283464567
 20
5.060629921259843
 30
0.0
 10
3.38582283464567
 20
5.060629921259843
 30
0.0
 10
3.38582283464567
 20
5.695279527559055
 30
0.0
 10
3.38582283464567
 20
5.695279527559055
 30
0.0
  0
SPLINE
  5
5A
330
1F
100
AcDbEntity
  8
Capa 1
370
     5
100
AcDbSpline
210
0.0
220
0.0
230
1.0
 70
    24
 71
     3
 72
     8
 73
     4
 74
     0
 42
0.0000000001
 43
0.0000000001
 40
0.0
 40
0.0
 40
0.0
 40
0.0
 40
1.0
 40
1.0
 40
1.0
 40
1.0
 10
3.543303149606299
 20
5.495279527559055
 30
0.0
 10
3.543303149606299
 20
5.495279527559055
 30
0.0
 10
3.38582283464567
 20
5.495279527559055
 30
0.0
 10
3.38582283464567
 20
5.495279527559055
 30
0.0
  0
SPLINE
  5
5B
330
1F
100
AcDbEntity
  8
Capa 1
100
AcDbSpline
210
0.0
220
0.0
230
1.0
 70
    11
 71
     3
 72
    48
 73
    44
 74
     0
 42
0.0000000001
 43
0.0000000001
 40
0.0
 40
0.0
 40
0.0
 40
0.0
 40
0.0909090909090909
 40
0.0909090909090909
 40
0.0909090909090909
 40
0.0909090909090909
 40
0.1818181818181818
 40
0.1818181818181818
 40
0.1818181818181818
 40
0.1818181818181818
 40
0.2727272727272727
 40
0.2727272727272727
 40
0.2727272727272727
 40
0.2727272727272727
 40
0.3636363636363637
 40
0.3636363636363637
 40
0.3636363636363637
 40
0.3636363636363637
 40
0.4545454545454546
 40
0.4545454545454546
 40
0.4545454545454546
 40
0.4545454545454546
 40
0.5454545454545455
 40
0.5454545454545455
 40
0.5454545454545455
 40
0.5454545454545455
 40
0.6363636363636365
 40
0.6363636363636365
 40
0.6363636363636365
 40
0.6363636363636365
 40
0.7272727272727274
 40
0.7272727272727274
 40
0.7272727272727274
 40
0.7272727272727274
 40
0.8181818181818183
 40
0.8181818181818183
 40
0.8181818181818183
 40
0.8181818181818183
 40
0.9090909090909093
 40
0.9090909090909093
 40
0.9090909090909093
 40
0.9090909090909093
 40
1.0
 40
1.0
 40
1.0
 40
1.0
 10
3.717933070866142
 20
5.38494094488189
 30
0.0
 10
3.717933070866142
 20
5.38494094488189
 30
0.0
 10
3.717933070866142
 20
5.442051181102363
 30
0.0
 10
3.717933070866142
 20
5.442051181102363
 30
0.0
 10
3.717933070866142
 20
5.442051181102363
 30
0.0
 10
3.717933070866142
 20
5.442051181102363
 30
0.0
 10
3.614429133858268
 20
5.442051181102363
 30
0.0
 10
3.614429133858268
 20
5.442051181102363
 30
0.0
 10
3.614429133858268
 20
5.442051181102363
 30
0.0
 10
3.614429133858268
 20
5.442051181102363
 30
0.0
 10
3.614429133858268
 20
5.46894094488189
 30
0.0
 10
3.614429133858268
 20
5.46894094488189
 30
0.0
 10
3.614429133858268
 20
5.46894094488189
 30
0.0
 10
3.614429133858268
 20
5.46894094488189
 30
0.0
 10
3.723318897637796
 20
5.623551181102362
 30
0.0
 10
3.723318897637796
 20
5.623551181102362
 30
0.0
 10
3.723318897637796
 20
5.623551181102362
 30
0.0
 10
3.723318897637796
 20
5.623551181102362
 30
0.0
 10
3.747263779527559
 20
5.623551181102362
 30
0.0
 10
3.747263779527559
 20
5.623551181102362
 30
0.0
 10
3.747263779527559
 20
5.623551181102362
 30
0.0
 10
3.747263779527559
 20
5.623551181102362
 30
0.0
 10
3.747263779527559
 20
5.46894094488189
 30
0.0
 10
3.747263779527559
 20
5.46894094488189
 30
0.0
 10
3.747263779527559
 20
5.46894094488189
 30
0.0
 10
3.747263779527559
 20
5.46894094488189
 30
0.0
 10
3.779488188976378
 20
5.46894094488189
 30
0.0
 10
3.779488188976378
 20
5.46894094488189
 30
0.0
 10
3.779488188976378
 20
5.46894094488189
 30
0.0
 10
3.779488188976378
 20
5.46894094488189
 30
0.0
 10
3.779488188976378
 20
5.442051181102363
 30
0.0
 10
3.779488188976378
 20
5.442051181102363
 30
0.0
 10
3.779488188976378
 20
5.442051181102363
 30
0.0
 10
3.779488188976378
 20
5.442051181102363
 30
0.0
 10
3.747263779527559
 20
5.442051181102363
 30
0.0
 10
3.747263779527559
 20
5.442051181102363
 30
0.0
 10
3.747263779527559
 20
5.442051181102363
 30
0.0
 10
3.747263779527559
 20
5.442051181102363
 30
0.0
 10
3.747263779527559
 20
5.38494094488189
 30
0.0
 10
3.747263779527559
 20
5.38494094488189
 30
0.0
 10
3.747263779527559
 20
5.38494094488189
 30
0.0
 10
3.747263779527559
 20
5.38494094488189
 30
0.0
 10
3.717933070866142
 20
5.38494094488189
 30
0.0
 10
3.717933070866142
 20
5.38494094488189
 30
0.0
  0
SPLINE
  5
5C
330
1F
100
AcDbEntity
  8
Capa 1
100
AcDbSpline
210
0.0
220
0.0
230
1.0
 70
    11
 71
     3
 72
    16
 73
    12
 74
     0
 42
0.0000000001
 43
0.0000000001
 40
0.0
 40
0.0
 40
0.0
 40
0.0
 40
0.3333333333333333
 40
0.3333333333333333
 40
0.3333333333333333
 40
0.3333333333333333
 40
0.6666666666666666
 40
0.6666666666666666
 40
0.6666666666666666
 40
0.6666666666666666
 40
1.0
 40
1.0
 40
1.0
 40
1.0
 10
3.717933070866142
 20
5.46894094488189
 30
0.0
 10
3.717933070866142
 20
5.46894094488189
 30
0.0
 10
3.717933070866142
 20
5.576496062992126
 30
0.0
 10
3.717933070866142
 20
5.576496062992126
 30
0.0
 10
3.717933070866142
 20
5.576496062992126
 30
0.0
 10
3.717933070866142
 20
5.576496062992126
 30
0.0
 10
3.643263779527559
 20
5.46894094488189
 30
0.0
 10
3.643263779527559
 20
5.46894094488189
 30
0.0
 10
3.643263779527559
 20
5.46894094488189
 30
0.0
 10
3.643263779527559
 20
5.46894094488189
 30
0.0
 10
3.717933070866142
 20
5.46894094488189
 30
0.0
 10
3.717933070866142
 20
5.46894094488189
 30
0.0
  0
SPLINE
  5
5D
330
1F
100
AcDbEntity
  8
Capa 1
100
AcDbSpline
210
0.0
220
0.0
230
1.0
 70
    11
 71
     3
 72
   116
 73
   112
 74
     0
 42
0.0000000001
 43
0.0000000001
 40
0.0
 40
0.0
 40
0.0
 40
0.0
 40
0.0357142857142857
 40
0.0357142857142857
 40
0.0357142857142857
 40
0.0357142857142857
 40
0.0714285714285714
 40
0.0714285714285714
 40
0.0714285714285714
 40
0.0714285714285714
 40
0.1071428571428571
 40
0.1071428571428571
 40
0.1071428571428571
 40
0.1071428571428571
 40
0.1428571428571429
 40
0.1428571428571429
 40
0.1428571428571429
 40
0.1428571428571429
 40
0.1785714285714286
 40
0.1785714285714286
 40
0.1785714285714286
 40
0.1785714285714286
 40
0.2142857142857143
 40
0.2142857142857143
 40
0.2142857142857143
 40
0.2142857142857143
 40
0.2499999999999999
 40
0.2499999999999999
 40
0.2499999999999999
 40
0.2499999999999999
 40
0.2857142857142856
 40
0.2857142857142856
 40
0.2857142857142856
 40
0.2857142857142856
 40
0.3214285714285713
 40
0.3214285714285713
 40
0.3214285714285713
 40
0.3214285714285713
 40
0.357142857142857
 40
0.357142857142857
 40
0.357142857142857
 40
0.357142857142857
 40
0.3928571428571427
 40
0.3928571428571427
 40
0.3928571428571427
 40
0.3928571428571427
 40
0.4285714285714284
 40
0.4285714285714284
 40
0.4285714285714284
 40
0.4285714285714284
 40
0.4642857142857141
 40
0.4642857142857141
 40
0.4642857142857141
 40
0.4642857142857141
 40
0.4999999999999998
 40
0.4999999999999998
 40
0.4999999999999998
 40
0.4999999999999998
 40
0.5357142857142856
 40
0.5357142857142856
 40
0.5357142857142856
 40
0.5357142857142856
 40
0.5714285714285713
 40
0.5714285714285713
 40
0.5714285714285713
 40
0.5714285714285713
 40
0.607142857142857
 40
0.607142857142857
 40
0.607142857142857
 40
0.607142857142857
 40
0.6428571428571427
 40
0.6428571428571427
 40
0.6428571428571427
 40
0.6428571428571427
 40
0.6785714285714284
 40
0.6785714285714284
 40
0.6785714285714284
 40
0.6785714285714284
 40
0.7142857142857141
 40
0.7142857142857141
 40
0.7142857142857141
 40
0.7142857142857141
 40
0.7499999999999998
 40
0.7499999999999998
 40
0.7499999999999998
 40
0.7499999999999998
 40
0.7857142857142855
 40
0.7857142857142855
 40
0.7857142857142855
 40
0.7857142857142855
 40
0.8214285714285712
 40
0.8214285714285712
 40
0.8214285714285712
 40
0.8214285714285712
 40
0.8571428571428569
 40
0.8571428571428569
 40
0.8571428571428569
 40
0.8571428571428569
 40
0.8928571428571426
 40
0.8928571428571426
 40
0.8928571428571426
 40
0.8928571428571426
 40
0.9285714285714283
 40
0.9285714285714283
 40
0.9285714285714283
 40
0.9285714285714283
 40
0.964285714285714
 40
0.964285714285714
 40
0.964285714285714
 40
0.964285714285714
 40
1.0
 40
1.0
 40
1.0
 40
1.0
 10
3.910208661417323
 20
5.38494094488189
 30
0.0
 10
3.910208661417323
 20
5.38494094488189
 30
0.0
 10
3.910208661417323
 20
5.557775590551182
 30
0.0
 10
3.910208661417323
 20
5.557775590551182
 30
0.0
 10
3.910208661417323
 20
5.557775590551182
 30
0.0
 10
3.910208661417323
 20
5.557775590551182
 30
0.0
 10
3.936374015748032
 20
5.557775590551182
 30
0.0
 10
3.936374015748032
 20
5.557775590551182
 30
0.0
 10
3.936374015748032
 20
5.557775590551182
 30
0.0
 10
3.936374015748032
 20
5.557775590551182
 30
0.0
 10
3.936374015748032
 20
5.533551181102363
 30
0.0
 10
3.936374015748032
 20
5.533551181102363
 30
0.0
 10
3.936374015748032
 20
5.533551181102363
 30
0.0
 10
3.941818897637795
 20
5.541996062992126
 30
0.0
 10
3.949043307086614
 20
5.548830708661417
 30
0.0
 10
3.958043307086614
 20
5.55394094488189
 30
0.0
 10
3.958043307086614
 20
5.55394094488189
 30
0.0
 10
3.967043307086614
 20
5.559110236220473
 30
0.0
 10
3.977318897637796
 20
5.561720472440945
 30
0.0
 10
3.988818897637795
 20
5.561720472440945
 30
0.0
 10
3.988818897637795
 20
5.561720472440945
 30
0.0
 10
4.001598425196851
 20
5.561720472440945
 30
0.0
 10
4.01209842519685
 20
5.559051181102363
 30
0.0
 10
4.020263779527559
 20
5.553720472440945
 30
0.0
 10
4.020263779527559
 20
5.553720472440945
 30
0.0
 10
4.028488188976378
 20
5.548385826771654
 30
0.0
 10
4.034263779527559
 20
5.540996062992126
 30
0.0
 10
4.03759842519685
 20
5.53144094488189
 30
0.0
 10
4.03759842519685
 20
5.53144094488189
 30
0.0
 10
4.051318897637795
 20
5.551610236220473
 30
0.0
 10
4.069098425196851
 20
5.561720472440945
 30
0.0
 10
4.090988188976378
 20
5.561720472440945
 30
0.0
 10
4.090988188976378
 20
5.561720472440945
 30
0.0
 10
4.108153543307087
 20
5.561720472440945
 30
0.0
 10
4.121318897637796
 20
5.55694094488189
 30
0.0
 10
4.130543307086614
 20
5.54744094488189
 30
0.0
 10
4.130543307086614
 20
5.54744094488189
 30
0.0
 10
4.139763779527559
 20
5.53794094488189
 30
0.0
 10
4.144377952755906
 20
5.523330708661417
 30
0.0
 10
4.144377952755906
 20
5.503606299212598
 30
0.0
 10
4.144377952755906
 20
5.503606299212598
 30
0.0
 10
4.144377952755906
 20
5.503606299212598
 30
0.0
 10
4.144377952755906
 20
5.38494094488189
 30
0.0
 10
4.144377952755906
 20
5.38494094488189
 30
0.0
 10
4.144377952755906
 20
5.38494094488189
 30
0.0
 10
4.144377952755906
 20
5.38494094488189
 30
0.0
 10
4.11526377952756
 20
5.38494094488189
 30
0.0
 10
4.11526377952756
 20
5.38494094488189
 30
0.0
 10
4.11526377952756
 20
5.38494094488189
 30
0.0
 10
4.11526377952756
 20
5.38494094488189
 30
0.0
 10
4.11526377952756
 20
5.493830708661418
 30
0.0
 10
4.11526377952756
 20
5.493830708661418
 30
0.0
 10
4.11526377952756
 20
5.493830708661418
 30
0.0
 10
4.11526377952756
 20
5.505551181102362
 30
0.0
 10
4.114318897637795
 20
5.513996062992126
 30
0.0
 10
4.112433070866142
 20
5.519165354330709
 30
0.0
 10
4.112433070866142
 20
5.519165354330709
 30
0.0
 10
4.110488188976378
 20
5.524275590551182
 30
0.0
 10
4.107043307086614
 20
5.52844094488189
 30
0.0
 10
4.102098425196851
 20
5.531606299212599
 30
0.0
 10
4.102098425196851
 20
5.531606299212599
 30
0.0
 10
4.097098425196851
 20
5.534720472440945
 30
0.0
 10
4.091208661417323
 20
5.536330708661418
 30
0.0
 10
4.084488188976378
 20
5.536330708661418
 30
0.0
 10
4.084488188976378
 20
5.536330708661418
 30
0.0
 10
4.072318897637795
 20
5.536330708661418
 30
0.0
 10
4.06226377952756
 20
5.532275590551182
 30
0.0
 10
4.054208661417323
 20
5.524165354330709
 30
0.0
 10
4.054208661417323
 20
5.524165354330709
 30
0.0
 10
4.046208661417323
 20
5.516106299212598
 30
0.0
 10
4.042153543307087
 20
5.503165354330709
 30
0.0
 10
4.042153543307087
 20
5.485385826771654
 30
0.0
 10
4.042153543307087
 20
5.485385826771654
 30
0.0
 10
4.042153543307087
 20
5.485385826771654
 30
0.0
 10
4.042153543307087
 20
5.38494094488189
 30
0.0
 10
4.042153543307087
 20
5.38494094488189
 30
0.0
 10
4.042153543307087
 20
5.38494094488189
 30
0.0
 10
4.042153543307087
 20
5.38494094488189
 30
0.0
 10
4.012874015748031
 20
5.38494094488189
 30
0.0
 10
4.012874015748031
 20
5.38494094488189
 30
0.0
 10
4.012874015748031
 20
5.38494094488189
 30
0.0
 10
4.012874015748031
 20
5.38494094488189
 30
0.0
 10
4.012874015748031
 20
5.497220472440946
 30
0.0
 10
4.012874015748031
 20
5.497220472440946
 30
0.0
 10
4.012874015748031
 20
5.497220472440946
 30
0.0
 10
4.012874015748031
 20
5.510275590551181
 30
0.0
 10
4.010488188976378
 20
5.520051181102362
 30
0.0
 10
4.005708661417323
 20
5.526551181102362
 30
0.0
 10
4.005708661417323
 20
5.526551181102362
 30
0.0
 10
4.000933070866142
 20
5.533051181102363
 30
0.0
 10
3.993153543307087
 20
5.536330708661418
 30
0.0
 10
3.982263779527559
 20
5.536330708661418
 30
0.0
 10
3.982263779527559
 20
5.536330708661418
 30
0.0
 10
3.974043307086614
 20
5.536330708661418
 30
0.0
 10
3.966433070866142
 20
5.534165354330709
 30
0.0
 10
3.959433070866142
 20
5.529775590551181
 30
0.0
 10
3.959433070866142
 20
5.529775590551181
 30
0.0
 10
3.952433070866142
 20
5.52544094488189
 30
0.0
 10
3.947318897637795
 20
5.519106299212599
 30
0.0
 10
3.944208661417323
 20
5.510775590551181
 30
0.0
 10
3.944208661417323
 20
5.510775590551181
 30
0.0
 10
3.941043307086614
 20
5.502385826771654
 30
0.0
 10
3.939488188976378
 20
5.490330708661418
 30
0.0
 10
3.939488188976378
 20
5.474606299212598
 30
0.0
 10
3.939488188976378
 20
5.474606299212598
 30
0.0
 10
3.939488188976378
 20
5.474606299212598
 30
0.0
 10
3.939488188976378
 20
5.38494094488189
 30
0.0
 10
3.939488188976378
 20
5.38494094488189
 30
0.0
 10
3.939488188976378
 20
5.38494094488189
 30
0.0
 10
3.939488188976378
 20
5.38494094488189
 30
0.0
 10
3.910208661417323
 20
5.38494094488189
 30
0.0
 10
3.910208661417323
 20
5.38494094488189
 30
0.0
  0
SPLINE
  5
5E
330
1F
100
AcDbEntity
  8
Capa 1
100
AcDbSpline
210
0.0
220
0.0
230
1.0
 70
    11
 71
     3
 72
   116
 73
   112
 74
     0
 42
0.0000000001
 43
0.0000000001
 40
0.0
 40
0.0
 40
0.0
 40
0.0
 40
0.0357142857142857
 40
0.0357142857142857
 40
0.0357142857142857
 40
0.0357142857142857
 40
0.0714285714285714
 40
0.0714285714285714
 40
0.0714285714285714
 40
0.0714285714285714
 40
0.1071428571428571
 40
0.1071428571428571
 40
0.1071428571428571
 40
0.1071428571428571
 40
0.1428571428571429
 40
0.1428571428571429
 40
0.1428571428571429
 40
0.1428571428571429
 40
0.1785714285714286
 40
0.1785714285714286
 40
0.1785714285714286
 40
0.1785714285714286
 40
0.2142857142857143
 40
0.2142857142857143
 40
0.2142857142857143
 40
0.2142857142857143
 40
0.2499999999999999
 40
0.2499999999999999
 40
0.2499999999999999
 40
0.2499999999999999
 40
0.2857142857142856
 40
0.2857142857142856
 40
0.2857142857142856
 40
0.2857142857142856
 40
0.3214285714285713
 40
0.3214285714285713
 40
0.3214285714285713
 40
0.3214285714285713
 40
0.357142857142857
 40
0.357142857142857
 40
0.357142857142857
 40
0.357142857142857
 40
0.3928571428571427
 40
0.3928571428571427
 40
0.3928571428571427
 40
0.3928571428571427
 40
0.4285714285714284
 40
0.4285714285714284
 40
0.4285714285714284
 40
0.4285714285714284
 40
0.4642857142857141
 40
0.4642857142857141
 40
0.4642857142857141
 40
0.4642857142857141
 40
0.4999999999999998
 40
0.4999999999999998
 40
0.4999999999999998
 40
0.4999999999999998
 40
0.5357142857142856
 40
0.5357142857142856
 40
0.5357142857142856
 40
0.5357142857142856
 40
0.5714285714285713
 40
0.5714285714285713
 40
0.5714285714285713
 40
0.5714285714285713
 40
0.607142857142857
 40
0.607142857142857
 40
0.607142857142857
 40
0.607142857142857
 40
0.6428571428571427
 40
0.6428571428571427
 40
0.6428571428571427
 40
0.6428571428571427
 40
0.6785714285714284
 40
0.6785714285714284
 40
0.6785714285714284
 40
0.6785714285714284
 40
0.7142857142857141
 40
0.7142857142857141
 40
0.7142857142857141
 40
0.7142857142857141
 40
0.7499999999999998
 40
0.7499999999999998
 40
0.7499999999999998
 40
0.7499999999999998
 40
0.7857142857142855
 40
0.7857142857142855
 40
0.7857142857142855
 40
0.7857142857142855
 40
0.8214285714285712
 40
0.8214285714285712
 40
0.8214285714285712
 40
0.8214285714285712
 40
0.8571428571428569
 40
0.8571428571428569
 40
0.8571428571428569
 40
0.8571428571428569
 40
0.8928571428571426
 40
0.8928571428571426
 40
0.8928571428571426
 40
0.8928571428571426
 40
0.9285714285714283
 40
0.9285714285714283
 40
0.9285714285714283
 40
0.9285714285714283
 40
0.964285714285714
 40
0.964285714285714
 40
0.964285714285714
 40
0.964285714285714
 40
1.0
 40
1.0
 40
1.0
 40
1.0
 10
4.187877952755906
 20
5.38494094488189
 30
0.0
 10
4.187877952755906
 20
5.38494094488189
 30
0.0
 10
4.187877952755906
 20
5.557775590551182
 30
0.0
 10
4.187877952755906
 20
5.557775590551182
 30
0.0
 10
4.187877952755906
 20
5.557775590551182
 30
0.0
 10
4.187877952755906
 20
5.557775590551182
 30
0.0
 10
4.214043307086614
 20
5.557775590551182
 30
0.0
 10
4.214043307086614
 20
5.557775590551182
 30
0.0
 10
4.214043307086614
 20
5.557775590551182
 30
0.0
 10
4.214043307086614
 20
5.557775590551182
 30
0.0
 10
4.214043307086614
 20
5.533551181102363
 30
0.0
 10
4.214043307086614
 20
5.533551181102363
 30
0.0
 10
4.214043307086614
 20
5.533551181102363
 30
0.0
 10
4.219488188976378
 20
5.541996062992126
 30
0.0
 10
4.226712598425197
 20
5.548830708661417
 30
0.0
 10
4.235712598425197
 20
5.55394094488189
 30
0.0
 10
4.235712598425197
 20
5.55394094488189
 30
0.0
 10
4.244712598425197
 20
5.559110236220473
 30
0.0
 10
4.254988188976379
 20
5.561720472440945
 30
0.0
 10
4.266488188976378
 20
5.561720472440945
 30
0.0
 10
4.266488188976378
 20
5.561720472440945
 30
0.0
 10
4.279267716535434
 20
5.561720472440945
 30
0.0
 10
4.289767716535433
 20
5.559051181102363
 30
0.0
 10
4.297933070866142
 20
5.553720472440945
 30
0.0
 10
4.297933070866142
 20
5.553720472440945
 30
0.0
 10
4.306157480314961
 20
5.548385826771654
 30
0.0
 10
4.311933070866142
 20
5.540996062992126
 30
0.0
 10
4.315267716535433
 20
5.53144094488189
 30
0.0
 10
4.315267716535433
 20
5.53144094488189
 30
0.0
 10
4.328988188976378
 20
5.551610236220473
 30
0.0
 10
4.346767716535434
 20
5.561720472440945
 30
0.0
 10
4.368657480314961
 20
5.561720472440945
 30
0.0
 10
4.368657480314961
 20
5.561720472440945
 30
0.0
 10
4.385822834645669
 20
5.561720472440945
 30
0.0
 10
4.398988188976378
 20
5.55694094488189
 30
0.0
 10
4.408212598425197
 20
5.54744094488189
 30
0.0
 10
4.408212598425197
 20
5.54744094488189
 30
0.0
 10
4.417433070866142
 20
5.53794094488189
 30
0.0
 10
4.422047244094489
 20
5.523330708661417
 30
0.0
 10
4.422047244094489
 20
5.503606299212598
 30
0.0
 10
4.422047244094489
 20
5.503606299212598
 30
0.0
 10
4.422047244094489
 20
5.503606299212598
 30
0.0
 10
4.422047244094489
 20
5.38494094488189
 30
0.0
 10
4.422047244094489
 20
5.38494094488189
 30
0.0
 10
4.422047244094489
 20
5.38494094488189
 30
0.0
 10
4.422047244094489
 20
5.38494094488189
 30
0.0
 10
4.392933070866142
 20
5.38494094488189
 30
0.0
 10
4.392933070866142
 20
5.38494094488189
 30
0.0
 10
4.392933070866142
 20
5.38494094488189
 30
0.0
 10
4.392933070866142
 20
5.38494094488189
 30
0.0
 10
4.392933070866142
 20
5.493830708661418
 30
0.0
 10
4.392933070866142
 20
5.493830708661418
 30
0.0
 10
4.392933070866142
 20
5.493830708661418
 30
0.0
 10
4.392933070866142
 20
5.505551181102362
 30
0.0
 10
4.391988188976378
 20
5.513996062992126
 30
0.0
 10
4.390102362204725
 20
5.519165354330709
 30
0.0
 10
4.390102362204725
 20
5.519165354330709
 30
0.0
 10
4.388157480314961
 20
5.524275590551182
 30
0.0
 10
4.384712598425197
 20
5.52844094488189
 30
0.0
 10
4.379767716535433
 20
5.531606299212599
 30
0.0
 10
4.379767716535433
 20
5.531606299212599
 30
0.0
 10
4.374767716535433
 20
5.534720472440945
 30
0.0
 10
4.368877952755906
 20
5.536330708661418
 30
0.0
 10
4.362157480314961
 20
5.536330708661418
 30
0.0
 10
4.362157480314961
 20
5.536330708661418
 30
0.0
 10
4.349988188976378
 20
5.536330708661418
 30
0.0
 10
4.339933070866142
 20
5.532275590551182
 30
0.0
 10
4.331877952755906
 20
5.524165354330709
 30
0.0
 10
4.331877952755906
 20
5.524165354330709
 30
0.0
 10
4.323877952755906
 20
5.516106299212598
 30
0.0
 10
4.319822834645669
 20
5.503165354330709
 30
0.0
 10
4.319822834645669
 20
5.485385826771654
 30
0.0
 10
4.319822834645669
 20
5.485385826771654
 30
0.0
 10
4.319822834645669
 20
5.485385826771654
 30
0.0
 10
4.319822834645669
 20
5.38494094488189
 30
0.0
 10
4.319822834645669
 20
5.38494094488189
 30
0.0
 10
4.319822834645669
 20
5.38494094488189
 30
0.0
 10
4.319822834645669
 20
5.38494094488189
 30
0.0
 10
4.290543307086614
 20
5.38494094488189
 30
0.0
 10
4.290543307086614
 20
5.38494094488189
 30
0.0
 10
4.290543307086614
 20
5.38494094488189
 30
0.0
 10
4.290543307086614
 20
5.38494094488189
 30
0.0
 10
4.290543307086614
 20
5.497220472440946
 30
0.0
 10
4.290543307086614
 20
5.497220472440946
 30
0.0
 10
4.290543307086614
 20
5.497220472440946
 30
0.0
 10
4.290543307086614
 20
5.510275590551181
 30
0.0
 10
4.288157480314961
 20
5.520051181102362
 30
0.0
 10
4.283377952755906
 20
5.526551181102362
 30
0.0
 10
4.283377952755906
 20
5.526551181102362
 30
0.0
 10
4.278602362204724
 20
5.533051181102363
 30
0.0
 10
4.27082283464567
 20
5.536330708661418
 30
0.0
 10
4.259933070866142
 20
5.536330708661418
 30
0.0
 10
4.259933070866142
 20
5.536330708661418
 30
0.0
 10
4.251712598425197
 20
5.536330708661418
 30
0.0
 10
4.244102362204725
 20
5.534165354330709
 30
0.0
 10
4.237102362204724
 20
5.529775590551181
 30
0.0
 10
4.237102362204724
 20
5.529775590551181
 30
0.0
 10
4.230102362204725
 20
5.52544094488189
 30
0.0
 10
4.224988188976378
 20
5.519106299212599
 30
0.0
 10
4.221877952755905
 20
5.510775590551181
 30
0.0
 10
4.221877952755905
 20
5.510775590551181
 30
0.0
 10
4.218712598425197
 20
5.502385826771654
 30
0.0
 10
4.217157480314961
 20
5.490330708661418
 30
0.0
 10
4.217157480314961
 20
5.474606299212598
 30
0.0
 10
4.217157480314961
 20
5.474606299212598
 30
0.0
 10
4.217157480314961
 20
5.474606299212598
 30
0.0
 10
4.217157480314961
 20
5.38494094488189
 30
0.0
 10
4.217157480314961
 20
5.38494094488189
 30
0.0
 10
4.217157480314961
 20
5.38494094488189
 30
0.0
 10
4.217157480314961
 20
5.38494094488189
 30
0.0
 10
4.187877952755906
 20
5.38494094488189
 30
0.0
 10
4.187877952755906
 20
5.38494094488189
 30
0.0
  0
SPLINE
  5
5F
330
1F
100
AcDbEntity
  8
Capa 1
370
     5
100
AcDbSpline
210
0.0
220
0.0
230
1.0
 70
    24
 71
     3
 72
     8
 73
     4
 74
     0
 42
0.0000000001
 43
0.0000000001
 40
0.0
 40
0.0
 40
0.0
 40
0.0
 40
1.0
 40
1.0
 40
1.0
 40
1.0
 10
-3.385826771653544
 20
-4.860625984251969
 30
0.0
 10
-3.385826771653544
 20
-4.860625984251969
 30
0.0
 10
-3.385826771653544
 20
-4.38784251968504
 30
0.0
 10
-3.385826771653544
 20
-4.38784251968504
 30
0.0
  0
SPLINE
  5
60
330
1F
100
AcDbEntity
  8
Capa 1
370
     5
100
AcDbSpline
210
0.0
220
0.0
230
1.0
 70
    24
 71
     3
 72
     8
 73
     4
 74
     0
 42
0.0000000001
 43
0.0000000001
 40
0.0
 40
0.0
 40
0.0
 40
0.0
 40
1.0
 40
1.0
 40
1.0
 40
1.0
 10
-3.543307086614173
 20
-4.823866141732284
 30
0.0
 10
-3.543307086614173
 20
-4.823866141732284
 30
0.0
 10
-3.543307086614173
 20
-4.38784251968504
 30
0.0
 10
-3.543307086614173
 20
-4.38784251968504
 30
0.0
  0
SPLINE
  5
61
330
1F
100
AcDbEntity
  8
Capa 1
370
     5
100
AcDbSpline
210
0.0
220
0.0
230
1.0
 70
    24
 71
     3
 72
     8
 73
     4
 74
     0
 42
0.0000000001
 43
0.0000000001
 40
0.0
 40
0.0
 40
0.0
 40
0.0
 40
1.0
 40
1.0
 40
1.0
 40
1.0
 10
-3.385826771653544
 20
-4.587842519685039
 30
0.0
 10
-3.385826771653544
 20
-4.587842519685039
 30
0.0
 10
-3.543307086614173
 20
-4.587842519685039
 30
0.0
 10
-3.543307086614173
 20
-4.587842519685039
 30
0.0
  0
SPLINE
  5
62
330
1F
100
AcDbEntity
  8
Capa 1
100
AcDbSpline
210
0.0
220
0.0
230
1.0
 70
    11
 71
     3
 72
    48
 73
    44
 74
     0
 42
0.0000000001
 43
0.0000000001
 40
0.0
 40
0.0
 40
0.0
 40
0.0
 40
0.0909090909090909
 40
0.0909090909090909
 40
0.0909090909090909
 40
0.0909090909090909
 40
0.1818181818181818
 40
0.1818181818181818
 40
0.1818181818181818
 40
0.1818181818181818
 40
0.2727272727272727
 40
0.2727272727272727
 40
0.2727272727272727
 40
0.2727272727272727
 40
0.3636363636363637
 40
0.3636363636363637
 40
0.3636363636363637
 40
0.3636363636363637
 40
0.4545454545454546
 40
0.4545454545454546
 40
0.4545454545454546
 40
0.4545454545454546
 40
0.5454545454545455
 40
0.5454545454545455
 40
0.5454545454545455
 40
0.5454545454545455
 40
0.6363636363636365
 40
0.6363636363636365
 40
0.6363636363636365
 40
0.6363636363636365
 40
0.7272727272727274
 40
0.7272727272727274
 40
0.7272727272727274
 40
0.7272727272727274
 40
0.8181818181818183
 40
0.8181818181818183
 40
0.8181818181818183
 40
0.8181818181818183
 40
0.9090909090909093
 40
0.9090909090909093
 40
0.9090909090909093
 40
0.9090909090909093
 40
1.0
 40
1.0
 40
1.0
 40
1.0
 10
-3.139964566929134
 20
-4.727094488188977
 30
0.0
 10
-3.139964566929134
 20
-4.727094488188977
 30
0.0
 10
-3.139964566929134
 20
-4.669984251968504
 30
0.0
 10
-3.139964566929134
 20
-4.669984251968504
 30
0.0
 10
-3.139964566929134
 20
-4.669984251968504
 30
0.0
 10
-3.139964566929134
 20
-4.669984251968504
 30
0.0
 10
-3.243468503937008
 20
-4.669984251968504
 30
0.0
 10
-3.243468503937008
 20
-4.669984251968504
 30
0.0
 10
-3.243468503937008
 20
-4.669984251968504
 30
0.0
 10
-3.243468503937008
 20
-4.669984251968504
 30
0.0
 10
-3.243468503937008
 20
-4.643094488188977
 30
0.0
 10
-3.243468503937008
 20
-4.643094488188977
 30
0.0
 10
-3.243468503937008
 20
-4.643094488188977
 30
0.0
 10
-3.243468503937008
 20
-4.643094488188977
 30
0.0
 10
-3.134578740157481
 20
-4.488484251968504
 30
0.0
 10
-3.134578740157481
 20
-4.488484251968504
 30
0.0
 10
-3.134578740157481
 20
-4.488484251968504
 30
0.0
 10
-3.134578740157481
 20
-4.488484251968504
 30
0.0
 10
-3.110633858267716
 20
-4.488484251968504
 30
0.0
 10
-3.110633858267716
 20
-4.488484251968504
 30
0.0
 10
-3.110633858267716
 20
-4.488484251968504
 30
0.0
 10
-3.110633858267716
 20
-4.488484251968504
 30
0.0
 10
-3.110633858267716
 20
-4.643094488188977
 30
0.0
 10
-3.110633858267716
 20
-4.643094488188977
 30
0.0
 10
-3.110633858267716
 20
-4.643094488188977
 30
0.0
 10
-3.110633858267716
 20
-4.643094488188977
 30
0.0
 10
-3.078409448818898
 20
-4.643094488188977
 30
0.0
 10
-3.078409448818898
 20
-4.643094488188977
 30
0.0
 10
-3.078409448818898
 20
-4.643094488188977
 30
0.0
 10
-3.078409448818898
 20
-4.643094488188977
 30
0.0
 10
-3.078409448818898
 20
-4.669984251968504
 30
0.0
 10
-3.078409448818898
 20
-4.669984251968504
 30
0.0
 10
-3.078409448818898
 20
-4.669984251968504
 30
0.0
 10
-3.078409448818898
 20
-4.669984251968504
 30
0.0
 10
-3.110633858267716
 20
-4.669984251968504
 30
0.0
 10
-3.110633858267716
 20
-4.669984251968504
 30
0.0
 10
-3.110633858267716
 20
-4.669984251968504
 30
0.0
 10
-3.110633858267716
 20
-4.669984251968504
 30
0.0
 10
-3.110633858267716
 20
-4.727094488188977
 30
0.0
 10
-3.110633858267716
 20
-4.727094488188977
 30
0.0
 10
-3.110633858267716
 20
-4.727094488188977
 30
0.0
 10
-3.110633858267716
 20
-4.727094488188977
 30
0.0
 10
-3.139964566929134
 20
-4.727094488188977
 30
0.0
 10
-3.139964566929134
 20
-4.727094488188977
 30
0.0
  0
SPLINE
  5
63
330
1F
100
AcDbEntity
  8
Capa 1
100
AcDbSpline
210
0.0
220
0.0
230
1.0
 70
    11
 71
     3
 72
    16
 73
    12
 74
     0
 42
0.0000000001
 43
0.0000000001
 40
0.0
 40
0.0
 40
0.0
 40
0.0
 40
0.3333333333333333
 40
0.3333333333333333
 40
0.3333333333333333
 40
0.3333333333333333
 40
0.6666666666666666
 40
0.6666666666666666
 40
0.6666666666666666
 40
0.6666666666666666
 40
1.0
 40
1.0
 40
1.0
 40
1.0
 10
-3.139964566929134
 20
-4.643094488188977
 30
0.0
 10
-3.139964566929134
 20
-4.643094488188977
 30
0.0
 10
-3.139964566929134
 20
-4.53553937007874
 30
0.0
 10
-3.139964566929134
 20
-4.53553937007874
 30
0.0
 10
-3.139964566929134
 20
-4.53553937007874
 30
0.0
 10
-3.139964566929134
 20
-4.53553937007874
 30
0.0
 10
-3.214633858267717
 20
-4.643094488188977
 30
0.0
 10
-3.214633858267717
 20
-4.643094488188977
 30
0.0
 10
-3.214633858267717
 20
-4.643094488188977
 30
0.0
 10
-3.214633858267717
 20
-4.643094488188977
 30
0.0
 10
-3.139964566929134
 20
-4.643094488188977
 30
0.0
 10
-3.139964566929134
 20
-4.643094488188977
 30
0.0
  0
SPLINE
  5
64
330
1F
100
AcDbEntity
  8
Capa 1
100
AcDbSpline
210
0.0
220
0.0
230
1.0
 70
    11
 71
     3
 72
   116
 73
   112
 74
     0
 42
0.0000000001
 43
0.0000000001
 40
0.0
 40
0.0
 40
0.0
 40
0.0
 40
0.0357142857142857
 40
0.0357142857142857
 40
0.0357142857142857
 40
0.0357142857142857
 40
0.0714285714285714
 40
0.0714285714285714
 40
0.0714285714285714
 40
0.0714285714285714
 40
0.1071428571428571
 40
0.1071428571428571
 40
0.1071428571428571
 40
0.1071428571428571
 40
0.1428571428571429
 40
0.1428571428571429
 40
0.1428571428571429
 40
0.1428571428571429
 40
0.1785714285714286
 40
0.1785714285714286
 40
0.1785714285714286
 40
0.1785714285714286
 40
0.2142857142857143
 40
0.2142857142857143
 40
0.2142857142857143
 40
0.2142857142857143
 40
0.2499999999999999
 40
0.2499999999999999
 40
0.2499999999999999
 40
0.2499999999999999
 40
0.2857142857142856
 40
0.2857142857142856
 40
0.2857142857142856
 40
0.2857142857142856
 40
0.3214285714285713
 40
0.3214285714285713
 40
0.3214285714285713
 40
0.3214285714285713
 40
0.357142857142857
 40
0.357142857142857
 40
0.357142857142857
 40
0.357142857142857
 40
0.3928571428571427
 40
0.3928571428571427
 40
0.3928571428571427
 40
0.3928571428571427
 40
0.4285714285714284
 40
0.4285714285714284
 40
0.4285714285714284
 40
0.4285714285714284
 40
0.4642857142857141
 40
0.4642857142857141
 40
0.4642857142857141
 40
0.4642857142857141
 40
0.4999999999999998
 40
0.4999999999999998
 40
0.4999999999999998
 40
0.4999999999999998
 40
0.5357142857142856
 40
0.5357142857142856
 40
0.5357142857142856
 40
0.5357142857142856
 40
0.5714285714285713
 40
0.5714285714285713
 40
0.5714285714285713
 40
0.5714285714285713
 40
0.607142857142857
 40
0.607142857142857
 40
0.607142857142857
 40
0.607142857142857
 40
0.6428571428571427
 40
0.6428571428571427
 40
0.6428571428571427
 40
0.6428571428571427
 40
0.6785714285714284
 40
0.6785714285714284
 40
0.6785714285714284
 40
0.6785714285714284
 40
0.7142857142857141
 40
0.7142857142857141
 40
0.7142857142857141
 40
0.7142857142857141
 40
0.7499999999999998
 40
0.7499999999999998
 40
0.7499999999999998
 40
0.7499999999999998
 40
0.7857142857142855
 40
0.7857142857142855
 40
0.7857142857142855
 40
0.7857142857142855
 40
0.8214285714285712
 40
0.8214285714285712
 40
0.8214285714285712
 40
0.8214285714285712
 40
0.8571428571428569
 40
0.8571428571428569
 40
0.8571428571428569
 40
0.8571428571428569
 40
0.8928571428571426
 40
0.8928571428571426
 40
0.8928571428571426
 40
0.8928571428571426
 40
0.9285714285714283
 40
0.9285714285714283
 40
0.9285714285714283
 40
0.9285714285714283
 40
0.964285714285714
 40
0.964285714285714
 40
0.964285714285714
 40
0.964285714285714
 40
1.0
 40
1.0
 40
1.0
 40
1.0
 10
-2.947688976377953
 20
-4.727094488188977
 30
0.0
 10
-2.947688976377953
 20
-4.727094488188977
 30
0.0
 10
-2.947688976377953
 20
-4.554259842519685
 30
0.0
 10
-2.947688976377953
 20
-4.554259842519685
 30
0.0
 10
-2.947688976377953
 20
-4.554259842519685
 30
0.0
 10
-2.947688976377953
 20
-4.554259842519685
 30
0.0
 10
-2.921523622047244
 20
-4.554259842519685
 30
0.0
 10
-2.921523622047244
 20
-4.554259842519685
 30
0.0
 10
-2.921523622047244
 20
-4.554259842519685
 30
0.0
 10
-2.921523622047244
 20
-4.554259842519685
 30
0.0
 10
-2.921523622047244
 20
-4.578484251968504
 30
0.0
 10
-2.921523622047244
 20
-4.578484251968504
 30
0.0
 10
-2.921523622047244
 20
-4.578484251968504
 30
0.0
 10
-2.91607874015748
 20
-4.570039370078741
 30
0.0
 10
-2.908854330708662
 20
-4.563204724409449
 30
0.0
 10
-2.899854330708662
 20
-4.558094488188977
 30
0.0
 10
-2.899854330708662
 20
-4.558094488188977
 30
0.0
 10
-2.890854330708661
 20
-4.552925196850394
 30
0.0
 10
-2.880578740157481
 20
-4.550314960629922
 30
0.0
 10
-2.86907874015748
 20
-4.550314960629922
 30
0.0
 10
-2.86907874015748
 20
-4.550314960629922
 30
0.0
 10
-2.856299212598426
 20
-4.550314960629922
 30
0.0
 10
-2.845799212598426
 20
-4.552984251968504
 30
0.0
 10
-2.837633858267717
 20
-4.558314960629922
 30
0.0
 10
-2.837633858267717
 20
-4.558314960629922
 30
0.0
 10
-2.829409448818898
 20
-4.563649606299213
 30
0.0
 10
-2.823633858267717
 20
-4.57103937007874
 30
0.0
 10
-2.820299212598425
 20
-4.580594488188977
 30
0.0
 10
-2.820299212598425
 20
-4.580594488188977
 30
0.0
 10
-2.80657874015748
 20
-4.560425196850394
 30
0.0
 10
-2.788799212598425
 20
-4.550314960629922
 30
0.0
 10
-2.766909448818898
 20
-4.550314960629922
 30
0.0
 10
-2.766909448818898
 20
-4.550314960629922
 30
0.0
 10
-2.749744094488189
 20
-4.550314960629922
 30
0.0
 10
-2.73657874015748
 20
-4.555094488188977
 30
0.0
 10
-2.727354330708661
 20
-4.564594488188977
 30
0.0
 10
-2.727354330708661
 20
-4.564594488188977
 30
0.0
 10
-2.718133858267717
 20
-4.574094488188977
 30
0.0
 10
-2.71351968503937
 20
-4.588704724409449
 30
0.0
 10
-2.71351968503937
 20
-4.608429133858268
 30
0.0
 10
-2.71351968503937
 20
-4.608429133858268
 30
0.0
 10
-2.71351968503937
 20
-4.608429133858268
 30
0.0
 10
-2.71351968503937
 20
-4.727094488188977
 30
0.0
 10
-2.71351968503937
 20
-4.727094488188977
 30
0.0
 10
-2.71351968503937
 20
-4.727094488188977
 30
0.0
 10
-2.71351968503937
 20
-4.727094488188977
 30
0.0
 10
-2.742633858267717
 20
-4.727094488188977
 30
0.0
 10
-2.742633858267717
 20
-4.727094488188977
 30
0.0
 10
-2.742633858267717
 20
-4.727094488188977
 30
0.0
 10
-2.742633858267717
 20
-4.727094488188977
 30
0.0
 10
-2.742633858267717
 20
-4.618204724409449
 30
0.0
 10
-2.742633858267717
 20
-4.618204724409449
 30
0.0
 10
-2.742633858267717
 20
-4.618204724409449
 30
0.0
 10
-2.742633858267717
 20
-4.606484251968504
 30
0.0
 10
-2.743578740157481
 20
-4.59803937007874
 30
0.0
 10
-2.745464566929134
 20
-4.592870078740158
 30
0.0
 10
-2.745464566929134
 20
-4.592870078740158
 30
0.0
 10
-2.747409448818898
 20
-4.587759842519685
 30
0.0
 10
-2.750854330708662
 20
-4.583594488188977
 30
0.0
 10
-2.755799212598425
 20
-4.580429133858268
 30
0.0
 10
-2.755799212598425
 20
-4.580429133858268
 30
0.0
 10
-2.760799212598425
 20
-4.577314960629922
 30
0.0
 10
-2.766688976377953
 20
-4.575704724409449
 30
0.0
 10
-2.773409448818898
 20
-4.575704724409449
 30
0.0
 10
-2.773409448818898
 20
-4.575704724409449
 30
0.0
 10
-2.78557874015748
 20
-4.575704724409449
 30
0.0
 10
-2.795633858267717
 20
-4.579759842519685
 30
0.0
 10
-2.803688976377953
 20
-4.587870078740158
 30
0.0
 10
-2.803688976377953
 20
-4.587870078740158
 30
0.0
 10
-2.811688976377953
 20
-4.595929133858268
 30
0.0
 10
-2.815744094488189
 20
-4.608870078740158
 30
0.0
 10
-2.815744094488189
 20
-4.626649606299213
 30
0.0
 10
-2.815744094488189
 20
-4.626649606299213
 30
0.0
 10
-2.815744094488189
 20
-4.626649606299213
 30
0.0
 10
-2.815744094488189
 20
-4.727094488188977
 30
0.0
 10
-2.815744094488189
 20
-4.727094488188977
 30
0.0
 10
-2.815744094488189
 20
-4.727094488188977
 30
0.0
 10
-2.815744094488189
 20
-4.727094488188977
 30
0.0
 10
-2.845023622047244
 20
-4.727094488188977
 30
0.0
 10
-2.845023622047244
 20
-4.727094488188977
 30
0.0
 10
-2.845023622047244
 20
-4.727094488188977
 30
0.0
 10
-2.845023622047244
 20
-4.727094488188977
 30
0.0
 10
-2.845023622047244
 20
-4.614814960629921
 30
0.0
 10
-2.845023622047244
 20
-4.614814960629921
 30
0.0
 10
-2.845023622047244
 20
-4.614814960629921
 30
0.0
 10
-2.845023622047244
 20
-4.601759842519686
 30
0.0
 10
-2.847409448818898
 20
-4.591984251968504
 30
0.0
 10
-2.852188976377953
 20
-4.585484251968504
 30
0.0
 10
-2.852188976377953
 20
-4.585484251968504
 30
0.0
 10
-2.856964566929134
 20
-4.578984251968504
 30
0.0
 10
-2.864744094488189
 20
-4.575704724409449
 30
0.0
 10
-2.875633858267717
 20
-4.575704724409449
 30
0.0
 10
-2.875633858267717
 20
-4.575704724409449
 30
0.0
 10
-2.883854330708662
 20
-4.575704724409449
 30
0.0
 10
-2.891464566929134
 20
-4.577870078740157
 30
0.0
 10
-2.898464566929134
 20
-4.582259842519686
 30
0.0
 10
-2.898464566929134
 20
-4.582259842519686
 30
0.0
 10
-2.905464566929134
 20
-4.586594488188976
 30
0.0
 10
-2.91057874015748
 20
-4.592929133858268
 30
0.0
 10
-2.913688976377953
 20
-4.601259842519685
 30
0.0
 10
-2.913688976377953
 20
-4.601259842519685
 30
0.0
 10
-2.916854330708662
 20
-4.609649606299213
 30
0.0
 10
-2.918409448818898
 20
-4.621704724409449
 30
0.0
 10
-2.918409448818898
 20
-4.637429133858268
 30
0.0
 10
-2.918409448818898
 20
-4.637429133858268
 30
0.0
 10
-2.918409448818898
 20
-4.637429133858268
 30
0.0
 10
-2.918409448818898
 20
-4.727094488188977
 30
0.0
 10
-2.918409448818898
 20
-4.727094488188977
 30
0.0
 10
-2.918409448818898
 20
-4.727094488188977
 30
0.0
 10
-2.918409448818898
 20
-4.727094488188977
 30
0.0
 10
-2.947688976377953
 20
-4.727094488188977
 30
0.0
 10
-2.947688976377953
 20
-4.727094488188977
 30
0.0
  0
SPLINE
  5
65
330
1F
100
AcDbEntity
  8
Capa 1
100
AcDbSpline
210
0.0
220
0.0
230
1.0
 70
    11
 71
     3
 72
   116
 73
   112
 74
     0
 42
0.0000000001
 43
0.0000000001
 40
0.0
 40
0.0
 40
0.0
 40
0.0
 40
0.0357142857142857
 40
0.0357142857142857
 40
0.0357142857142857
 40
0.0357142857142857
 40
0.0714285714285714
 40
0.0714285714285714
 40
0.0714285714285714
 40
0.0714285714285714
 40
0.1071428571428571
 40
0.1071428571428571
 40
0.1071428571428571
 40
0.1071428571428571
 40
0.1428571428571429
 40
0.1428571428571429
 40
0.1428571428571429
 40
0.1428571428571429
 40
0.1785714285714286
 40
0.1785714285714286
 40
0.1785714285714286
 40
0.1785714285714286
 40
0.2142857142857143
 40
0.2142857142857143
 40
0.2142857142857143
 40
0.2142857142857143
 40
0.2499999999999999
 40
0.2499999999999999
 40
0.2499999999999999
 40
0.2499999999999999
 40
0.2857142857142856
 40
0.2857142857142856
 40
0.2857142857142856
 40
0.2857142857142856
 40
0.3214285714285713
 40
0.3214285714285713
 40
0.3214285714285713
 40
0.3214285714285713
 40
0.357142857142857
 40
0.357142857142857
 40
0.357142857142857
 40
0.357142857142857
 40
0.3928571428571427
 40
0.3928571428571427
 40
0.3928571428571427
 40
0.3928571428571427
 40
0.4285714285714284
 40
0.4285714285714284
 40
0.4285714285714284
 40
0.4285714285714284
 40
0.4642857142857141
 40
0.4642857142857141
 40
0.4642857142857141
 40
0.4642857142857141
 40
0.4999999999999998
 40
0.4999999999999998
 40
0.4999999999999998
 40
0.4999999999999998
 40
0.5357142857142856
 40
0.5357142857142856
 40
0.5357142857142856
 40
0.5357142857142856
 40
0.5714285714285713
 40
0.5714285714285713
 40
0.5714285714285713
 40
0.5714285714285713
 40
0.607142857142857
 40
0.607142857142857
 40
0.607142857142857
 40
0.607142857142857
 40
0.6428571428571427
 40
0.6428571428571427
 40
0.6428571428571427
 40
0.6428571428571427
 40
0.6785714285714284
 40
0.6785714285714284
 40
0.6785714285714284
 40
0.6785714285714284
 40
0.7142857142857141
 40
0.7142857142857141
 40
0.7142857142857141
 40
0.7142857142857141
 40
0.7499999999999998
 40
0.7499999999999998
 40
0.7499999999999998
 40
0.7499999999999998
 40
0.7857142857142855
 40
0.7857142857142855
 40
0.7857142857142855
 40
0.7857142857142855
 40
0.8214285714285712
 40
0.8214285714285712
 40
0.8214285714285712
 40
0.8214285714285712
 40
0.8571428571428569
 40
0.8571428571428569
 40
0.8571428571428569
 40
0.8571428571428569
 40
0.8928571428571426
 40
0.8928571428571426
 40
0.8928571428571426
 40
0.8928571428571426
 40
0.9285714285714283
 40
0.9285714285714283
 40
0.9285714285714283
 40
0.9285714285714283
 40
0.964285714285714
 40
0.964285714285714
 40
0.964285714285714
 40
0.964285714285714
 40
1.0
 40
1.0
 40
1.0
 40
1.0
 10
-2.67001968503937
 20
-4.727094488188977
 30
0.0
 10
-2.67001968503937
 20
-4.727094488188977
 30
0.0
 10
-2.67001968503937
 20
-4.554259842519685
 30
0.0
 10
-2.67001968503937
 20
-4.554259842519685
 30
0.0
 10
-2.67001968503937
 20
-4.554259842519685
 30
0.0
 10
-2.67001968503937
 20
-4.554259842519685
 30
0.0
 10
-2.643854330708662
 20
-4.554259842519685
 30
0.0
 10
-2.643854330708662
 20
-4.554259842519685
 30
0.0
 10
-2.643854330708662
 20
-4.554259842519685
 30
0.0
 10
-2.643854330708662
 20
-4.554259842519685
 30
0.0
 10
-2.643854330708662
 20
-4.578484251968504
 30
0.0
 10
-2.643854330708662
 20
-4.578484251968504
 30
0.0
 10
-2.643854330708662
 20
-4.578484251968504
 30
0.0
 10
-2.638409448818898
 20
-4.570039370078741
 30
0.0
 10
-2.631185039370079
 20
-4.563204724409449
 30
0.0
 10
-2.622185039370079
 20
-4.558094488188977
 30
0.0
 10
-2.622185039370079
 20
-4.558094488188977
 30
0.0
 10
-2.613185039370079
 20
-4.552925196850394
 30
0.0
 10
-2.602909448818898
 20
-4.550314960629922
 30
0.0
 10
-2.591409448818898
 20
-4.550314960629922
 30
0.0
 10
-2.591409448818898
 20
-4.550314960629922
 30
0.0
 10
-2.578629921259843
 20
-4.550314960629922
 30
0.0
 10
-2.568129921259843
 20
-4.552984251968504
 30
0.0
 10
-2.559964566929134
 20
-4.558314960629922
 30
0.0
 10
-2.559964566929134
 20
-4.558314960629922
 30
0.0
 10
-2.551740157480315
 20
-4.563649606299213
 30
0.0
 10
-2.545964566929134
 20
-4.57103937007874
 30
0.0
 10
-2.542629921259842
 20
-4.580594488188977
 30
0.0
 10
-2.542629921259842
 20
-4.580594488188977
 30
0.0
 10
-2.528909448818898
 20
-4.560425196850394
 30
0.0
 10
-2.511129921259843
 20
-4.550314960629922
 30
0.0
 10
-2.489240157480315
 20
-4.550314960629922
 30
0.0
 10
-2.489240157480315
 20
-4.550314960629922
 30
0.0
 10
-2.472074803149607
 20
-4.550314960629922
 30
0.0
 10
-2.458909448818898
 20
-4.555094488188977
 30
0.0
 10
-2.449685039370079
 20
-4.564594488188977
 30
0.0
 10
-2.449685039370079
 20
-4.564594488188977
 30
0.0
 10
-2.440464566929134
 20
-4.574094488188977
 30
0.0
 10
-2.435850393700787
 20
-4.588704724409449
 30
0.0
 10
-2.435850393700787
 20
-4.608429133858268
 30
0.0
 10
-2.435850393700787
 20
-4.608429133858268
 30
0.0
 10
-2.435850393700787
 20
-4.608429133858268
 30
0.0
 10
-2.435850393700787
 20
-4.727094488188977
 30
0.0
 10
-2.435850393700787
 20
-4.727094488188977
 30
0.0
 10
-2.435850393700787
 20
-4.727094488188977
 30
0.0
 10
-2.435850393700787
 20
-4.727094488188977
 30
0.0
 10
-2.464964566929134
 20
-4.727094488188977
 30
0.0
 10
-2.464964566929134
 20
-4.727094488188977
 30
0.0
 10
-2.464964566929134
 20
-4.727094488188977
 30
0.0
 10
-2.464964566929134
 20
-4.727094488188977
 30
0.0
 10
-2.464964566929134
 20
-4.618204724409449
 30
0.0
 10
-2.464964566929134
 20
-4.618204724409449
 30
0.0
 10
-2.464964566929134
 20
-4.618204724409449
 30
0.0
 10
-2.464964566929134
 20
-4.606484251968504
 30
0.0
 10
-2.465909448818898
 20
-4.59803937007874
 30
0.0
 10
-2.467795275590552
 20
-4.592870078740158
 30
0.0
 10
-2.467795275590552
 20
-4.592870078740158
 30
0.0
 10
-2.469740157480315
 20
-4.587759842519685
 30
0.0
 10
-2.473185039370079
 20
-4.583594488188977
 30
0.0
 10
-2.478129921259843
 20
-4.580429133858268
 30
0.0
 10
-2.478129921259843
 20
-4.580429133858268
 30
0.0
 10
-2.483129921259843
 20
-4.577314960629922
 30
0.0
 10
-2.48901968503937
 20
-4.575704724409449
 30
0.0
 10
-2.495740157480315
 20
-4.575704724409449
 30
0.0
 10
-2.495740157480315
 20
-4.575704724409449
 30
0.0
 10
-2.507909448818898
 20
-4.575704724409449
 30
0.0
 10
-2.517964566929134
 20
-4.579759842519685
 30
0.0
 10
-2.52601968503937
 20
-4.587870078740158
 30
0.0
 10
-2.52601968503937
 20
-4.587870078740158
 30
0.0
 10
-2.53401968503937
 20
-4.595929133858268
 30
0.0
 10
-2.538074803149606
 20
-4.608870078740158
 30
0.0
 10
-2.538074803149606
 20
-4.626649606299213
 30
0.0
 10
-2.538074803149606
 20
-4.626649606299213
 30
0.0
 10
-2.538074803149606
 20
-4.626649606299213
 30
0.0
 10
-2.538074803149606
 20
-4.727094488188977
 30
0.0
 10
-2.538074803149606
 20
-4.727094488188977
 30
0.0
 10
-2.538074803149606
 20
-4.727094488188977
 30
0.0
 10
-2.538074803149606
 20
-4.727094488188977
 30
0.0
 10
-2.567354330708662
 20
-4.727094488188977
 30
0.0
 10
-2.567354330708662
 20
-4.727094488188977
 30
0.0
 10
-2.567354330708662
 20
-4.727094488188977
 30
0.0
 10
-2.567354330708662
 20
-4.727094488188977
 30
0.0
 10
-2.567354330708662
 20
-4.614814960629921
 30
0.0
 10
-2.567354330708662
 20
-4.614814960629921
 30
0.0
 10
-2.567354330708662
 20
-4.614814960629921
 30
0.0
 10
-2.567354330708662
 20
-4.601759842519686
 30
0.0
 10
-2.569740157480315
 20
-4.591984251968504
 30
0.0
 10
-2.57451968503937
 20
-4.585484251968504
 30
0.0
 10
-2.57451968503937
 20
-4.585484251968504
 30
0.0
 10
-2.579295275590551
 20
-4.578984251968504
 30
0.0
 10
-2.587074803149606
 20
-4.575704724409449
 30
0.0
 10
-2.597964566929134
 20
-4.575704724409449
 30
0.0
 10
-2.597964566929134
 20
-4.575704724409449
 30
0.0
 10
-2.606185039370079
 20
-4.575704724409449
 30
0.0
 10
-2.613795275590551
 20
-4.577870078740157
 30
0.0
 10
-2.620795275590552
 20
-4.582259842519686
 30
0.0
 10
-2.620795275590552
 20
-4.582259842519686
 30
0.0
 10
-2.627795275590551
 20
-4.586594488188976
 30
0.0
 10
-2.632909448818898
 20
-4.592929133858268
 30
0.0
 10
-2.63601968503937
 20
-4.601259842519685
 30
0.0
 10
-2.63601968503937
 20
-4.601259842519685
 30
0.0
 10
-2.639185039370079
 20
-4.609649606299213
 30
0.0
 10
-2.640740157480315
 20
-4.621704724409449
 30
0.0
 10
-2.640740157480315
 20
-4.637429133858268
 30
0.0
 10
-2.640740157480315
 20
-4.637429133858268
 30
0.0
 10
-2.640740157480315
 20
-4.637429133858268
 30
0.0
 10
-2.640740157480315
 20
-4.727094488188977
 30
0.0
 10
-2.640740157480315
 20
-4.727094488188977
 30
0.0
 10
-2.640740157480315
 20
-4.727094488188977
 30
0.0
 10
-2.640740157480315
 20
-4.727094488188977
 30
0.0
 10
-2.67001968503937
 20
-4.727094488188977
 30
0.0
 10
-2.67001968503937
 20
-4.727094488188977
 30
0.0
  0
SPLINE
  5
66
330
1F
100
AcDbEntity
  8
Capa 1
370
     5
100
AcDbSpline
210
0.0
220
0.0
230
1.0
 70
    24
 71
     3
 72
     8
 73
     4
 74
     0
 42
0.0000000001
 43
0.0000000001
 40
0.0
 40
0.0
 40
0.0
 40
0.0
 40
1.0
 40
1.0
 40
1.0
 40
1.0
 10
3.543303149606299
 20
-4.788468503937008
 30
0.0
 10
3.543303149606299
 20
-4.788468503937008
 30
0.0
 10
3.543303149606299
 20
-4.942251968503937
 30
0.0
 10
3.543303149606299
 20
-4.942251968503937
 30
0.0
  0
SPLINE
  5
67
330
1F
100
AcDbEntity
  8
Capa 1
370
     5
100
AcDbSpline
210
0.0
220
0.0
230
1.0
 70
    24
 71
     3
 72
     8
 73
     4
 74
     0
 42
0.0000000001
 43
0.0000000001
 40
0.0
 40
0.0
 40
0.0
 40
0.0
 40
1.0
 40
1.0
 40
1.0
 40
1.0
 10
3.38582283464567
 20
-4.860625984251969
 30
0.0
 10
3.38582283464567
 20
-4.860625984251969
 30
0.0
 10
3.38582283464567
 20
-4.542251968503937
 30
0.0
 10
3.38582283464567
 20
-4.542251968503937
 30
0.0
  0
SPLINE
  5
68
330
1F
100
AcDbEntity
  8
Capa 1
370
     5
100
AcDbSpline
210
0.0
220
0.0
230
1.0
 70
    24
 71
     3
 72
     8
 73
     4
 74
     0
 42
0.0000000001
 43
0.0000000001
 40
0.0
 40
0.0
 40
0.0
 40
0.0
 40
1.0
 40
1.0
 40
1.0
 40
1.0
 10
3.543303149606299
 20
-4.742251968503937
 30
0.0
 10
3.543303149606299
 20
-4.742251968503937
 30
0.0
 10
3.38582283464567
 20
-4.742251968503937
 30
0.0
 10
3.38582283464567
 20
-4.742251968503937
 30
0.0
  0
SPLINE
  5
69
330
1F
100
AcDbEntity
  8
Capa 1
100
AcDbSpline
210
0.0
220
0.0
230
1.0
 70
    11
 71
     3
 72
    48
 73
    44
 74
     0
 42
0.0000000001
 43
0.0000000001
 40
0.0
 40
0.0
 40
0.0
 40
0.0
 40
0.0909090909090909
 40
0.0909090909090909
 40
0.0909090909090909
 40
0.0909090909090909
 40
0.1818181818181818
 40
0.1818181818181818
 40
0.1818181818181818
 40
0.1818181818181818
 40
0.2727272727272727
 40
0.2727272727272727
 40
0.2727272727272727
 40
0.2727272727272727
 40
0.3636363636363637
 40
0.3636363636363637
 40
0.3636363636363637
 40
0.3636363636363637
 40
0.4545454545454546
 40
0.4545454545454546
 40
0.4545454545454546
 40
0.4545454545454546
 40
0.5454545454545455
 40
0.5454545454545455
 40
0.5454545454545455
 40
0.5454545454545455
 40
0.6363636363636365
 40
0.6363636363636365
 40
0.6363636363636365
 40
0.6363636363636365
 40
0.7272727272727274
 40
0.7272727272727274
 40
0.7272727272727274
 40
0.7272727272727274
 40
0.8181818181818183
 40
0.8181818181818183
 40
0.8181818181818183
 40
0.8181818181818183
 40
0.9090909090909093
 40
0.9090909090909093
 40
0.9090909090909093
 40
0.9090909090909093
 40
1.0
 40
1.0
 40
1.0
 40
1.0
 10
3.901027559055118
 20
-4.861559055118111
 30
0.0
 10
3.901027559055118
 20
-4.861559055118111
 30
0.0
 10
3.901027559055118
 20
-4.804448818897638
 30
0.0
 10
3.901027559055118
 20
-4.804448818897638
 30
0.0
 10
3.901027559055118
 20
-4.804448818897638
 30
0.0
 10
3.901027559055118
 20
-4.804448818897638
 30
0.0
 10
3.797523622047244
 20
-4.804448818897638
 30
0.0
 10
3.797523622047244
 20
-4.804448818897638
 30
0.0
 10
3.797523622047244
 20
-4.804448818897638
 30
0.0
 10
3.797523622047244
 20
-4.804448818897638
 30
0.0
 10
3.797523622047244
 20
-4.77755905511811
 30
0.0
 10
3.797523622047244
 20
-4.77755905511811
 30
0.0
 10
3.797523622047244
 20
-4.77755905511811
 30
0.0
 10
3.797523622047244
 20
-4.77755905511811
 30
0.0
 10
3.906413385826772
 20
-4.622948818897638
 30
0.0
 10
3.906413385826772
 20
-4.622948818897638
 30
0.0
 10
3.906413385826772
 20
-4.622948818897638
 30
0.0
 10
3.906413385826772
 20
-4.622948818897638
 30
0.0
 10
3.930358267716536
 20
-4.622948818897638
 30
0.0
 10
3.930358267716536
 20
-4.622948818897638
 30
0.0
 10
3.930358267716536
 20
-4.622948818897638
 30
0.0
 10
3.930358267716536
 20
-4.622948818897638
 30
0.0
 10
3.930358267716536
 20
-4.77755905511811
 30
0.0
 10
3.930358267716536
 20
-4.77755905511811
 30
0.0
 10
3.930358267716536
 20
-4.77755905511811
 30
0.0
 10
3.930358267716536
 20
-4.77755905511811
 30
0.0
 10
3.962582677165354
 20
-4.77755905511811
 30
0.0
 10
3.962582677165354
 20
-4.77755905511811
 30
0.0
 10
3.962582677165354
 20
-4.77755905511811
 30
0.0
 10
3.962582677165354
 20
-4.77755905511811
 30
0.0
 10
3.962582677165354
 20
-4.804448818897638
 30
0.0
 10
3.962582677165354
 20
-4.804448818897638
 30
0.0
 10
3.962582677165354
 20
-4.804448818897638
 30
0.0
 10
3.962582677165354
 20
-4.804448818897638
 30
0.0
 10
3.930358267716536
 20
-4.804448818897638
 30
0.0
 10
3.930358267716536
 20
-4.804448818897638
 30
0.0
 10
3.930358267716536
 20
-4.804448818897638
 30
0.0
 10
3.930358267716536
 20
-4.804448818897638
 30
0.0
 10
3.930358267716536
 20
-4.861559055118111
 30
0.0
 10
3.930358267716536
 20
-4.861559055118111
 30
0.0
 10
3.930358267716536
 20
-4.861559055118111
 30
0.0
 10
3.930358267716536
 20
-4.861559055118111
 30
0.0
 10
3.901027559055118
 20
-4.861559055118111
 30
0.0
 10
3.901027559055118
 20
-4.861559055118111
 30
0.0
  0
SPLINE
  5
6A
330
1F
100
AcDbEntity
  8
Capa 1
100
AcDbSpline
210
0.0
220
0.0
230
1.0
 70
    11
 71
     3
 72
    16
 73
    12
 74
     0
 42
0.0000000001
 43
0.0000000001
 40
0.0
 40
0.0
 40
0.0
 40
0.0
 40
0.3333333333333333
 40
0.3333333333333333
 40
0.3333333333333333
 40
0.3333333333333333
 40
0.6666666666666666
 40
0.6666666666666666
 40
0.6666666666666666
 40
0.6666666666666666
 40
1.0
 40
1.0
 40
1.0
 40
1.0
 10
3.901027559055118
 20
-4.77755905511811
 30
0.0
 10
3.901027559055118
 20
-4.77755905511811
 30
0.0
 10
3.901027559055118
 20
-4.670003937007874
 30
0.0
 10
3.901027559055118
 20
-4.670003937007874
 30
0.0
 10
3.901027559055118
 20
-4.670003937007874
 30
0.0
 10
3.901027559055118
 20
-4.670003937007874
 30
0.0
 10
3.826358267716536
 20
-4.77755905511811
 30
0.0
 10
3.826358267716536
 20
-4.77755905511811
 30
0.0
 10
3.826358267716536
 20
-4.77755905511811
 30
0.0
 10
3.826358267716536
 20
-4.77755905511811
 30
0.0
 10
3.901027559055118
 20
-4.77755905511811
 30
0.0
 10
3.901027559055118
 20
-4.77755905511811
 30
0.0
  0
SPLINE
  5
6B
330
1F
100
AcDbEntity
  8
Capa 1
100
AcDbSpline
210
0.0
220
0.0
230
1.0
 70
    11
 71
     3
 72
   116
 73
   112
 74
     0
 42
0.0000000001
 43
0.0000000001
 40
0.0
 40
0.0
 40
0.0
 40
0.0
 40
0.0357142857142857
 40
0.0357142857142857
 40
0.0357142857142857
 40
0.0357142857142857
 40
0.0714285714285714
 40
0.0714285714285714
 40
0.0714285714285714
 40
0.0714285714285714
 40
0.1071428571428571
 40
0.1071428571428571
 40
0.1071428571428571
 40
0.1071428571428571
 40
0.1428571428571429
 40
0.1428571428571429
 40
0.1428571428571429
 40
0.1428571428571429
 40
0.1785714285714286
 40
0.1785714285714286
 40
0.1785714285714286
 40
0.1785714285714286
 40
0.2142857142857143
 40
0.2142857142857143
 40
0.2142857142857143
 40
0.2142857142857143
 40
0.2499999999999999
 40
0.2499999999999999
 40
0.2499999999999999
 40
0.2499999999999999
 40
0.2857142857142856
 40
0.2857142857142856
 40
0.2857142857142856
 40
0.2857142857142856
 40
0.3214285714285713
 40
0.3214285714285713
 40
0.3214285714285713
 40
0.3214285714285713
 40
0.357142857142857
 40
0.357142857142857
 40
0.357142857142857
 40
0.357142857142857
 40
0.3928571428571427
 40
0.3928571428571427
 40
0.3928571428571427
 40
0.3928571428571427
 40
0.4285714285714284
 40
0.4285714285714284
 40
0.4285714285714284
 40
0.4285714285714284
 40
0.4642857142857141
 40
0.4642857142857141
 40
0.4642857142857141
 40
0.4642857142857141
 40
0.4999999999999998
 40
0.4999999999999998
 40
0.4999999999999998
 40
0.4999999999999998
 40
0.5357142857142856
 40
0.5357142857142856
 40
0.5357142857142856
 40
0.5357142857142856
 40
0.5714285714285713
 40
0.5714285714285713
 40
0.5714285714285713
 40
0.5714285714285713
 40
0.607142857142857
 40
0.607142857142857
 40
0.607142857142857
 40
0.607142857142857
 40
0.6428571428571427
 40
0.6428571428571427
 40
0.6428571428571427
 40
0.6428571428571427
 40
0.6785714285714284
 40
0.6785714285714284
 40
0.6785714285714284
 40
0.6785714285714284
 40
0.7142857142857141
 40
0.7142857142857141
 40
0.7142857142857141
 40
0.7142857142857141
 40
0.7499999999999998
 40
0.7499999999999998
 40
0.7499999999999998
 40
0.7499999999999998
 40
0.7857142857142855
 40
0.7857142857142855
 40
0.7857142857142855
 40
0.7857142857142855
 40
0.8214285714285712
 40
0.8214285714285712
 40
0.8214285714285712
 40
0.8214285714285712
 40
0.8571428571428569
 40
0.8571428571428569
 40
0.8571428571428569
 40
0.8571428571428569
 40
0.8928571428571426
 40
0.8928571428571426
 40
0.8928571428571426
 40
0.8928571428571426
 40
0.9285714285714283
 40
0.9285714285714283
 40
0.9285714285714283
 40
0.9285714285714283
 40
0.964285714285714
 40
0.964285714285714
 40
0.964285714285714
 40
0.964285714285714
 40
1.0
 40
1.0
 40
1.0
 40
1.0
 10
4.0933031496063
 20
-4.861559055118111
 30
0.0
 10
4.0933031496063
 20
-4.861559055118111
 30
0.0
 10
4.0933031496063
 20
-4.688724409448819
 30
0.0
 10
4.0933031496063
 20
-4.688724409448819
 30
0.0
 10
4.0933031496063
 20
-4.688724409448819
 30
0.0
 10
4.0933031496063
 20
-4.688724409448819
 30
0.0
 10
4.119468503937008
 20
-4.688724409448819
 30
0.0
 10
4.119468503937008
 20
-4.688724409448819
 30
0.0
 10
4.119468503937008
 20
-4.688724409448819
 30
0.0
 10
4.119468503937008
 20
-4.688724409448819
 30
0.0
 10
4.119468503937008
 20
-4.712948818897638
 30
0.0
 10
4.119468503937008
 20
-4.712948818897638
 30
0.0
 10
4.119468503937008
 20
-4.712948818897638
 30
0.0
 10
4.124913385826772
 20
-4.704503937007874
 30
0.0
 10
4.13213779527559
 20
-4.697669291338583
 30
0.0
 10
4.141137795275591
 20
-4.69255905511811
 30
0.0
 10
4.141137795275591
 20
-4.69255905511811
 30
0.0
 10
4.150137795275591
 20
-4.687389763779528
 30
0.0
 10
4.160413385826772
 20
-4.684779527559055
 30
0.0
 10
4.171913385826771
 20
-4.684779527559055
 30
0.0
 10
4.171913385826771
 20
-4.684779527559055
 30
0.0
 10
4.184692913385827
 20
-4.684779527559055
 30
0.0
 10
4.195192913385827
 20
-4.687448818897638
 30
0.0
 10
4.203358267716536
 20
-4.692779527559055
 30
0.0
 10
4.203358267716536
 20
-4.692779527559055
 30
0.0
 10
4.211582677165355
 20
-4.698114173228347
 30
0.0
 10
4.217358267716536
 20
-4.705503937007874
 30
0.0
 10
4.220692913385827
 20
-4.71505905511811
 30
0.0
 10
4.220692913385827
 20
-4.71505905511811
 30
0.0
 10
4.234413385826771
 20
-4.694889763779528
 30
0.0
 10
4.252192913385827
 20
-4.684779527559055
 30
0.0
 10
4.274082677165355
 20
-4.684779527559055
 30
0.0
 10
4.274082677165355
 20
-4.684779527559055
 30
0.0
 10
4.291248031496063
 20
-4.684779527559055
 30
0.0
 10
4.304413385826772
 20
-4.68955905511811
 30
0.0
 10
4.313637795275591
 20
-4.69905905511811
 30
0.0
 10
4.313637795275591
 20
-4.69905905511811
 30
0.0
 10
4.322858267716535
 20
-4.70855905511811
 30
0.0
 10
4.327472440944882
 20
-4.723169291338583
 30
0.0
 10
4.327472440944882
 20
-4.742893700787402
 30
0.0
 10
4.327472440944882
 20
-4.742893700787402
 30
0.0
 10
4.327472440944882
 20
-4.742893700787402
 30
0.0
 10
4.327472440944882
 20
-4.861559055118111
 30
0.0
 10
4.327472440944882
 20
-4.861559055118111
 30
0.0
 10
4.327472440944882
 20
-4.861559055118111
 30
0.0
 10
4.327472440944882
 20
-4.861559055118111
 30
0.0
 10
4.298358267716536
 20
-4.861559055118111
 30
0.0
 10
4.298358267716536
 20
-4.861559055118111
 30
0.0
 10
4.298358267716536
 20
-4.861559055118111
 30
0.0
 10
4.298358267716536
 20
-4.861559055118111
 30
0.0
 10
4.298358267716536
 20
-4.752669291338583
 30
0.0
 10
4.298358267716536
 20
-4.752669291338583
 30
0.0
 10
4.298358267716536
 20
-4.752669291338583
 30
0.0
 10
4.298358267716536
 20
-4.740948818897638
 30
0.0
 10
4.297413385826772
 20
-4.732503937007874
 30
0.0
 10
4.295527559055119
 20
-4.727334645669291
 30
0.0
 10
4.295527559055119
 20
-4.727334645669291
 30
0.0
 10
4.293582677165355
 20
-4.72222440944882
 30
0.0
 10
4.290137795275591
 20
-4.71805905511811
 30
0.0
 10
4.285192913385827
 20
-4.714893700787401
 30
0.0
 10
4.285192913385827
 20
-4.714893700787401
 30
0.0
 10
4.280192913385827
 20
-4.711779527559055
 30
0.0
 10
4.2743031496063
 20
-4.710169291338583
 30
0.0
 10
4.267582677165355
 20
-4.710169291338583
 30
0.0
 10
4.267582677165355
 20
-4.710169291338583
 30
0.0
 10
4.255413385826772
 20
-4.710169291338583
 30
0.0
 10
4.245358267716536
 20
-4.71422440944882
 30
0.0
 10
4.2373031496063
 20
-4.722334645669291
 30
0.0
 10
4.2373031496063
 20
-4.722334645669291
 30
0.0
 10
4.2293031496063
 20
-4.730393700787402
 30
0.0
 10
4.225248031496063
 20
-4.743334645669291
 30
0.0
 10
4.225248031496063
 20
-4.761114173228346
 30
0.0
 10
4.225248031496063
 20
-4.761114173228346
 30
0.0
 10
4.225248031496063
 20
-4.761114173228346
 30
0.0
 10
4.225248031496063
 20
-4.861559055118111
 30
0.0
 10
4.225248031496063
 20
-4.861559055118111
 30
0.0
 10
4.225248031496063
 20
-4.861559055118111
 30
0.0
 10
4.225248031496063
 20
-4.861559055118111
 30
0.0
 10
4.195968503937008
 20
-4.861559055118111
 30
0.0
 10
4.195968503937008
 20
-4.861559055118111
 30
0.0
 10
4.195968503937008
 20
-4.861559055118111
 30
0.0
 10
4.195968503937008
 20
-4.861559055118111
 30
0.0
 10
4.195968503937008
 20
-4.749279527559056
 30
0.0
 10
4.195968503937008
 20
-4.749279527559056
 30
0.0
 10
4.195968503937008
 20
-4.749279527559056
 30
0.0
 10
4.195968503937008
 20
-4.736224409448819
 30
0.0
 10
4.193582677165354
 20
-4.726448818897638
 30
0.0
 10
4.188803149606299
 20
-4.719948818897638
 30
0.0
 10
4.188803149606299
 20
-4.719948818897638
 30
0.0
 10
4.184027559055118
 20
-4.713448818897638
 30
0.0
 10
4.176248031496063
 20
-4.710169291338583
 30
0.0
 10
4.165358267716536
 20
-4.710169291338583
 30
0.0
 10
4.165358267716536
 20
-4.710169291338583
 30
0.0
 10
4.157137795275591
 20
-4.710169291338583
 30
0.0
 10
4.149527559055119
 20
-4.712334645669292
 30
0.0
 10
4.142527559055118
 20
-4.716724409448819
 30
0.0
 10
4.142527559055118
 20
-4.716724409448819
 30
0.0
 10
4.135527559055118
 20
-4.72105905511811
 30
0.0
 10
4.130413385826772
 20
-4.727393700787402
 30
0.0
 10
4.127303149606299
 20
-4.735724409448819
 30
0.0
 10
4.127303149606299
 20
-4.735724409448819
 30
0.0
 10
4.12413779527559
 20
-4.744114173228347
 30
0.0
 10
4.122582677165354
 20
-4.756169291338583
 30
0.0
 10
4.122582677165354
 20
-4.771893700787402
 30
0.0
 10
4.122582677165354
 20
-4.771893700787402
 30
0.0
 10
4.122582677165354
 20
-4.771893700787402
 30
0.0
 10
4.122582677165354
 20
-4.861559055118111
 30
0.0
 10
4.122582677165354
 20
-4.861559055118111
 30
0.0
 10
4.122582677165354
 20
-4.861559055118111
 30
0.0
 10
4.122582677165354
 20
-4.861559055118111
 30
0.0
 10
4.0933031496063
 20
-4.861559055118111
 30
0.0
 10
4.0933031496063
 20
-4.861559055118111
 30
0.0
  0
SPLINE
  5
6C
330
1F
100
AcDbEntity
  8
Capa 1
100
AcDbSpline
210
0.0
220
0.0
230
1.0
 70
    11
 71
     3
 72
   116
 73
   112
 74
     0
 42
0.0000000001
 43
0.0000000001
 40
0.0
 40
0.0
 40
0.0
 40
0.0
 40
0.0357142857142857
 40
0.0357142857142857
 40
0.0357142857142857
 40
0.0357142857142857
 40
0.0714285714285714
 40
0.0714285714285714
 40
0.0714285714285714
 40
0.0714285714285714
 40
0.1071428571428571
 40
0.1071428571428571
 40
0.1071428571428571
 40
0.1071428571428571
 40
0.1428571428571429
 40
0.1428571428571429
 40
0.1428571428571429
 40
0.1428571428571429
 40
0.1785714285714286
 40
0.1785714285714286
 40
0.1785714285714286
 40
0.1785714285714286
 40
0.2142857142857143
 40
0.2142857142857143
 40
0.2142857142857143
 40
0.2142857142857143
 40
0.2499999999999999
 40
0.2499999999999999
 40
0.2499999999999999
 40
0.2499999999999999
 40
0.2857142857142856
 40
0.2857142857142856
 40
0.2857142857142856
 40
0.2857142857142856
 40
0.3214285714285713
 40
0.3214285714285713
 40
0.3214285714285713
 40
0.3214285714285713
 40
0.357142857142857
 40
0.357142857142857
 40
0.357142857142857
 40
0.357142857142857
 40
0.3928571428571427
 40
0.3928571428571427
 40
0.3928571428571427
 40
0.3928571428571427
 40
0.4285714285714284
 40
0.4285714285714284
 40
0.4285714285714284
 40
0.4285714285714284
 40
0.4642857142857141
 40
0.4642857142857141
 40
0.4642857142857141
 40
0.4642857142857141
 40
0.4999999999999998
 40
0.4999999999999998
 40
0.4999999999999998
 40
0.4999999999999998
 40
0.5357142857142856
 40
0.5357142857142856
 40
0.5357142857142856
 40
0.5357142857142856
 40
0.5714285714285713
 40
0.5714285714285713
 40
0.5714285714285713
 40
0.5714285714285713
 40
0.607142857142857
 40
0.607142857142857
 40
0.607142857142857
 40
0.607142857142857
 40
0.6428571428571427
 40
0.6428571428571427
 40
0.6428571428571427
 40
0.6428571428571427
 40
0.6785714285714284
 40
0.6785714285714284
 40
0.6785714285714284
 40
0.6785714285714284
 40
0.7142857142857141
 40
0.7142857142857141
 40
0.7142857142857141
 40
0.7142857142857141
 40
0.7499999999999998
 40
0.7499999999999998
 40
0.7499999999999998
 40
0.7499999999999998
 40
0.7857142857142855
 40
0.7857142857142855
 40
0.7857142857142855
 40
0.7857142857142855
 40
0.8214285714285712
 40
0.8214285714285712
 40
0.8214285714285712
 40
0.8214285714285712
 40
0.8571428571428569
 40
0.8571428571428569
 40
0.8571428571428569
 40
0.8571428571428569
 40
0.8928571428571426
 40
0.8928571428571426
 40
0.8928571428571426
 40
0.8928571428571426
 40
0.9285714285714283
 40
0.9285714285714283
 40
0.9285714285714283
 40
0.9285714285714283
 40
0.964285714285714
 40
0.964285714285714
 40
0.964285714285714
 40
0.964285714285714
 40
1.0
 40
1.0
 40
1.0
 40
1.0
 10
4.370972440944883
 20
-4.861559055118111
 30
0.0
 10
4.370972440944883
 20
-4.861559055118111
 30
0.0
 10
4.370972440944883
 20
-4.688724409448819
 30
0.0
 10
4.370972440944883
 20
-4.688724409448819
 30
0.0
 10
4.370972440944883
 20
-4.688724409448819
 30
0.0
 10
4.370972440944883
 20
-4.688724409448819
 30
0.0
 10
4.397137795275591
 20
-4.688724409448819
 30
0.0
 10
4.397137795275591
 20
-4.688724409448819
 30
0.0
 10
4.397137795275591
 20
-4.688724409448819
 30
0.0
 10
4.397137795275591
 20
-4.688724409448819
 30
0.0
 10
4.397137795275591
 20
-4.712948818897638
 30
0.0
 10
4.397137795275591
 20
-4.712948818897638
 30
0.0
 10
4.397137795275591
 20
-4.712948818897638
 30
0.0
 10
4.402582677165355
 20
-4.704503937007874
 30
0.0
 10
4.409807086614173
 20
-4.697669291338583
 30
0.0
 10
4.418807086614174
 20
-4.69255905511811
 30
0.0
 10
4.418807086614174
 20
-4.69255905511811
 30
0.0
 10
4.427807086614173
 20
-4.687389763779528
 30
0.0
 10
4.438082677165355
 20
-4.684779527559055
 30
0.0
 10
4.449582677165354
 20
-4.684779527559055
 30
0.0
 10
4.449582677165354
 20
-4.684779527559055
 30
0.0
 10
4.46236220472441
 20
-4.684779527559055
 30
0.0
 10
4.47286220472441
 20
-4.687448818897638
 30
0.0
 10
4.481027559055118
 20
-4.692779527559055
 30
0.0
 10
4.481027559055118
 20
-4.692779527559055
 30
0.0
 10
4.489251968503937
 20
-4.698114173228347
 30
0.0
 10
4.495027559055118
 20
-4.705503937007874
 30
0.0
 10
4.498362204724409
 20
-4.71505905511811
 30
0.0
 10
4.498362204724409
 20
-4.71505905511811
 30
0.0
 10
4.512082677165354
 20
-4.694889763779528
 30
0.0
 10
4.52986220472441
 20
-4.684779527559055
 30
0.0
 10
4.551751968503937
 20
-4.684779527559055
 30
0.0
 10
4.551751968503937
 20
-4.684779527559055
 30
0.0
 10
4.568917322834646
 20
-4.684779527559055
 30
0.0
 10
4.582082677165355
 20
-4.68955905511811
 30
0.0
 10
4.591307086614173
 20
-4.69905905511811
 30
0.0
 10
4.591307086614173
 20
-4.69905905511811
 30
0.0
 10
4.600527559055118
 20
-4.70855905511811
 30
0.0
 10
4.605141732283465
 20
-4.723169291338583
 30
0.0
 10
4.605141732283465
 20
-4.742893700787402
 30
0.0
 10
4.605141732283465
 20
-4.742893700787402
 30
0.0
 10
4.605141732283465
 20
-4.742893700787402
 30
0.0
 10
4.605141732283465
 20
-4.861559055118111
 30
0.0
 10
4.605141732283465
 20
-4.861559055118111
 30
0.0
 10
4.605141732283465
 20
-4.861559055118111
 30
0.0
 10
4.605141732283465
 20
-4.861559055118111
 30
0.0
 10
4.576027559055119
 20
-4.861559055118111
 30
0.0
 10
4.576027559055119
 20
-4.861559055118111
 30
0.0
 10
4.576027559055119
 20
-4.861559055118111
 30
0.0
 10
4.576027559055119
 20
-4.861559055118111
 30
0.0
 10
4.576027559055119
 20
-4.752669291338583
 30
0.0
 10
4.576027559055119
 20
-4.752669291338583
 30
0.0
 10
4.576027559055119
 20
-4.752669291338583
 30
0.0
 10
4.576027559055119
 20
-4.740948818897638
 30
0.0
 10
4.575082677165354
 20
-4.732503937007874
 30
0.0
 10
4.573196850393701
 20
-4.727334645669291
 30
0.0
 10
4.573196850393701
 20
-4.727334645669291
 30
0.0
 10
4.571251968503937
 20
-4.72222440944882
 30
0.0
 10
4.567807086614174
 20
-4.71805905511811
 30
0.0
 10
4.56286220472441
 20
-4.714893700787401
 30
0.0
 10
4.56286220472441
 20
-4.714893700787401
 30
0.0
 10
4.55786220472441
 20
-4.711779527559055
 30
0.0
 10
4.551972440944882
 20
-4.710169291338583
 30
0.0
 10
4.545251968503937
 20
-4.710169291338583
 30
0.0
 10
4.545251968503937
 20
-4.710169291338583
 30
0.0
 10
4.533082677165354
 20
-4.710169291338583
 30
0.0
 10
4.523027559055119
 20
-4.71422440944882
 30
0.0
 10
4.514972440944882
 20
-4.722334645669291
 30
0.0
 10
4.514972440944882
 20
-4.722334645669291
 30
0.0
 10
4.506972440944882
 20
-4.730393700787402
 30
0.0
 10
4.502917322834646
 20
-4.743334645669291
 30
0.0
 10
4.502917322834646
 20
-4.761114173228346
 30
0.0
 10
4.502917322834646
 20
-4.761114173228346
 30
0.0
 10
4.502917322834646
 20
-4.761114173228346
 30
0.0
 10
4.502917322834646
 20
-4.861559055118111
 30
0.0
 10
4.502917322834646
 20
-4.861559055118111
 30
0.0
 10
4.502917322834646
 20
-4.861559055118111
 30
0.0
 10
4.502917322834646
 20
-4.861559055118111
 30
0.0
 10
4.47363779527559
 20
-4.861559055118111
 30
0.0
 10
4.47363779527559
 20
-4.861559055118111
 30
0.0
 10
4.47363779527559
 20
-4.861559055118111
 30
0.0
 10
4.47363779527559
 20
-4.861559055118111
 30
0.0
 10
4.47363779527559
 20
-4.749279527559056
 30
0.0
 10
4.47363779527559
 20
-4.749279527559056
 30
0.0
 10
4.47363779527559
 20
-4.749279527559056
 30
0.0
 10
4.47363779527559
 20
-4.736224409448819
 30
0.0
 10
4.471251968503937
 20
-4.726448818897638
 30
0.0
 10
4.466472440944882
 20
-4.719948818897638
 30
0.0
 10
4.466472440944882
 20
-4.719948818897638
 30
0.0
 10
4.461696850393701
 20
-4.713448818897638
 30
0.0
 10
4.453917322834646
 20
-4.710169291338583
 30
0.0
 10
4.443027559055119
 20
-4.710169291338583
 30
0.0
 10
4.443027559055119
 20
-4.710169291338583
 30
0.0
 10
4.434807086614174
 20
-4.710169291338583
 30
0.0
 10
4.427196850393701
 20
-4.712334645669292
 30
0.0
 10
4.420196850393701
 20
-4.716724409448819
 30
0.0
 10
4.420196850393701
 20
-4.716724409448819
 30
0.0
 10
4.413196850393701
 20
-4.72105905511811
 30
0.0
 10
4.408082677165354
 20
-4.727393700787402
 30
0.0
 10
4.404972440944882
 20
-4.735724409448819
 30
0.0
 10
4.404972440944882
 20
-4.735724409448819
 30
0.0
 10
4.401807086614173
 20
-4.744114173228347
 30
0.0
 10
4.400251968503937
 20
-4.756169291338583
 30
0.0
 10
4.400251968503937
 20
-4.771893700787402
 30
0.0
 10
4.400251968503937
 20
-4.771893700787402
 30
0.0
 10
4.400251968503937
 20
-4.771893700787402
 30
0.0
 10
4.400251968503937
 20
-4.861559055118111
 30
0.0
 10
4.400251968503937
 20
-4.861559055118111
 30
0.0
 10
4.400251968503937
 20
-4.861559055118111
 30
0.0
 10
4.400251968503937
 20
-4.861559055118111
 30
0.0
 10
4.370972440944883
 20
-4.861559055118111
 30
0.0
 10
4.370972440944883
 20
-4.861559055118111
 30
0.0
  0
SPLINE
  5
6D
330
1F
100
AcDbEntity
  8
Capa 1
370
     5
100
AcDbSpline
210
0.0
220
0.0
230
1.0
 70
    24
 71
     3
 72
     8
 73
     4
 74
     0
 42
0.0000000001
 43
0.0000000001
 40
0.0
 40
0.0
 40
0.0
 40
0.0
 40
1.0
 40
1.0
 40
1.0
 40
1.0
 10
-3.485826771653544
 20
-4.960625984251969
 30
0.0
 10
-3.485826771653544
 20
-4.960625984251969
 30
0.0
 10
-4.036834645669291
 20
-4.960625984251969
 30
0.0
 10
-4.036834645669291
 20
-4.960625984251969
 30
0.0
  0
SPLINE
  5
6E
330
1F
100
AcDbEntity
  8
Capa 1
370
     5
100
AcDbSpline
210
0.0
220
0.0
230
1.0
 70
    24
 71
     3
 72
     8
 73
     4
 74
     0
 42
0.0000000001
 43
0.0000000001
 40
0.0
 40
0.0
 40
0.0
 40
0.0
 40
1.0
 40
1.0
 40
1.0
 40
1.0
 10
-3.488606299212599
 20
-5.118106299212599
 30
0.0
 10
-3.488606299212599
 20
-5.118106299212599
 30
0.0
 10
-4.036834645669291
 20
-5.118106299212599
 30
0.0
 10
-4.036834645669291
 20
-5.118106299212599
 30
0.0
  0
SPLINE
  5
6F
330
1F
100
AcDbEntity
  8
Capa 1
370
     5
100
AcDbSpline
210
0.0
220
0.0
230
1.0
 70
    24
 71
     3
 72
     8
 73
     4
 74
     0
 42
0.0000000001
 43
0.0000000001
 40
0.0
 40
0.0
 40
0.0
 40
0.0
 40
1.0
 40
1.0
 40
1.0
 40
1.0
 10
-3.836834645669291
 20
-4.960625984251969
 30
0.0
 10
-3.836834645669291
 20
-4.960625984251969
 30
0.0
 10
-3.836834645669291
 20
-5.118106299212599
 30
0.0
 10
-3.836834645669291
 20
-5.118106299212599
 30
0.0
  0
SPLINE
  5
70
330
1F
100
AcDbEntity
  8
Capa 1
100
AcDbSpline
210
0.0
220
0.0
230
1.0
 70
    11
 71
     3
 72
    48
 73
    44
 74
     0
 42
0.0000000001
 43
0.0000000001
 40
0.0
 40
0.0
 40
0.0
 40
0.0
 40
0.0909090909090909
 40
0.0909090909090909
 40
0.0909090909090909
 40
0.0909090909090909
 40
0.1818181818181818
 40
0.1818181818181818
 40
0.1818181818181818
 40
0.1818181818181818
 40
0.2727272727272727
 40
0.2727272727272727
 40
0.2727272727272727
 40
0.2727272727272727
 40
0.3636363636363637
 40
0.3636363636363637
 40
0.3636363636363637
 40
0.3636363636363637
 40
0.4545454545454546
 40
0.4545454545454546
 40
0.4545454545454546
 40
0.4545454545454546
 40
0.5454545454545455
 40
0.5454545454545455
 40
0.5454545454545455
 40
0.5454545454545455
 40
0.6363636363636365
 40
0.6363636363636365
 40
0.6363636363636365
 40
0.6363636363636365
 40
0.7272727272727274
 40
0.7272727272727274
 40
0.7272727272727274
 40
0.7272727272727274
 40
0.8181818181818183
 40
0.8181818181818183
 40
0.8181818181818183
 40
0.8181818181818183
 40
0.9090909090909093
 40
0.9090909090909093
 40
0.9090909090909093
 40
0.9090909090909093
 40
1.0
 40
1.0
 40
1.0
 40
1.0
 10
-3.717531496062992
 20
-4.501346456692914
 30
0.0
 10
-3.717531496062992
 20
-4.501346456692914
 30
0.0
 10
-3.774641732283465
 20
-4.501346456692914
 30
0.0
 10
-3.774641732283465
 20
-4.501346456692914
 30
0.0
 10
-3.774641732283465
 20
-4.501346456692914
 30
0.0
 10
-3.774641732283465
 20
-4.501346456692914
 30
0.0
 10
-3.774641732283465
 20
-4.604850393700787
 30
0.0
 10
-3.774641732283465
 20
-4.604850393700787
 30
0.0
 10
-3.774641732283465
 20
-4.604850393700787
 30
0.0
 10
-3.774641732283465
 20
-4.604850393700787
 30
0.0
 10
-3.801531496062992
 20
-4.604850393700787
 30
0.0
 10
-3.801531496062992
 20
-4.604850393700787
 30
0.0
 10
-3.801531496062992
 20
-4.604850393700787
 30
0.0
 10
-3.801531496062992
 20
-4.604850393700787
 30
0.0
 10
-3.956141732283465
 20
-4.49596062992126
 30
0.0
 10
-3.956141732283465
 20
-4.49596062992126
 30
0.0
 10
-3.956141732283465
 20
-4.49596062992126
 30
0.0
 10
-3.956141732283465
 20
-4.49596062992126
 30
0.0
 10
-3.956141732283465
 20
-4.472015748031496
 30
0.0
 10
-3.956141732283465
 20
-4.472015748031496
 30
0.0
 10
-3.956141732283465
 20
-4.472015748031496
 30
0.0
 10
-3.956141732283465
 20
-4.472015748031496
 30
0.0
 10
-3.801531496062992
 20
-4.472015748031496
 30
0.0
 10
-3.801531496062992
 20
-4.472015748031496
 30
0.0
 10
-3.801531496062992
 20
-4.472015748031496
 30
0.0
 10
-3.801531496062992
 20
-4.472015748031496
 30
0.0
 10
-3.801531496062992
 20
-4.439791338582677
 30
0.0
 10
-3.801531496062992
 20
-4.439791338582677
 30
0.0
 10
-3.801531496062992
 20
-4.439791338582677
 30
0.0
 10
-3.801531496062992
 20
-4.439791338582677
 30
0.0
 10
-3.774641732283465
 20
-4.439791338582677
 30
0.0
 10
-3.774641732283465
 20
-4.439791338582677
 30
0.0
 10
-3.774641732283465
 20
-4.439791338582677
 30
0.0
 10
-3.774641732283465
 20
-4.439791338582677
 30
0.0
 10
-3.774641732283465
 20
-4.472015748031496
 30
0.0
 10
-3.774641732283465
 20
-4.472015748031496
 30
0.0
 10
-3.774641732283465
 20
-4.472015748031496
 30
0.0
 10
-3.774641732283465
 20
-4.472015748031496
 30
0.0
 10
-3.717531496062992
 20
-4.472015748031496
 30
0.0
 10
-3.717531496062992
 20
-4.472015748031496
 30
0.0
 10
-3.717531496062992
 20
-4.472015748031496
 30
0.0
 10
-3.717531496062992
 20
-4.472015748031496
 30
0.0
 10
-3.717531496062992
 20
-4.501346456692914
 30
0.0
 10
-3.717531496062992
 20
-4.501346456692914
 30
0.0
  0
SPLINE
  5
71
330
1F
100
AcDbEntity
  8
Capa 1
100
AcDbSpline
210
0.0
220
0.0
230
1.0
 70
    11
 71
     3
 72
    16
 73
    12
 74
     0
 42
0.0000000001
 43
0.0000000001
 40
0.0
 40
0.0
 40
0.0
 40
0.0
 40
0.3333333333333333
 40
0.3333333333333333
 40
0.3333333333333333
 40
0.3333333333333333
 40
0.6666666666666666
 40
0.6666666666666666
 40
0.6666666666666666
 40
0.6666666666666666
 40
1.0
 40
1.0
 40
1.0
 40
1.0
 10
-3.801531496062992
 20
-4.501346456692914
 30
0.0
 10
-3.801531496062992
 20
-4.501346456692914
 30
0.0
 10
-3.909086614173229
 20
-4.501346456692914
 30
0.0
 10
-3.909086614173229
 20
-4.501346456692914
 30
0.0
 10
-3.909086614173229
 20
-4.501346456692914
 30
0.0
 10
-3.909086614173229
 20
-4.501346456692914
 30
0.0
 10
-3.801531496062992
 20
-4.576015748031496
 30
0.0
 10
-3.801531496062992
 20
-4.576015748031496
 30
0.0
 10
-3.801531496062992
 20
-4.576015748031496
 30
0.0
 10
-3.801531496062992
 20
-4.576015748031496
 30
0.0
 10
-3.801531496062992
 20
-4.501346456692914
 30
0.0
 10
-3.801531496062992
 20
-4.501346456692914
 30
0.0
  0
SPLINE
  5
72
330
1F
100
AcDbEntity
  8
Capa 1
100
AcDbSpline
210
0.0
220
0.0
230
1.0
 70
    11
 71
     3
 72
   116
 73
   112
 74
     0
 42
0.0000000001
 43
0.0000000001
 40
0.0
 40
0.0
 40
0.0
 40
0.0
 40
0.0357142857142857
 40
0.0357142857142857
 40
0.0357142857142857
 40
0.0357142857142857
 40
0.0714285714285714
 40
0.0714285714285714
 40
0.0714285714285714
 40
0.0714285714285714
 40
0.1071428571428571
 40
0.1071428571428571
 40
0.1071428571428571
 40
0.1071428571428571
 40
0.1428571428571429
 40
0.1428571428571429
 40
0.1428571428571429
 40
0.1428571428571429
 40
0.1785714285714286
 40
0.1785714285714286
 40
0.1785714285714286
 40
0.1785714285714286
 40
0.2142857142857143
 40
0.2142857142857143
 40
0.2142857142857143
 40
0.2142857142857143
 40
0.2499999999999999
 40
0.2499999999999999
 40
0.2499999999999999
 40
0.2499999999999999
 40
0.2857142857142856
 40
0.2857142857142856
 40
0.2857142857142856
 40
0.2857142857142856
 40
0.3214285714285713
 40
0.3214285714285713
 40
0.3214285714285713
 40
0.3214285714285713
 40
0.357142857142857
 40
0.357142857142857
 40
0.357142857142857
 40
0.357142857142857
 40
0.3928571428571427
 40
0.3928571428571427
 40
0.3928571428571427
 40
0.3928571428571427
 40
0.4285714285714284
 40
0.4285714285714284
 40
0.4285714285714284
 40
0.4285714285714284
 40
0.4642857142857141
 40
0.4642857142857141
 40
0.4642857142857141
 40
0.4642857142857141
 40
0.4999999999999998
 40
0.4999999999999998
 40
0.4999999999999998
 40
0.4999999999999998
 40
0.5357142857142856
 40
0.5357142857142856
 40
0.5357142857142856
 40
0.5357142857142856
 40
0.5714285714285713
 40
0.5714285714285713
 40
0.5714285714285713
 40
0.5714285714285713
 40
0.607142857142857
 40
0.607142857142857
 40
0.607142857142857
 40
0.607142857142857
 40
0.6428571428571427
 40
0.6428571428571427
 40
0.6428571428571427
 40
0.6428571428571427
 40
0.6785714285714284
 40
0.6785714285714284
 40
0.6785714285714284
 40
0.6785714285714284
 40
0.7142857142857141
 40
0.7142857142857141
 40
0.7142857142857141
 40
0.7142857142857141
 40
0.7499999999999998
 40
0.7499999999999998
 40
0.7499999999999998
 40
0.7499999999999998
 40
0.7857142857142855
 40
0.7857142857142855
 40
0.7857142857142855
 40
0.7857142857142855
 40
0.8214285714285712
 40
0.8214285714285712
 40
0.8214285714285712
 40
0.8214285714285712
 40
0.8571428571428569
 40
0.8571428571428569
 40
0.8571428571428569
 40
0.8571428571428569
 40
0.8928571428571426
 40
0.8928571428571426
 40
0.8928571428571426
 40
0.8928571428571426
 40
0.9285714285714283
 40
0.9285714285714283
 40
0.9285714285714283
 40
0.9285714285714283
 40
0.964285714285714
 40
0.964285714285714
 40
0.964285714285714
 40
0.964285714285714
 40
1.0
 40
1.0
 40
1.0
 40
1.0
 10
-3.717531496062992
 20
-4.309070866141733
 30
0.0
 10
-3.717531496062992
 20
-4.309070866141733
 30
0.0
 10
-3.890366141732284
 20
-4.309070866141733
 30
0.0
 10
-3.890366141732284
 20
-4.309070866141733
 30
0.0
 10
-3.890366141732284
 20
-4.309070866141733
 30
0.0
 10
-3.890366141732284
 20
-4.309070866141733
 30
0.0
 10
-3.890366141732284
 20
-4.282905511811024
 30
0.0
 10
-3.890366141732284
 20
-4.282905511811024
 30
0.0
 10
-3.890366141732284
 20
-4.282905511811024
 30
0.0
 10
-3.890366141732284
 20
-4.282905511811024
 30
0.0
 10
-3.866141732283465
 20
-4.282905511811024
 30
0.0
 10
-3.866141732283465
 20
-4.282905511811024
 30
0.0
 10
-3.866141732283465
 20
-4.282905511811024
 30
0.0
 10
-3.874586614173229
 20
-4.27746062992126
 30
0.0
 10
-3.88142125984252
 20
-4.270236220472441
 30
0.0
 10
-3.886531496062992
 20
-4.261236220472441
 30
0.0
 10
-3.886531496062992
 20
-4.261236220472441
 30
0.0
 10
-3.891700787401575
 20
-4.252236220472441
 30
0.0
 10
-3.894311023622048
 20
-4.24196062992126
 30
0.0
 10
-3.894311023622048
 20
-4.23046062992126
 30
0.0
 10
-3.894311023622048
 20
-4.23046062992126
 30
0.0
 10
-3.894311023622048
 20
-4.217681102362205
 30
0.0
 10
-3.891641732283465
 20
-4.207181102362205
 30
0.0
 10
-3.886311023622048
 20
-4.199015748031497
 30
0.0
 10
-3.886311023622048
 20
-4.199015748031497
 30
0.0
 10
-3.880976377952756
 20
-4.190791338582677
 30
0.0
 10
-3.873586614173229
 20
-4.185015748031496
 30
0.0
 10
-3.864031496062992
 20
-4.181681102362205
 30
0.0
 10
-3.864031496062992
 20
-4.181681102362205
 30
0.0
 10
-3.884200787401575
 20
-4.16796062992126
 30
0.0
 10
-3.894311023622048
 20
-4.150181102362205
 30
0.0
 10
-3.894311023622048
 20
-4.128291338582677
 30
0.0
 10
-3.894311023622048
 20
-4.128291338582677
 30
0.0
 10
-3.894311023622048
 20
-4.111125984251968
 30
0.0
 10
-3.889531496062992
 20
-4.09796062992126
 30
0.0
 10
-3.880031496062992
 20
-4.088736220472441
 30
0.0
 10
-3.880031496062992
 20
-4.088736220472441
 30
0.0
 10
-3.870531496062992
 20
-4.079515748031496
 30
0.0
 10
-3.85592125984252
 20
-4.07490157480315
 30
0.0
 10
-3.836196850393701
 20
-4.07490157480315
 30
0.0
 10
-3.836196850393701
 20
-4.07490157480315
 30
0.0
 10
-3.836196850393701
 20
-4.07490157480315
 30
0.0
 10
-3.717531496062992
 20
-4.07490157480315
 30
0.0
 10
-3.717531496062992
 20
-4.07490157480315
 30
0.0
 10
-3.717531496062992
 20
-4.07490157480315
 30
0.0
 10
-3.717531496062992
 20
-4.07490157480315
 30
0.0
 10
-3.717531496062992
 20
-4.104015748031496
 30
0.0
 10
-3.717531496062992
 20
-4.104015748031496
 30
0.0
 10
-3.717531496062992
 20
-4.104015748031496
 30
0.0
 10
-3.717531496062992
 20
-4.104015748031496
 30
0.0
 10
-3.82642125984252
 20
-4.104015748031496
 30
0.0
 10
-3.82642125984252
 20
-4.104015748031496
 30
0.0
 10
-3.82642125984252
 20
-4.104015748031496
 30
0.0
 10
-3.838141732283465
 20
-4.104015748031496
 30
0.0
 10
-3.846586614173229
 20
-4.10496062992126
 30
0.0
 10
-3.851755905511811
 20
-4.106846456692914
 30
0.0
 10
-3.851755905511811
 20
-4.106846456692914
 30
0.0
 10
-3.856866141732284
 20
-4.108791338582678
 30
0.0
 10
-3.861031496062992
 20
-4.112236220472441
 30
0.0
 10
-3.864196850393701
 20
-4.117181102362205
 30
0.0
 10
-3.864196850393701
 20
-4.117181102362205
 30
0.0
 10
-3.867311023622047
 20
-4.122181102362205
 30
0.0
 10
-3.86892125984252
 20
-4.128070866141733
 30
0.0
 10
-3.86892125984252
 20
-4.134791338582677
 30
0.0
 10
-3.86892125984252
 20
-4.134791338582677
 30
0.0
 10
-3.86892125984252
 20
-4.14696062992126
 30
0.0
 10
-3.864866141732284
 20
-4.157015748031497
 30
0.0
 10
-3.856755905511811
 20
-4.165070866141733
 30
0.0
 10
-3.856755905511811
 20
-4.165070866141733
 30
0.0
 10
-3.848696850393701
 20
-4.173070866141733
 30
0.0
 10
-3.835755905511811
 20
-4.177125984251969
 30
0.0
 10
-3.817976377952756
 20
-4.177125984251969
 30
0.0
 10
-3.817976377952756
 20
-4.177125984251969
 30
0.0
 10
-3.817976377952756
 20
-4.177125984251969
 30
0.0
 10
-3.717531496062992
 20
-4.177125984251969
 30
0.0
 10
-3.717531496062992
 20
-4.177125984251969
 30
0.0
 10
-3.717531496062992
 20
-4.177125984251969
 30
0.0
 10
-3.717531496062992
 20
-4.177125984251969
 30
0.0
 10
-3.717531496062992
 20
-4.206405511811024
 30
0.0
 10
-3.717531496062992
 20
-4.206405511811024
 30
0.0
 10
-3.717531496062992
 20
-4.206405511811024
 30
0.0
 10
-3.717531496062992
 20
-4.206405511811024
 30
0.0
 10
-3.829811023622047
 20
-4.206405511811024
 30
0.0
 10
-3.829811023622047
 20
-4.206405511811024
 30
0.0
 10
-3.829811023622047
 20
-4.206405511811024
 30
0.0
 10
-3.842866141732284
 20
-4.206405511811024
 30
0.0
 10
-3.852641732283465
 20
-4.208791338582677
 30
0.0
 10
-3.859141732283465
 20
-4.213570866141732
 30
0.0
 10
-3.859141732283465
 20
-4.213570866141732
 30
0.0
 10
-3.865641732283465
 20
-4.218346456692913
 30
0.0
 10
-3.86892125984252
 20
-4.226125984251969
 30
0.0
 10
-3.86892125984252
 20
-4.237015748031496
 30
0.0
 10
-3.86892125984252
 20
-4.237015748031496
 30
0.0
 10
-3.86892125984252
 20
-4.245236220472441
 30
0.0
 10
-3.866755905511811
 20
-4.252846456692914
 30
0.0
 10
-3.862366141732283
 20
-4.259846456692913
 30
0.0
 10
-3.862366141732283
 20
-4.259846456692913
 30
0.0
 10
-3.858031496062992
 20
-4.266846456692914
 30
0.0
 10
-3.851696850393701
 20
-4.27196062992126
 30
0.0
 10
-3.843366141732284
 20
-4.275070866141732
 30
0.0
 10
-3.843366141732284
 20
-4.275070866141732
 30
0.0
 10
-3.834976377952756
 20
-4.278236220472441
 30
0.0
 10
-3.82292125984252
 20
-4.279791338582677
 30
0.0
 10
-3.807196850393701
 20
-4.279791338582677
 30
0.0
 10
-3.807196850393701
 20
-4.279791338582677
 30
0.0
 10
-3.807196850393701
 20
-4.279791338582677
 30
0.0
 10
-3.717531496062992
 20
-4.279791338582677
 30
0.0
 10
-3.717531496062992
 20
-4.279791338582677
 30
0.0
 10
-3.717531496062992
 20
-4.279791338582677
 30
0.0
 10
-3.717531496062992
 20
-4.279791338582677
 30
0.0
 10
-3.717531496062992
 20
-4.309070866141733
 30
0.0
 10
-3.717531496062992
 20
-4.309070866141733
 30
0.0
  0
SPLINE
  5
73
330
1F
100
AcDbEntity
  8
Capa 1
100
AcDbSpline
210
0.0
220
0.0
230
1.0
 70
    11
 71
     3
 72
   116
 73
   112
 74
     0
 42
0.0000000001
 43
0.0000000001
 40
0.0
 40
0.0
 40
0.0
 40
0.0
 40
0.0357142857142857
 40
0.0357142857142857
 40
0.0357142857142857
 40
0.0357142857142857
 40
0.0714285714285714
 40
0.0714285714285714
 40
0.0714285714285714
 40
0.0714285714285714
 40
0.1071428571428571
 40
0.1071428571428571
 40
0.1071428571428571
 40
0.1071428571428571
 40
0.1428571428571429
 40
0.1428571428571429
 40
0.1428571428571429
 40
0.1428571428571429
 40
0.1785714285714286
 40
0.1785714285714286
 40
0.1785714285714286
 40
0.1785714285714286
 40
0.2142857142857143
 40
0.2142857142857143
 40
0.2142857142857143
 40
0.2142857142857143
 40
0.2499999999999999
 40
0.2499999999999999
 40
0.2499999999999999
 40
0.2499999999999999
 40
0.2857142857142856
 40
0.2857142857142856
 40
0.2857142857142856
 40
0.2857142857142856
 40
0.3214285714285713
 40
0.3214285714285713
 40
0.3214285714285713
 40
0.3214285714285713
 40
0.357142857142857
 40
0.357142857142857
 40
0.357142857142857
 40
0.357142857142857
 40
0.3928571428571427
 40
0.3928571428571427
 40
0.3928571428571427
 40
0.3928571428571427
 40
0.4285714285714284
 40
0.4285714285714284
 40
0.4285714285714284
 40
0.4285714285714284
 40
0.4642857142857141
 40
0.4642857142857141
 40
0.4642857142857141
 40
0.4642857142857141
 40
0.4999999999999998
 40
0.4999999999999998
 40
0.4999999999999998
 40
0.4999999999999998
 40
0.5357142857142856
 40
0.5357142857142856
 40
0.5357142857142856
 40
0.5357142857142856
 40
0.5714285714285713
 40
0.5714285714285713
 40
0.5714285714285713
 40
0.5714285714285713
 40
0.607142857142857
 40
0.607142857142857
 40
0.607142857142857
 40
0.607142857142857
 40
0.6428571428571427
 40
0.6428571428571427
 40
0.6428571428571427
 40
0.6428571428571427
 40
0.6785714285714284
 40
0.6785714285714284
 40
0.6785714285714284
 40
0.6785714285714284
 40
0.7142857142857141
 40
0.7142857142857141
 40
0.7142857142857141
 40
0.7142857142857141
 40
0.7499999999999998
 40
0.7499999999999998
 40
0.7499999999999998
 40
0.7499999999999998
 40
0.7857142857142855
 40
0.7857142857142855
 40
0.7857142857142855
 40
0.7857142857142855
 40
0.8214285714285712
 40
0.8214285714285712
 40
0.8214285714285712
 40
0.8214285714285712
 40
0.8571428571428569
 40
0.8571428571428569
 40
0.8571428571428569
 40
0.8571428571428569
 40
0.8928571428571426
 40
0.8928571428571426
 40
0.8928571428571426
 40
0.8928571428571426
 40
0.9285714285714283
 40
0.9285714285714283
 40
0.9285714285714283
 40
0.9285714285714283
 40
0.964285714285714
 40
0.964285714285714
 40
0.964285714285714
 40
0.964285714285714
 40
1.0
 40
1.0
 40
1.0
 40
1.0
 10
-3.717531496062992
 20
-4.03140157480315
 30
0.0
 10
-3.717531496062992
 20
-4.03140157480315
 30
0.0
 10
-3.890366141732284
 20
-4.03140157480315
 30
0.0
 10
-3.890366141732284
 20
-4.03140157480315
 30
0.0
 10
-3.890366141732284
 20
-4.03140157480315
 30
0.0
 10
-3.890366141732284
 20
-4.03140157480315
 30
0.0
 10
-3.890366141732284
 20
-4.005236220472441
 30
0.0
 10
-3.890366141732284
 20
-4.005236220472441
 30
0.0
 10
-3.890366141732284
 20
-4.005236220472441
 30
0.0
 10
-3.890366141732284
 20
-4.005236220472441
 30
0.0
 10
-3.866141732283465
 20
-4.005236220472441
 30
0.0
 10
-3.866141732283465
 20
-4.005236220472441
 30
0.0
 10
-3.866141732283465
 20
-4.005236220472441
 30
0.0
 10
-3.874586614173229
 20
-3.999791338582677
 30
0.0
 10
-3.88142125984252
 20
-3.992566929133858
 30
0.0
 10
-3.886531496062992
 20
-3.983566929133859
 30
0.0
 10
-3.886531496062992
 20
-3.983566929133859
 30
0.0
 10
-3.891700787401575
 20
-3.974566929133859
 30
0.0
 10
-3.894311023622048
 20
-3.964291338582677
 30
0.0
 10
-3.894311023622048
 20
-3.952791338582677
 30
0.0
 10
-3.894311023622048
 20
-3.952791338582677
 30
0.0
 10
-3.894311023622048
 20
-3.940011811023622
 30
0.0
 10
-3.891641732283465
 20
-3.929511811023622
 30
0.0
 10
-3.886311023622048
 20
-3.921346456692914
 30
0.0
 10
-3.886311023622048
 20
-3.921346456692914
 30
0.0
 10
-3.880976377952756
 20
-3.913122047244095
 30
0.0
 10
-3.873586614173229
 20
-3.907346456692914
 30
0.0
 10
-3.864031496062992
 20
-3.904011811023622
 30
0.0
 10
-3.864031496062992
 20
-3.904011811023622
 30
0.0
 10
-3.884200787401575
 20
-3.890291338582677
 30
0.0
 10
-3.894311023622048
 20
-3.872511811023622
 30
0.0
 10
-3.894311023622048
 20
-3.850622047244095
 30
0.0
 10
-3.894311023622048
 20
-3.850622047244095
 30
0.0
 10
-3.894311023622048
 20
-3.833456692913386
 30
0.0
 10
-3.889531496062992
 20
-3.820291338582677
 30
0.0
 10
-3.880031496062992
 20
-3.811066929133859
 30
0.0
 10
-3.880031496062992
 20
-3.811066929133859
 30
0.0
 10
-3.870531496062992
 20
-3.801846456692914
 30
0.0
 10
-3.85592125984252
 20
-3.797232283464567
 30
0.0
 10
-3.836196850393701
 20
-3.797232283464567
 30
0.0
 10
-3.836196850393701
 20
-3.797232283464567
 30
0.0
 10
-3.836196850393701
 20
-3.797232283464567
 30
0.0
 10
-3.717531496062992
 20
-3.797232283464567
 30
0.0
 10
-3.717531496062992
 20
-3.797232283464567
 30
0.0
 10
-3.717531496062992
 20
-3.797232283464567
 30
0.0
 10
-3.717531496062992
 20
-3.797232283464567
 30
0.0
 10
-3.717531496062992
 20
-3.826346456692914
 30
0.0
 10
-3.717531496062992
 20
-3.826346456692914
 30
0.0
 10
-3.717531496062992
 20
-3.826346456692914
 30
0.0
 10
-3.717531496062992
 20
-3.826346456692914
 30
0.0
 10
-3.82642125984252
 20
-3.826346456692914
 30
0.0
 10
-3.82642125984252
 20
-3.826346456692914
 30
0.0
 10
-3.82642125984252
 20
-3.826346456692914
 30
0.0
 10
-3.838141732283465
 20
-3.826346456692914
 30
0.0
 10
-3.846586614173229
 20
-3.827291338582677
 30
0.0
 10
-3.851755905511811
 20
-3.829177165354331
 30
0.0
 10
-3.851755905511811
 20
-3.829177165354331
 30
0.0
 10
-3.856866141732284
 20
-3.831122047244095
 30
0.0
 10
-3.861031496062992
 20
-3.834566929133858
 30
0.0
 10
-3.864196850393701
 20
-3.839511811023622
 30
0.0
 10
-3.864196850393701
 20
-3.839511811023622
 30
0.0
 10
-3.867311023622047
 20
-3.844511811023622
 30
0.0
 10
-3.86892125984252
 20
-3.85040157480315
 30
0.0
 10
-3.86892125984252
 20
-3.857122047244095
 30
0.0
 10
-3.86892125984252
 20
-3.857122047244095
 30
0.0
 10
-3.86892125984252
 20
-3.869291338582678
 30
0.0
 10
-3.864866141732284
 20
-3.879346456692914
 30
0.0
 10
-3.856755905511811
 20
-3.88740157480315
 30
0.0
 10
-3.856755905511811
 20
-3.88740157480315
 30
0.0
 10
-3.848696850393701
 20
-3.89540157480315
 30
0.0
 10
-3.835755905511811
 20
-3.899456692913386
 30
0.0
 10
-3.817976377952756
 20
-3.899456692913386
 30
0.0
 10
-3.817976377952756
 20
-3.899456692913386
 30
0.0
 10
-3.817976377952756
 20
-3.899456692913386
 30
0.0
 10
-3.717531496062992
 20
-3.899456692913386
 30
0.0
 10
-3.717531496062992
 20
-3.899456692913386
 30
0.0
 10
-3.717531496062992
 20
-3.899456692913386
 30
0.0
 10
-3.717531496062992
 20
-3.899456692913386
 30
0.0
 10
-3.717531496062992
 20
-3.928736220472441
 30
0.0
 10
-3.717531496062992
 20
-3.928736220472441
 30
0.0
 10
-3.717531496062992
 20
-3.928736220472441
 30
0.0
 10
-3.717531496062992
 20
-3.928736220472441
 30
0.0
 10
-3.829811023622047
 20
-3.928736220472441
 30
0.0
 10
-3.829811023622047
 20
-3.928736220472441
 30
0.0
 10
-3.829811023622047
 20
-3.928736220472441
 30
0.0
 10
-3.842866141732284
 20
-3.928736220472441
 30
0.0
 10
-3.852641732283465
 20
-3.931122047244095
 30
0.0
 10
-3.859141732283465
 20
-3.93590157480315
 30
0.0
 10
-3.859141732283465
 20
-3.93590157480315
 30
0.0
 10
-3.865641732283465
 20
-3.940677165354331
 30
0.0
 10
-3.86892125984252
 20
-3.948456692913386
 30
0.0
 10
-3.86892125984252
 20
-3.959346456692914
 30
0.0
 10
-3.86892125984252
 20
-3.959346456692914
 30
0.0
 10
-3.86892125984252
 20
-3.967566929133858
 30
0.0
 10
-3.866755905511811
 20
-3.975177165354331
 30
0.0
 10
-3.862366141732283
 20
-3.982177165354331
 30
0.0
 10
-3.862366141732283
 20
-3.982177165354331
 30
0.0
 10
-3.858031496062992
 20
-3.989177165354331
 30
0.0
 10
-3.851696850393701
 20
-3.994291338582678
 30
0.0
 10
-3.843366141732284
 20
-3.99740157480315
 30
0.0
 10
-3.843366141732284
 20
-3.99740157480315
 30
0.0
 10
-3.834976377952756
 20
-4.000566929133859
 30
0.0
 10
-3.82292125984252
 20
-4.002122047244095
 30
0.0
 10
-3.807196850393701
 20
-4.002122047244095
 30
0.0
 10
-3.807196850393701
 20
-4.002122047244095
 30
0.0
 10
-3.807196850393701
 20
-4.002122047244095
 30
0.0
 10
-3.717531496062992
 20
-4.002122047244095
 30
0.0
 10
-3.717531496062992
 20
-4.002122047244095
 30
0.0
 10
-3.717531496062992
 20
-4.002122047244095
 30
0.0
 10
-3.717531496062992
 20
-4.002122047244095
 30
0.0
 10
-3.717531496062992
 20
-4.03140157480315
 30
0.0
 10
-3.717531496062992
 20
-4.03140157480315
 30
0.0
  0
SPLINE
  5
74
330
1F
100
AcDbEntity
  8
Capa 1
370
     5
100
AcDbSpline
210
0.0
220
0.0
230
1.0
 70
    24
 71
     3
 72
     8
 73
     4
 74
     0
 42
0.0000000001
 43
0.0000000001
 40
0.0
 40
0.0
 40
0.0
 40
0.0
 40
1.0
 40
1.0
 40
1.0
 40
1.0
 10
3.28582283464567
 20
-4.960625984251969
 30
0.0
 10
3.28582283464567
 20
-4.960625984251969
 30
0.0
 10
2.641763779527559
 20
-4.960625984251969
 30
0.0
 10
2.641763779527559
 20
-4.960625984251969
 30
0.0
  0
SPLINE
  5
75
330
1F
100
AcDbEntity
  8
Capa 1
370
     5
100
AcDbSpline
210
0.0
220
0.0
230
1.0
 70
    24
 71
     3
 72
     8
 73
     4
 74
     0
 42
0.0000000001
 43
0.0000000001
 40
0.0
 40
0.0
 40
0.0
 40
0.0
 40
1.0
 40
1.0
 40
1.0
 40
1.0
 10
3.297570866141732
 20
-5.118106299212599
 30
0.0
 10
3.297570866141732
 20
-5.118106299212599
 30
0.0
 10
2.641763779527559
 20
-5.118106299212599
 30
0.0
 10
2.641763779527559
 20
-5.118106299212599
 30
0.0
  0
SPLINE
  5
76
330
1F
100
AcDbEntity
  8
Capa 1
370
     5
100
AcDbSpline
210
0.0
220
0.0
230
1.0
 70
    24
 71
     3
 72
     8
 73
     4
 74
     0
 42
0.0000000001
 43
0.0000000001
 40
0.0
 40
0.0
 40
0.0
 40
0.0
 40
1.0
 40
1.0
 40
1.0
 40
1.0
 10
2.841763779527559
 20
-4.960625984251969
 30
0.0
 10
2.841763779527559
 20
-4.960625984251969
 30
0.0
 10
2.841763779527559
 20
-5.118106299212599
 30
0.0
 10
2.841763779527559
 20
-5.118106299212599
 30
0.0
  0
SPLINE
  5
77
330
1F
100
AcDbEntity
  8
Capa 1
100
AcDbSpline
210
0.0
220
0.0
230
1.0
 70
    11
 71
     3
 72
    48
 73
    44
 74
     0
 42
0.0000000001
 43
0.0000000001
 40
0.0
 40
0.0
 40
0.0
 40
0.0
 40
0.0909090909090909
 40
0.0909090909090909
 40
0.0909090909090909
 40
0.0909090909090909
 40
0.1818181818181818
 40
0.1818181818181818
 40
0.1818181818181818
 40
0.1818181818181818
 40
0.2727272727272727
 40
0.2727272727272727
 40
0.2727272727272727
 40
0.2727272727272727
 40
0.3636363636363637
 40
0.3636363636363637
 40
0.3636363636363637
 40
0.3636363636363637
 40
0.4545454545454546
 40
0.4545454545454546
 40
0.4545454545454546
 40
0.4545454545454546
 40
0.5454545454545455
 40
0.5454545454545455
 40
0.5454545454545455
 40
0.5454545454545455
 40
0.6363636363636365
 40
0.6363636363636365
 40
0.6363636363636365
 40
0.6363636363636365
 40
0.7272727272727274
 40
0.7272727272727274
 40
0.7272727272727274
 40
0.7272727272727274
 40
0.8181818181818183
 40
0.8181818181818183
 40
0.8181818181818183
 40
0.8181818181818183
 40
0.9090909090909093
 40
0.9090909090909093
 40
0.9090909090909093
 40
0.9090909090909093
 40
1.0
 40
1.0
 40
1.0
 40
1.0
 10
2.961070866141732
 20
-4.602905511811024
 30
0.0
 10
2.961070866141732
 20
-4.602905511811024
 30
0.0
 10
2.90396062992126
 20
-4.602905511811024
 30
0.0
 10
2.90396062992126
 20
-4.602905511811024
 30
0.0
 10
2.90396062992126
 20
-4.602905511811024
 30
0.0
 10
2.90396062992126
 20
-4.602905511811024
 30
0.0
 10
2.90396062992126
 20
-4.706409448818897
 30
0.0
 10
2.90396062992126
 20
-4.706409448818897
 30
0.0
 10
2.90396062992126
 20
-4.706409448818897
 30
0.0
 10
2.90396062992126
 20
-4.706409448818897
 30
0.0
 10
2.877070866141732
 20
-4.706409448818897
 30
0.0
 10
2.877070866141732
 20
-4.706409448818897
 30
0.0
 10
2.877070866141732
 20
-4.706409448818897
 30
0.0
 10
2.877070866141732
 20
-4.706409448818897
 30
0.0
 10
2.72246062992126
 20
-4.59751968503937
 30
0.0
 10
2.72246062992126
 20
-4.59751968503937
 30
0.0
 10
2.72246062992126
 20
-4.59751968503937
 30
0.0
 10
2.72246062992126
 20
-4.59751968503937
 30
0.0
 10
2.72246062992126
 20
-4.573574803149606
 30
0.0
 10
2.72246062992126
 20
-4.573574803149606
 30
0.0
 10
2.72246062992126
 20
-4.573574803149606
 30
0.0
 10
2.72246062992126
 20
-4.573574803149606
 30
0.0
 10
2.877070866141732
 20
-4.573574803149606
 30
0.0
 10
2.877070866141732
 20
-4.573574803149606
 30
0.0
 10
2.877070866141732
 20
-4.573574803149606
 30
0.0
 10
2.877070866141732
 20
-4.573574803149606
 30
0.0
 10
2.877070866141732
 20
-4.541350393700788
 30
0.0
 10
2.877070866141732
 20
-4.541350393700788
 30
0.0
 10
2.877070866141732
 20
-4.541350393700788
 30
0.0
 10
2.877070866141732
 20
-4.541350393700788
 30
0.0
 10
2.90396062992126
 20
-4.541350393700788
 30
0.0
 10
2.90396062992126
 20
-4.541350393700788
 30
0.0
 10
2.90396062992126
 20
-4.541350393700788
 30
0.0
 10
2.90396062992126
 20
-4.541350393700788
 30
0.0
 10
2.90396062992126
 20
-4.573574803149606
 30
0.0
 10
2.90396062992126
 20
-4.573574803149606
 30
0.0
 10
2.90396062992126
 20
-4.573574803149606
 30
0.0
 10
2.90396062992126
 20
-4.573574803149606
 30
0.0
 10
2.961070866141732
 20
-4.573574803149606
 30
0.0
 10
2.961070866141732
 20
-4.573574803149606
 30
0.0
 10
2.961070866141732
 20
-4.573574803149606
 30
0.0
 10
2.961070866141732
 20
-4.573574803149606
 30
0.0
 10
2.961070866141732
 20
-4.602905511811024
 30
0.0
 10
2.961070866141732
 20
-4.602905511811024
 30
0.0
  0
SPLINE
  5
78
330
1F
100
AcDbEntity
  8
Capa 1
100
AcDbSpline
210
0.0
220
0.0
230
1.0
 70
    11
 71
     3
 72
    16
 73
    12
 74
     0
 42
0.0000000001
 43
0.0000000001
 40
0.0
 40
0.0
 40
0.0
 40
0.0
 40
0.3333333333333333
 40
0.3333333333333333
 40
0.3333333333333333
 40
0.3333333333333333
 40
0.6666666666666666
 40
0.6666666666666666
 40
0.6666666666666666
 40
0.6666666666666666
 40
1.0
 40
1.0
 40
1.0
 40
1.0
 10
2.877070866141732
 20
-4.602905511811024
 30
0.0
 10
2.877070866141732
 20
-4.602905511811024
 30
0.0
 10
2.769515748031496
 20
-4.602905511811024
 30
0.0
 10
2.769515748031496
 20
-4.602905511811024
 30
0.0
 10
2.769515748031496
 20
-4.602905511811024
 30
0.0
 10
2.769515748031496
 20
-4.602905511811024
 30
0.0
 10
2.877070866141732
 20
-4.677574803149606
 30
0.0
 10
2.877070866141732
 20
-4.677574803149606
 30
0.0
 10
2.877070866141732
 20
-4.677574803149606
 30
0.0
 10
2.877070866141732
 20
-4.677574803149606
 30
0.0
 10
2.877070866141732
 20
-4.602905511811024
 30
0.0
 10
2.877070866141732
 20
-4.602905511811024
 30
0.0
  0
SPLINE
  5
79
330
1F
100
AcDbEntity
  8
Capa 1
100
AcDbSpline
210
0.0
220
0.0
230
1.0
 70
    11
 71
     3
 72
   116
 73
   112
 74
     0
 42
0.0000000001
 43
0.0000000001
 40
0.0
 40
0.0
 40
0.0
 40
0.0
 40
0.0357142857142857
 40
0.0357142857142857
 40
0.0357142857142857
 40
0.0357142857142857
 40
0.0714285714285714
 40
0.0714285714285714
 40
0.0714285714285714
 40
0.0714285714285714
 40
0.1071428571428571
 40
0.1071428571428571
 40
0.1071428571428571
 40
0.1071428571428571
 40
0.1428571428571429
 40
0.1428571428571429
 40
0.1428571428571429
 40
0.1428571428571429
 40
0.1785714285714286
 40
0.1785714285714286
 40
0.1785714285714286
 40
0.1785714285714286
 40
0.2142857142857143
 40
0.2142857142857143
 40
0.2142857142857143
 40
0.2142857142857143
 40
0.2499999999999999
 40
0.2499999999999999
 40
0.2499999999999999
 40
0.2499999999999999
 40
0.2857142857142856
 40
0.2857142857142856
 40
0.2857142857142856
 40
0.2857142857142856
 40
0.3214285714285713
 40
0.3214285714285713
 40
0.3214285714285713
 40
0.3214285714285713
 40
0.357142857142857
 40
0.357142857142857
 40
0.357142857142857
 40
0.357142857142857
 40
0.3928571428571427
 40
0.3928571428571427
 40
0.3928571428571427
 40
0.3928571428571427
 40
0.4285714285714284
 40
0.4285714285714284
 40
0.4285714285714284
 40
0.4285714285714284
 40
0.4642857142857141
 40
0.4642857142857141
 40
0.4642857142857141
 40
0.4642857142857141
 40
0.4999999999999998
 40
0.4999999999999998
 40
0.4999999999999998
 40
0.4999999999999998
 40
0.5357142857142856
 40
0.5357142857142856
 40
0.5357142857142856
 40
0.5357142857142856
 40
0.5714285714285713
 40
0.5714285714285713
 40
0.5714285714285713
 40
0.5714285714285713
 40
0.607142857142857
 40
0.607142857142857
 40
0.607142857142857
 40
0.607142857142857
 40
0.6428571428571427
 40
0.6428571428571427
 40
0.6428571428571427
 40
0.6428571428571427
 40
0.6785714285714284
 40
0.6785714285714284
 40
0.6785714285714284
 40
0.6785714285714284
 40
0.7142857142857141
 40
0.7142857142857141
 40
0.7142857142857141
 40
0.7142857142857141
 40
0.7499999999999998
 40
0.7499999999999998
 40
0.7499999999999998
 40
0.7499999999999998
 40
0.7857142857142855
 40
0.7857142857142855
 40
0.7857142857142855
 40
0.7857142857142855
 40
0.8214285714285712
 40
0.8214285714285712
 40
0.8214285714285712
 40
0.8214285714285712
 40
0.8571428571428569
 40
0.8571428571428569
 40
0.8571428571428569
 40
0.8571428571428569
 40
0.8928571428571426
 40
0.8928571428571426
 40
0.8928571428571426
 40
0.8928571428571426
 40
0.9285714285714283
 40
0.9285714285714283
 40
0.9285714285714283
 40
0.9285714285714283
 40
0.964285714285714
 40
0.964285714285714
 40
0.964285714285714
 40
0.964285714285714
 40
1.0
 40
1.0
 40
1.0
 40
1.0
 10
2.961070866141732
 20
-4.410629921259843
 30
0.0
 10
2.961070866141732
 20
-4.410629921259843
 30
0.0
 10
2.788236220472441
 20
-4.410629921259843
 30
0.0
 10
2.788236220472441
 20
-4.410629921259843
 30
0.0
 10
2.788236220472441
 20
-4.410629921259843
 30
0.0
 10
2.788236220472441
 20
-4.410629921259843
 30
0.0
 10
2.788236220472441
 20
-4.384464566929134
 30
0.0
 10
2.788236220472441
 20
-4.384464566929134
 30
0.0
 10
2.788236220472441
 20
-4.384464566929134
 30
0.0
 10
2.788236220472441
 20
-4.384464566929134
 30
0.0
 10
2.81246062992126
 20
-4.384464566929134
 30
0.0
 10
2.81246062992126
 20
-4.384464566929134
 30
0.0
 10
2.81246062992126
 20
-4.384464566929134
 30
0.0
 10
2.804015748031496
 20
-4.379019685039371
 30
0.0
 10
2.797181102362205
 20
-4.371795275590551
 30
0.0
 10
2.792070866141732
 20
-4.362795275590552
 30
0.0
 10
2.792070866141732
 20
-4.362795275590552
 30
0.0
 10
2.78690157480315
 20
-4.353795275590551
 30
0.0
 10
2.784291338582677
 20
-4.34351968503937
 30
0.0
 10
2.784291338582677
 20
-4.33201968503937
 30
0.0
 10
2.784291338582677
 20
-4.33201968503937
 30
0.0
 10
2.784291338582677
 20
-4.319240157480315
 30
0.0
 10
2.78696062992126
 20
-4.308740157480315
 30
0.0
 10
2.792291338582677
 20
-4.300574803149607
 30
0.0
 10
2.792291338582677
 20
-4.300574803149607
 30
0.0
 10
2.797625984251968
 20
-4.292350393700787
 30
0.0
 10
2.805015748031496
 20
-4.286574803149606
 30
0.0
 10
2.814570866141732
 20
-4.283240157480315
 30
0.0
 10
2.814570866141732
 20
-4.283240157480315
 30
0.0
 10
2.79440157480315
 20
-4.26951968503937
 30
0.0
 10
2.784291338582677
 20
-4.251740157480315
 30
0.0
 10
2.784291338582677
 20
-4.229850393700787
 30
0.0
 10
2.784291338582677
 20
-4.229850393700787
 30
0.0
 10
2.784291338582677
 20
-4.212685039370079
 30
0.0
 10
2.789070866141732
 20
-4.199519685039371
 30
0.0
 10
2.798570866141732
 20
-4.190295275590551
 30
0.0
 10
2.798570866141732
 20
-4.190295275590551
 30
0.0
 10
2.808070866141732
 20
-4.181074803149606
 30
0.0
 10
2.822681102362205
 20
-4.17646062992126
 30
0.0
 10
2.842405511811024
 20
-4.17646062992126
 30
0.0
 10
2.842405511811024
 20
-4.17646062992126
 30
0.0
 10
2.842405511811024
 20
-4.17646062992126
 30
0.0
 10
2.961070866141732
 20
-4.17646062992126
 30
0.0
 10
2.961070866141732
 20
-4.17646062992126
 30
0.0
 10
2.961070866141732
 20
-4.17646062992126
 30
0.0
 10
2.961070866141732
 20
-4.17646062992126
 30
0.0
 10
2.961070866141732
 20
-4.205574803149607
 30
0.0
 10
2.961070866141732
 20
-4.205574803149607
 30
0.0
 10
2.961070866141732
 20
-4.205574803149607
 30
0.0
 10
2.961070866141732
 20
-4.205574803149607
 30
0.0
 10
2.852181102362205
 20
-4.205574803149607
 30
0.0
 10
2.852181102362205
 20
-4.205574803149607
 30
0.0
 10
2.852181102362205
 20
-4.205574803149607
 30
0.0
 10
2.84046062992126
 20
-4.205574803149607
 30
0.0
 10
2.832015748031496
 20
-4.20651968503937
 30
0.0
 10
2.826846456692914
 20
-4.208405511811024
 30
0.0
 10
2.826846456692914
 20
-4.208405511811024
 30
0.0
 10
2.821736220472441
 20
-4.210350393700788
 30
0.0
 10
2.817570866141733
 20
-4.213795275590551
 30
0.0
 10
2.814405511811024
 20
-4.218740157480315
 30
0.0
 10
2.814405511811024
 20
-4.218740157480315
 30
0.0
 10
2.811291338582677
 20
-4.223740157480315
 30
0.0
 10
2.809681102362205
 20
-4.229629921259843
 30
0.0
 10
2.809681102362205
 20
-4.236350393700787
 30
0.0
 10
2.809681102362205
 20
-4.236350393700787
 30
0.0
 10
2.809681102362205
 20
-4.24851968503937
 30
0.0
 10
2.813736220472441
 20
-4.258574803149607
 30
0.0
 10
2.821846456692914
 20
-4.266629921259843
 30
0.0
 10
2.821846456692914
 20
-4.266629921259843
 30
0.0
 10
2.829905511811024
 20
-4.274629921259843
 30
0.0
 10
2.842846456692914
 20
-4.278685039370079
 30
0.0
 10
2.860625984251969
 20
-4.278685039370079
 30
0.0
 10
2.860625984251969
 20
-4.278685039370079
 30
0.0
 10
2.860625984251969
 20
-4.278685039370079
 30
0.0
 10
2.961070866141732
 20
-4.278685039370079
 30
0.0
 10
2.961070866141732
 20
-4.278685039370079
 30
0.0
 10
2.961070866141732
 20
-4.278685039370079
 30
0.0
 10
2.961070866141732
 20
-4.278685039370079
 30
0.0
 10
2.961070866141732
 20
-4.307964566929134
 30
0.0
 10
2.961070866141732
 20
-4.307964566929134
 30
0.0
 10
2.961070866141732
 20
-4.307964566929134
 30
0.0
 10
2.961070866141732
 20
-4.307964566929134
 30
0.0
 10
2.848791338582677
 20
-4.307964566929134
 30
0.0
 10
2.848791338582677
 20
-4.307964566929134
 30
0.0
 10
2.848791338582677
 20
-4.307964566929134
 30
0.0
 10
2.835736220472441
 20
-4.307964566929134
 30
0.0
 10
2.82596062992126
 20
-4.310350393700787
 30
0.0
 10
2.81946062992126
 20
-4.315129921259842
 30
0.0
 10
2.81946062992126
 20
-4.315129921259842
 30
0.0
 10
2.81296062992126
 20
-4.319905511811024
 30
0.0
 10
2.809681102362205
 20
-4.327685039370079
 30
0.0
 10
2.809681102362205
 20
-4.338574803149607
 30
0.0
 10
2.809681102362205
 20
-4.338574803149607
 30
0.0
 10
2.809681102362205
 20
-4.346795275590552
 30
0.0
 10
2.811846456692913
 20
-4.354405511811024
 30
0.0
 10
2.816236220472441
 20
-4.361405511811024
 30
0.0
 10
2.816236220472441
 20
-4.361405511811024
 30
0.0
 10
2.820570866141733
 20
-4.368405511811024
 30
0.0
 10
2.826905511811024
 20
-4.37351968503937
 30
0.0
 10
2.835236220472441
 20
-4.376629921259843
 30
0.0
 10
2.835236220472441
 20
-4.376629921259843
 30
0.0
 10
2.843625984251969
 20
-4.379795275590551
 30
0.0
 10
2.855681102362205
 20
-4.381350393700788
 30
0.0
 10
2.871405511811024
 20
-4.381350393700788
 30
0.0
 10
2.871405511811024
 20
-4.381350393700788
 30
0.0
 10
2.871405511811024
 20
-4.381350393700788
 30
0.0
 10
2.961070866141732
 20
-4.381350393700788
 30
0.0
 10
2.961070866141732
 20
-4.381350393700788
 30
0.0
 10
2.961070866141732
 20
-4.381350393700788
 30
0.0
 10
2.961070866141732
 20
-4.381350393700788
 30
0.0
 10
2.961070866141732
 20
-4.410629921259843
 30
0.0
 10
2.961070866141732
 20
-4.410629921259843
 30
0.0
  0
SPLINE
  5
7A
330
1F
100
AcDbEntity
  8
Capa 1
100
AcDbSpline
210
0.0
220
0.0
230
1.0
 70
    11
 71
     3
 72
   116
 73
   112
 74
     0
 42
0.0000000001
 43
0.0000000001
 40
0.0
 40
0.0
 40
0.0
 40
0.0
 40
0.0357142857142857
 40
0.0357142857142857
 40
0.0357142857142857
 40
0.0357142857142857
 40
0.0714285714285714
 40
0.0714285714285714
 40
0.0714285714285714
 40
0.0714285714285714
 40
0.1071428571428571
 40
0.1071428571428571
 40
0.1071428571428571
 40
0.1071428571428571
 40
0.1428571428571429
 40
0.1428571428571429
 40
0.1428571428571429
 40
0.1428571428571429
 40
0.1785714285714286
 40
0.1785714285714286
 40
0.1785714285714286
 40
0.1785714285714286
 40
0.2142857142857143
 40
0.2142857142857143
 40
0.2142857142857143
 40
0.2142857142857143
 40
0.2499999999999999
 40
0.2499999999999999
 40
0.2499999999999999
 40
0.2499999999999999
 40
0.2857142857142856
 40
0.2857142857142856
 40
0.2857142857142856
 40
0.2857142857142856
 40
0.3214285714285713
 40
0.3214285714285713
 40
0.3214285714285713
 40
0.3214285714285713
 40
0.357142857142857
 40
0.357142857142857
 40
0.357142857142857
 40
0.357142857142857
 40
0.3928571428571427
 40
0.3928571428571427
 40
0.3928571428571427
 40
0.3928571428571427
 40
0.4285714285714284
 40
0.4285714285714284
 40
0.4285714285714284
 40
0.4285714285714284
 40
0.4642857142857141
 40
0.4642857142857141
 40
0.4642857142857141
 40
0.4642857142857141
 40
0.4999999999999998
 40
0.4999999999999998
 40
0.4999999999999998
 40
0.4999999999999998
 40
0.5357142857142856
 40
0.5357142857142856
 40
0.5357142857142856
 40
0.5357142857142856
 40
0.5714285714285713
 40
0.5714285714285713
 40
0.5714285714285713
 40
0.5714285714285713
 40
0.607142857142857
 40
0.607142857142857
 40
0.607142857142857
 40
0.607142857142857
 40
0.6428571428571427
 40
0.6428571428571427
 40
0.6428571428571427
 40
0.6428571428571427
 40
0.6785714285714284
 40
0.6785714285714284
 40
0.6785714285714284
 40
0.6785714285714284
 40
0.7142857142857141
 40
0.7142857142857141
 40
0.7142857142857141
 40
0.7142857142857141
 40
0.7499999999999998
 40
0.7499999999999998
 40
0.7499999999999998
 40
0.7499999999999998
 40
0.7857142857142855
 40
0.7857142857142855
 40
0.7857142857142855
 40
0.7857142857142855
 40
0.8214285714285712
 40
0.8214285714285712
 40
0.8214285714285712
 40
0.8214285714285712
 40
0.8571428571428569
 40
0.8571428571428569
 40
0.8571428571428569
 40
0.8571428571428569
 40
0.8928571428571426
 40
0.8928571428571426
 40
0.8928571428571426
 40
0.8928571428571426
 40
0.9285714285714283
 40
0.9285714285714283
 40
0.9285714285714283
 40
0.9285714285714283
 40
0.964285714285714
 40
0.964285714285714
 40
0.964285714285714
 40
0.964285714285714
 40
1.0
 40
1.0
 40
1.0
 40
1.0
 10
2.961070866141732
 20
-4.13296062992126
 30
0.0
 10
2.961070866141732
 20
-4.13296062992126
 30
0.0
 10
2.788236220472441
 20
-4.13296062992126
 30
0.0
 10
2.788236220472441
 20
-4.13296062992126
 30
0.0
 10
2.788236220472441
 20
-4.13296062992126
 30
0.0
 10
2.788236220472441
 20
-4.13296062992126
 30
0.0
 10
2.788236220472441
 20
-4.106795275590551
 30
0.0
 10
2.788236220472441
 20
-4.106795275590551
 30
0.0
 10
2.788236220472441
 20
-4.106795275590551
 30
0.0
 10
2.788236220472441
 20
-4.106795275590551
 30
0.0
 10
2.81246062992126
 20
-4.106795275590551
 30
0.0
 10
2.81246062992126
 20
-4.106795275590551
 30
0.0
 10
2.81246062992126
 20
-4.106795275590551
 30
0.0
 10
2.804015748031496
 20
-4.101350393700788
 30
0.0
 10
2.797181102362205
 20
-4.094125984251969
 30
0.0
 10
2.792070866141732
 20
-4.085125984251969
 30
0.0
 10
2.792070866141732
 20
-4.085125984251969
 30
0.0
 10
2.78690157480315
 20
-4.076125984251969
 30
0.0
 10
2.784291338582677
 20
-4.065850393700788
 30
0.0
 10
2.784291338582677
 20
-4.054350393700788
 30
0.0
 10
2.784291338582677
 20
-4.054350393700788
 30
0.0
 10
2.784291338582677
 20
-4.041570866141733
 30
0.0
 10
2.78696062992126
 20
-4.031070866141732
 30
0.0
 10
2.792291338582677
 20
-4.022905511811024
 30
0.0
 10
2.792291338582677
 20
-4.022905511811024
 30
0.0
 10
2.797625984251968
 20
-4.014681102362204
 30
0.0
 10
2.805015748031496
 20
-4.008905511811024
 30
0.0
 10
2.814570866141732
 20
-4.005570866141732
 30
0.0
 10
2.814570866141732
 20
-4.005570866141732
 30
0.0
 10
2.79440157480315
 20
-3.991850393700787
 30
0.0
 10
2.784291338582677
 20
-3.974070866141732
 30
0.0
 10
2.784291338582677
 20
-3.952181102362205
 30
0.0
 10
2.784291338582677
 20
-3.952181102362205
 30
0.0
 10
2.784291338582677
 20
-3.935015748031496
 30
0.0
 10
2.789070866141732
 20
-3.921850393700788
 30
0.0
 10
2.798570866141732
 20
-3.912625984251969
 30
0.0
 10
2.798570866141732
 20
-3.912625984251969
 30
0.0
 10
2.808070866141732
 20
-3.903405511811024
 30
0.0
 10
2.822681102362205
 20
-3.898791338582677
 30
0.0
 10
2.842405511811024
 20
-3.898791338582677
 30
0.0
 10
2.842405511811024
 20
-3.898791338582677
 30
0.0
 10
2.842405511811024
 20
-3.898791338582677
 30
0.0
 10
2.961070866141732
 20
-3.898791338582677
 30
0.0
 10
2.961070866141732
 20
-3.898791338582677
 30
0.0
 10
2.961070866141732
 20
-3.898791338582677
 30
0.0
 10
2.961070866141732
 20
-3.898791338582677
 30
0.0
 10
2.961070866141732
 20
-3.927905511811024
 30
0.0
 10
2.961070866141732
 20
-3.927905511811024
 30
0.0
 10
2.961070866141732
 20
-3.927905511811024
 30
0.0
 10
2.961070866141732
 20
-3.927905511811024
 30
0.0
 10
2.852181102362205
 20
-3.927905511811024
 30
0.0
 10
2.852181102362205
 20
-3.927905511811024
 30
0.0
 10
2.852181102362205
 20
-3.927905511811024
 30
0.0
 10
2.84046062992126
 20
-3.927905511811024
 30
0.0
 10
2.832015748031496
 20
-3.928850393700788
 30
0.0
 10
2.826846456692914
 20
-3.930736220472441
 30
0.0
 10
2.826846456692914
 20
-3.930736220472441
 30
0.0
 10
2.821736220472441
 20
-3.932681102362205
 30
0.0
 10
2.817570866141733
 20
-3.936125984251969
 30
0.0
 10
2.814405511811024
 20
-3.941070866141732
 30
0.0
 10
2.814405511811024
 20
-3.941070866141732
 30
0.0
 10
2.811291338582677
 20
-3.946070866141732
 30
0.0
 10
2.809681102362205
 20
-3.95196062992126
 30
0.0
 10
2.809681102362205
 20
-3.958681102362205
 30
0.0
 10
2.809681102362205
 20
-3.958681102362205
 30
0.0
 10
2.809681102362205
 20
-3.970850393700788
 30
0.0
 10
2.813736220472441
 20
-3.980905511811024
 30
0.0
 10
2.821846456692914
 20
-3.98896062992126
 30
0.0
 10
2.821846456692914
 20
-3.98896062992126
 30
0.0
 10
2.829905511811024
 20
-3.99696062992126
 30
0.0
 10
2.842846456692914
 20
-4.001015748031496
 30
0.0
 10
2.860625984251969
 20
-4.001015748031496
 30
0.0
 10
2.860625984251969
 20
-4.001015748031496
 30
0.0
 10
2.860625984251969
 20
-4.001015748031496
 30
0.0
 10
2.961070866141732
 20
-4.001015748031496
 30
0.0
 10
2.961070866141732
 20
-4.001015748031496
 30
0.0
 10
2.961070866141732
 20
-4.001015748031496
 30
0.0
 10
2.961070866141732
 20
-4.001015748031496
 30
0.0
 10
2.961070866141732
 20
-4.030295275590551
 30
0.0
 10
2.961070866141732
 20
-4.030295275590551
 30
0.0
 10
2.961070866141732
 20
-4.030295275590551
 30
0.0
 10
2.961070866141732
 20
-4.030295275590551
 30
0.0
 10
2.848791338582677
 20
-4.030295275590551
 30
0.0
 10
2.848791338582677
 20
-4.030295275590551
 30
0.0
 10
2.848791338582677
 20
-4.030295275590551
 30
0.0
 10
2.835736220472441
 20
-4.030295275590551
 30
0.0
 10
2.82596062992126
 20
-4.032681102362205
 30
0.0
 10
2.81946062992126
 20
-4.03746062992126
 30
0.0
 10
2.81946062992126
 20
-4.03746062992126
 30
0.0
 10
2.81296062992126
 20
-4.042236220472441
 30
0.0
 10
2.809681102362205
 20
-4.050015748031496
 30
0.0
 10
2.809681102362205
 20
-4.060905511811024
 30
0.0
 10
2.809681102362205
 20
-4.060905511811024
 30
0.0
 10
2.809681102362205
 20
-4.069125984251969
 30
0.0
 10
2.811846456692913
 20
-4.076736220472441
 30
0.0
 10
2.816236220472441
 20
-4.083736220472441
 30
0.0
 10
2.816236220472441
 20
-4.083736220472441
 30
0.0
 10
2.820570866141733
 20
-4.090736220472441
 30
0.0
 10
2.826905511811024
 20
-4.095850393700788
 30
0.0
 10
2.835236220472441
 20
-4.09896062992126
 30
0.0
 10
2.835236220472441
 20
-4.09896062992126
 30
0.0
 10
2.843625984251969
 20
-4.102125984251969
 30
0.0
 10
2.855681102362205
 20
-4.103681102362205
 30
0.0
 10
2.871405511811024
 20
-4.103681102362205
 30
0.0
 10
2.871405511811024
 20
-4.103681102362205
 30
0.0
 10
2.871405511811024
 20
-4.103681102362205
 30
0.0
 10
2.961070866141732
 20
-4.103681102362205
 30
0.0
 10
2.961070866141732
 20
-4.103681102362205
 30
0.0
 10
2.961070866141732
 20
-4.103681102362205
 30
0.0
 10
2.961070866141732
 20
-4.103681102362205
 30
0.0
 10
2.961070866141732
 20
-4.13296062992126
 30
0.0
 10
2.961070866141732
 20
-4.13296062992126
 30
0.0
  0
SPLINE
  5
7B
330
1F
100
AcDbEntity
  8
Capa 1
370
     5
100
AcDbSpline
210
0.0
220
0.0
230
1.0
 70
     8
 71
     3
 72
    12
 73
     8
 74
     0
 42
0.0000000001
 43
0.0000000001
 40
0.0
 40
0.0
 40
0.0
 40
0.0
 40
0.5
 40
0.5
 40
0.5
 40
0.5
 40
1.0
 40
1.0
 40
1.0
 40
1.0
 10
3.32342125984252
 20
4.960629921259843
 30
0.0
 10
3.32342125984252
 20
4.960629921259843
 30
0.0
 10
2.8328031496063
 20
5.710429133858268
 30
0.0
 10
2.8328031496063
 20
5.710429133858268
 30
0.0
 10
2.8328031496063
 20
5.710429133858268
 30
0.0
 10
2.8328031496063
 20
5.710429133858268
 30
0.0
 10
1.846700787401575
 20
5.710429133858268
 30
0.0
 10
1.846700787401575
 20
5.710429133858268
 30
0.0
  0
SPLINE
  5
7C
330
1F
100
AcDbEntity
  8
Capa 1
100
AcDbSpline
210
0.0
220
0.0
230
1.0
 70
    11
 71
     3
 72
   124
 73
   120
 74
     0
 42
0.0000000001
 43
0.0000000001
 40
0.0
 40
0.0
 40
0.0
 40
0.0
 40
0.0333333333333333
 40
0.0333333333333333
 40
0.0333333333333333
 40
0.0333333333333333
 40
0.0666666666666667
 40
0.0666666666666667
 40
0.0666666666666667
 40
0.0666666666666667
 40
0.1
 40
0.1
 40
0.1
 40
0.1
 40
0.1333333333333333
 40
0.1333333333333333
 40
0.1333333333333333
 40
0.1333333333333333
 40
0.1666666666666667
 40
0.1666666666666667
 40
0.1666666666666667
 40
0.1666666666666667
 40
0.2
 40
0.2
 40
0.2
 40
0.2
 40
0.2333333333333333
 40
0.2333333333333333
 40
0.2333333333333333
 40
0.2333333333333333
 40
0.2666666666666667
 40
0.2666666666666667
 40
0.2666666666666667
 40
0.2666666666666667
 40
0.3
 40
0.3
 40
0.3
 40
0.3
 40
0.3333333333333333
 40
0.3333333333333333
 40
0.3333333333333333
 40
0.3333333333333333
 40
0.3666666666666666
 40
0.3666666666666666
 40
0.3666666666666666
 40
0.3666666666666666
 40
0.4
 40
0.4
 40
0.4
 40
0.4
 40
0.4333333333333333
 40
0.4333333333333333
 40
0.4333333333333333
 40
0.4333333333333333
 40
0.4666666666666666
 40
0.4666666666666666
 40
0.4666666666666666
 40
0.4666666666666666
 40
0.4999999999999999
 40
0.4999999999999999
 40
0.4999999999999999
 40
0.4999999999999999
 40
0.5333333333333333
 40
0.5333333333333333
 40
0.5333333333333333
 40
0.5333333333333333
 40
0.5666666666666667
 40
0.5666666666666667
 40
0.5666666666666667
 40
0.5666666666666667
 40
0.6
 40
0.6
 40
0.6
 40
0.6
 40
0.6333333333333333
 40
0.6333333333333333
 40
0.6333333333333333
 40
0.6333333333333333
 40
0.6666666666666666
 40
0.6666666666666666
 40
0.6666666666666666
 40
0.6666666666666666
 40
0.7
 40
0.7
 40
0.7
 40
0.7
 40
0.7333333333333333
 40
0.7333333333333333
 40
0.7333333333333333
 40
0.7333333333333333
 40
0.7666666666666666
 40
0.7666666666666666
 40
0.7666666666666666
 40
0.7666666666666666
 40
0.7999999999999999
 40
0.7999999999999999
 40
0.7999999999999999
 40
0.7999999999999999
 40
0.8333333333333333
 40
0.8333333333333333
 40
0.8333333333333333
 40
0.8333333333333333
 40
0.8666666666666666
 40
0.8666666666666666
 40
0.8666666666666666
 40
0.8666666666666666
 40
0.8999999999999999
 40
0.8999999999999999
 40
0.8999999999999999
 40
0.8999999999999999
 40
0.9333333333333332
 40
0.9333333333333332
 40
0.9333333333333332
 40
0.9333333333333332
 40
0.9666666666666666
 40
0.9666666666666666
 40
0.9666666666666666
 40
0.9666666666666666
 40
1.0
 40
1.0
 40
1.0
 40
1.0
 10
0.6565826771653543
 20
5.773429133858268
 30
0.0
 10
0.6565826771653543
 20
5.773429133858268
 30
0.0
 10
0.6858622047244095
 20
5.777318897637795
 30
0.0
 10
0.6858622047244095
 20
5.777318897637795
 30
0.0
 10
0.6858622047244095
 20
5.777318897637795
 30
0.0
 10
0.6892480314960631
 20
5.760708661417323
 30
0.0
 10
0.6949724409448819
 20
5.748763779527559
 30
0.0
 10
0.7030275590551182
 20
5.741429133858268
 30
0.0
 10
0.7030275590551182
 20
5.741429133858268
 30
0.0
 10
0.7111377952755906
 20
5.734094488188976
 30
0.0
 10
0.7209724409448819
 20
5.730429133858268
 30
0.0
 10
0.7325826771653544
 20
5.730429133858268
 30
0.0
 10
0.7325826771653544
 20
5.730429133858268
 30
0.0
 10
0.7463622047244095
 20
5.730429133858268
 30
0.0
 10
0.7580275590551181
 20
5.735208661417323
 30
0.0
 10
0.7675275590551182
 20
5.74476377952756
 30
0.0
 10
0.7675275590551182
 20
5.74476377952756
 30
0.0
 10
0.7769724409448819
 20
5.754318897637796
 30
0.0
 10
0.781748031496063
 20
5.766153543307087
 30
0.0
 10
0.781748031496063
 20
5.78026377952756
 30
0.0
 10
0.781748031496063
 20
5.78026377952756
 30
0.0
 10
0.781748031496063
 20
5.793708661417323
 30
0.0
 10
0.7773622047244095
 20
5.804818897637795
 30
0.0
 10
0.7685826771653543
 20
5.813539370078741
 30
0.0
 10
0.7685826771653543
 20
5.813539370078741
 30
0.0
 10
0.7597480314960631
 20
5.822263779527559
 30
0.0
 10
0.7485826771653543
 20
5.826653543307087
 30
0.0
 10
0.7350275590551182
 20
5.826653543307087
 30
0.0
 10
0.7350275590551182
 20
5.826653543307087
 30
0.0
 10
0.729472440944882
 20
5.826653543307087
 30
0.0
 10
0.7225826771653544
 20
5.82553937007874
 30
0.0
 10
0.7143622047244095
 20
5.823374015748032
 30
0.0
 10
0.7143622047244095
 20
5.823374015748032
 30
0.0
 10
0.7143622047244095
 20
5.823374015748032
 30
0.0
 10
0.7176377952755906
 20
5.849094488188976
 30
0.0
 10
0.7176377952755906
 20
5.849094488188976
 30
0.0
 10
0.7176377952755906
 20
5.849094488188976
 30
0.0
 10
0.7195826771653544
 20
5.848874015748032
 30
0.0
 10
0.7211377952755906
 20
5.848763779527559
 30
0.0
 10
0.7223622047244095
 20
5.848763779527559
 30
0.0
 10
0.7223622047244095
 20
5.848763779527559
 30
0.0
 10
0.7348070866141733
 20
5.848763779527559
 30
0.0
 10
0.7460275590551181
 20
5.852039370078741
 30
0.0
 10
0.7560275590551181
 20
5.858539370078741
 30
0.0
 10
0.7560275590551181
 20
5.858539370078741
 30
0.0
 10
0.7660275590551181
 20
5.86503937007874
 30
0.0
 10
0.7710275590551181
 20
5.875094488188976
 30
0.0
 10
0.7710275590551181
 20
5.888653543307087
 30
0.0
 10
0.7710275590551181
 20
5.888653543307087
 30
0.0
 10
0.7710275590551181
 20
5.899374015748032
 30
0.0
 10
0.7673622047244095
 20
5.908318897637796
 30
0.0
 10
0.7600826771653544
 20
5.915318897637795
 30
0.0
 10
0.7600826771653544
 20
5.915318897637795
 30
0.0
 10
0.7528070866141733
 20
5.922374015748032
 30
0.0
 10
0.7434173228346457
 20
5.925929133858268
 30
0.0
 10
0.7319173228346457
 20
5.925929133858268
 30
0.0
 10
0.7319173228346457
 20
5.925929133858268
 30
0.0
 10
0.7205275590551181
 20
5.925929133858268
 30
0.0
 10
0.7110275590551182
 20
5.922318897637796
 30
0.0
 10
0.7034724409448819
 20
5.915208661417323
 30
0.0
 10
0.7034724409448819
 20
5.915208661417323
 30
0.0
 10
0.6958622047244095
 20
5.908039370078741
 30
0.0
 10
0.6909724409448819
 20
5.89726377952756
 30
0.0
 10
0.6888031496062993
 20
5.882929133858268
 30
0.0
 10
0.6888031496062993
 20
5.882929133858268
 30
0.0
 10
0.6888031496062993
 20
5.882929133858268
 30
0.0
 10
0.6595275590551182
 20
5.888153543307086
 30
0.0
 10
0.6595275590551182
 20
5.888153543307086
 30
0.0
 10
0.6595275590551182
 20
5.888153543307086
 30
0.0
 10
0.6630826771653544
 20
5.907818897637796
 30
0.0
 10
0.6712480314960631
 20
5.92303937007874
 30
0.0
 10
0.6839173228346457
 20
5.933818897637796
 30
0.0
 10
0.6839173228346457
 20
5.933818897637796
 30
0.0
 10
0.6966377952755906
 20
5.94459842519685
 30
0.0
 10
0.7124173228346457
 20
5.95003937007874
 30
0.0
 10
0.7313070866141732
 20
5.95003937007874
 30
0.0
 10
0.7313070866141732
 20
5.95003937007874
 30
0.0
 10
0.7443070866141732
 20
5.95003937007874
 30
0.0
 10
0.7563070866141732
 20
5.947208661417323
 30
0.0
 10
0.767248031496063
 20
5.941653543307087
 30
0.0
 10
0.767248031496063
 20
5.941653543307087
 30
0.0
 10
0.7781929133858268
 20
5.93603937007874
 30
0.0
 10
0.7865826771653544
 20
5.928429133858268
 30
0.0
 10
0.7924173228346457
 20
5.918763779527559
 30
0.0
 10
0.7924173228346457
 20
5.918763779527559
 30
0.0
 10
0.7981929133858268
 20
5.90909842519685
 30
0.0
 10
0.8011377952755906
 20
5.898874015748032
 30
0.0
 10
0.8011377952755906
 20
5.887984251968504
 30
0.0
 10
0.8011377952755906
 20
5.887984251968504
 30
0.0
 10
0.8011377952755906
 20
5.877708661417323
 30
0.0
 10
0.7983622047244094
 20
5.868318897637796
 30
0.0
 10
0.7928070866141732
 20
5.859818897637796
 30
0.0
 10
0.7928070866141732
 20
5.859818897637796
 30
0.0
 10
0.787248031496063
 20
5.851374015748032
 30
0.0
 10
0.7790826771653544
 20
5.844653543307087
 30
0.0
 10
0.768248031496063
 20
5.839653543307087
 30
0.0
 10
0.768248031496063
 20
5.839653543307087
 30
0.0
 10
0.7823622047244094
 20
5.836429133858268
 30
0.0
 10
0.7933070866141733
 20
5.829653543307087
 30
0.0
 10
0.8011377952755906
 20
5.819374015748032
 30
0.0
 10
0.8011377952755906
 20
5.819374015748032
 30
0.0
 10
0.8089173228346457
 20
5.809153543307087
 30
0.0
 10
0.8128070866141732
 20
5.796318897637796
 30
0.0
 10
0.8128070866141732
 20
5.780929133858268
 30
0.0
 10
0.8128070866141732
 20
5.780929133858268
 30
0.0
 10
0.8128070866141732
 20
5.760094488188977
 30
0.0
 10
0.8052480314960631
 20
5.742429133858268
 30
0.0
 10
0.7900275590551181
 20
5.727929133858268
 30
0.0
 10
0.7900275590551181
 20
5.727929133858268
 30
0.0
 10
0.7748622047244095
 20
5.713429133858268
 30
0.0
 10
0.7556377952755906
 20
5.706208661417323
 30
0.0
 10
0.7324173228346457
 20
5.706208661417323
 30
0.0
 10
0.7324173228346457
 20
5.706208661417323
 30
0.0
 10
0.7114724409448819
 20
5.706208661417323
 30
0.0
 10
0.6940826771653543
 20
5.712429133858268
 30
0.0
 10
0.6802480314960631
 20
5.724929133858268
 30
0.0
 10
0.6802480314960631
 20
5.724929133858268
 30
0.0
 10
0.6664173228346457
 20
5.737374015748031
 30
0.0
 10
0.6585275590551182
 20
5.75353937007874
 30
0.0
 10
0.6565826771653543
 20
5.773429133858268
 30
0.0
  0
SPLINE
  5
7D
330
1F
100
AcDbEntity
  8
Capa 1
100
AcDbSpline
210
0.0
220
0.0
230
1.0
 70
    11
 71
     3
 72
    20
 73
    16
 74
     0
 42
0.0000000001
 43
0.0000000001
 40
0.0
 40
0.0
 40
0.0
 40
0.0
 40
0.25
 40
0.25
 40
0.25
 40
0.25
 40
0.5
 40
0.5
 40
0.5
 40
0.5
 40
0.75
 40
0.75
 40
0.75
 40
0.75
 40
1.0
 40
1.0
 40
1.0
 40
1.0
 10
0.858251968503937
 20
5.710429133858268
 30
0.0
 10
0.858251968503937
 20
5.710429133858268
 30
0.0
 10
0.858251968503937
 20
5.743818897637795
 30
0.0
 10
0.858251968503937
 20
5.743818897637795
 30
0.0
 10
0.858251968503937
 20
5.743818897637795
 30
0.0
 10
0.858251968503937
 20
5.743818897637795
 30
0.0
 10
0.8916377952755906
 20
5.743818897637795
 30
0.0
 10
0.8916377952755906
 20
5.743818897637795
 30
0.0
 10
0.8916377952755906
 20
5.743818897637795
 30
0.0
 10
0.8916377952755906
 20
5.743818897637795
 30
0.0
 10
0.8916377952755906
 20
5.710429133858268
 30
0.0
 10
0.8916377952755906
 20
5.710429133858268
 30
0.0
 10
0.8916377952755906
 20
5.710429133858268
 30
0.0
 10
0.8916377952755906
 20
5.710429133858268
 30
0.0
 10
0.858251968503937
 20
5.710429133858268
 30
0.0
 10
0.858251968503937
 20
5.710429133858268
 30
0.0
  0
SPLINE
  5
7E
330
1F
100
AcDbEntity
  8
Capa 1
100
AcDbSpline
210
0.0
220
0.0
230
1.0
 70
    11
 71
     3
 72
    40
 73
    36
 74
     0
 42
0.0000000001
 43
0.0000000001
 40
0.0
 40
0.0
 40
0.0
 40
0.0
 40
0.1111111111111111
 40
0.1111111111111111
 40
0.1111111111111111
 40
0.1111111111111111
 40
0.2222222222222222
 40
0.2222222222222222
 40
0.2222222222222222
 40
0.2222222222222222
 40
0.3333333333333333
 40
0.3333333333333333
 40
0.3333333333333333
 40
0.3333333333333333
 40
0.4444444444444444
 40
0.4444444444444444
 40
0.4444444444444444
 40
0.4444444444444444
 40
0.5555555555555556
 40
0.5555555555555556
 40
0.5555555555555556
 40
0.5555555555555556
 40
0.6666666666666667
 40
0.6666666666666667
 40
0.6666666666666667
 40
0.6666666666666667
 40
0.7777777777777779
 40
0.7777777777777779
 40
0.7777777777777779
 40
0.7777777777777779
 40
0.8888888888888891
 40
0.8888888888888891
 40
0.8888888888888891
 40
0.8888888888888891
 40
1.0
 40
1.0
 40
1.0
 40
1.0
 10
1.044748031496063
 20
5.710429133858268
 30
0.0
 10
1.044748031496063
 20
5.710429133858268
 30
0.0
 10
1.015472440944882
 20
5.710429133858268
 30
0.0
 10
1.015472440944882
 20
5.710429133858268
 30
0.0
 10
1.015472440944882
 20
5.710429133858268
 30
0.0
 10
1.015472440944882
 20
5.710429133858268
 30
0.0
 10
1.015472440944882
 20
5.897098425196851
 30
0.0
 10
1.015472440944882
 20
5.897098425196851
 30
0.0
 10
1.015472440944882
 20
5.897098425196851
 30
0.0
 10
1.008417322834646
 20
5.890374015748032
 30
0.0
 10
0.9991929133858268
 20
5.883653543307087
 30
0.0
 10
0.9877480314960631
 20
5.876929133858268
 30
0.0
 10
0.9877480314960631
 20
5.876929133858268
 30
0.0
 10
0.976248031496063
 20
5.870208661417323
 30
0.0
 10
0.9659724409448819
 20
5.865153543307087
 30
0.0
 10
0.9568622047244095
 20
5.861818897637796
 30
0.0
 10
0.9568622047244095
 20
5.861818897637796
 30
0.0
 10
0.9568622047244095
 20
5.861818897637796
 30
0.0
 10
0.9568622047244095
 20
5.89009842519685
 30
0.0
 10
0.9568622047244095
 20
5.89009842519685
 30
0.0
 10
0.9568622047244095
 20
5.89009842519685
 30
0.0
 10
0.973248031496063
 20
5.897818897637795
 30
0.0
 10
0.9875826771653544
 20
5.907153543307087
 30
0.0
 10
0.9998622047244095
 20
5.918098425196851
 30
0.0
 10
0.9998622047244095
 20
5.918098425196851
 30
0.0
 10
1.012082677165354
 20
5.929098425196851
 30
0.0
 10
1.020807086614173
 20
5.939708661417323
 30
0.0
 10
1.025917322834646
 20
5.95003937007874
 30
0.0
 10
1.025917322834646
 20
5.95003937007874
 30
0.0
 10
1.025917322834646
 20
5.95003937007874
 30
0.0
 10
1.044748031496063
 20
5.95003937007874
 30
0.0
 10
1.044748031496063
 20
5.95003937007874
 30
0.0
 10
1.044748031496063
 20
5.95003937007874
 30
0.0
 10
1.044748031496063
 20
5.95003937007874
 30
0.0
 10
1.044748031496063
 20
5.710429133858268
 30
0.0
 10
1.044748031496063
 20
5.710429133858268
 30
0.0
  0
SPLINE
  5
7F
330
1F
100
AcDbEntity
  8
Capa 1
100
AcDbSpline
210
0.0
220
0.0
230
1.0
 70
    11
 71
     3
 72
    48
 73
    44
 74
     0
 42
0.0000000001
 43
0.0000000001
 40
0.0
 40
0.0
 40
0.0
 40
0.0
 40
0.0909090909090909
 40
0.0909090909090909
 40
0.0909090909090909
 40
0.0909090909090909
 40
0.1818181818181818
 40
0.1818181818181818
 40
0.1818181818181818
 40
0.1818181818181818
 40
0.2727272727272727
 40
0.2727272727272727
 40
0.2727272727272727
 40
0.2727272727272727
 40
0.3636363636363637
 40
0.3636363636363637
 40
0.3636363636363637
 40
0.3636363636363637
 40
0.4545454545454546
 40
0.4545454545454546
 40
0.4545454545454546
 40
0.4545454545454546
 40
0.5454545454545455
 40
0.5454545454545455
 40
0.5454545454545455
 40
0.5454545454545455
 40
0.6363636363636365
 40
0.6363636363636365
 40
0.6363636363636365
 40
0.6363636363636365
 40
0.7272727272727274
 40
0.7272727272727274
 40
0.7272727272727274
 40
0.7272727272727274
 40
0.8181818181818183
 40
0.8181818181818183
 40
0.8181818181818183
 40
0.8181818181818183
 40
0.9090909090909093
 40
0.9090909090909093
 40
0.9090909090909093
 40
0.9090909090909093
 40
1.0
 40
1.0
 40
1.0
 40
1.0
 10
1.121751968503937
 20
5.91776377952756
 30
0.0
 10
1.121751968503937
 20
5.91776377952756
 30
0.0
 10
1.121751968503937
 20
5.945929133858268
 30
0.0
 10
1.121751968503937
 20
5.945929133858268
 30
0.0
 10
1.121751968503937
 20
5.945929133858268
 30
0.0
 10
1.121751968503937
 20
5.945929133858268
 30
0.0
 10
1.276196850393701
 20
5.945929133858268
 30
0.0
 10
1.276196850393701
 20
5.945929133858268
 30
0.0
 10
1.276196850393701
 20
5.945929133858268
 30
0.0
 10
1.276196850393701
 20
5.945929133858268
 30
0.0
 10
1.276196850393701
 20
5.923153543307087
 30
0.0
 10
1.276196850393701
 20
5.923153543307087
 30
0.0
 10
1.276196850393701
 20
5.923153543307087
 30
0.0
 10
1.261027559055118
 20
5.906984251968504
 30
0.0
 10
1.245972440944882
 20
5.885484251968504
 30
0.0
 10
1.231027559055118
 20
5.858708661417323
 30
0.0
 10
1.231027559055118
 20
5.858708661417323
 30
0.0
 10
1.216137795275591
 20
5.831929133858268
 30
0.0
 10
1.204582677165354
 20
5.804318897637796
 30
0.0
 10
1.196472440944882
 20
5.77603937007874
 30
0.0
 10
1.196472440944882
 20
5.77603937007874
 30
0.0
 10
1.190582677165355
 20
5.75603937007874
 30
0.0
 10
1.18686220472441
 20
5.734208661417323
 30
0.0
 10
1.185251968503937
 20
5.710429133858268
 30
0.0
 10
1.185251968503937
 20
5.710429133858268
 30
0.0
 10
1.185251968503937
 20
5.710429133858268
 30
0.0
 10
1.155137795275591
 20
5.710429133858268
 30
0.0
 10
1.155137795275591
 20
5.710429133858268
 30
0.0
 10
1.155137795275591
 20
5.710429133858268
 30
0.0
 10
1.155472440944882
 20
5.729208661417323
 30
0.0
 10
1.159137795275591
 20
5.751874015748032
 30
0.0
 10
1.166196850393701
 20
5.778484251968505
 30
0.0
 10
1.166196850393701
 20
5.778484251968505
 30
0.0
 10
1.173251968503937
 20
5.80503937007874
 30
0.0
 10
1.183362204724409
 20
5.830708661417323
 30
0.0
 10
1.196527559055118
 20
5.855374015748032
 30
0.0
 10
1.196527559055118
 20
5.855374015748032
 30
0.0
 10
1.209751968503937
 20
5.88003937007874
 30
0.0
 10
1.223751968503937
 20
5.900874015748031
 30
0.0
 10
1.238637795275591
 20
5.91776377952756
 30
0.0
 10
1.238637795275591
 20
5.91776377952756
 30
0.0
 10
1.238637795275591
 20
5.91776377952756
 30
0.0
 10
1.121751968503937
 20
5.91776377952756
 30
0.0
 10
1.121751968503937
 20
5.91776377952756
 30
0.0
  0
SPLINE
  5
80
330
1F
100
AcDbEntity
  8
Capa 1
100
AcDbSpline
210
0.0
220
0.0
230
1.0
 70
    11
 71
     3
 72
   116
 73
   112
 74
     0
 42
0.0000000001
 43
0.0000000001
 40
0.0
 40
0.0
 40
0.0
 40
0.0
 40
0.0357142857142857
 40
0.0357142857142857
 40
0.0357142857142857
 40
0.0357142857142857
 40
0.0714285714285714
 40
0.0714285714285714
 40
0.0714285714285714
 40
0.0714285714285714
 40
0.1071428571428571
 40
0.1071428571428571
 40
0.1071428571428571
 40
0.1071428571428571
 40
0.1428571428571429
 40
0.1428571428571429
 40
0.1428571428571429
 40
0.1428571428571429
 40
0.1785714285714286
 40
0.1785714285714286
 40
0.1785714285714286
 40
0.1785714285714286
 40
0.2142857142857143
 40
0.2142857142857143
 40
0.2142857142857143
 40
0.2142857142857143
 40
0.2499999999999999
 40
0.2499999999999999
 40
0.2499999999999999
 40
0.2499999999999999
 40
0.2857142857142856
 40
0.2857142857142856
 40
0.2857142857142856
 40
0.2857142857142856
 40
0.3214285714285713
 40
0.3214285714285713
 40
0.3214285714285713
 40
0.3214285714285713
 40
0.357142857142857
 40
0.357142857142857
 40
0.357142857142857
 40
0.357142857142857
 40
0.3928571428571427
 40
0.3928571428571427
 40
0.3928571428571427
 40
0.3928571428571427
 40
0.4285714285714284
 40
0.4285714285714284
 40
0.4285714285714284
 40
0.4285714285714284
 40
0.4642857142857141
 40
0.4642857142857141
 40
0.4642857142857141
 40
0.4642857142857141
 40
0.4999999999999998
 40
0.4999999999999998
 40
0.4999999999999998
 40
0.4999999999999998
 40
0.5357142857142856
 40
0.5357142857142856
 40
0.5357142857142856
 40
0.5357142857142856
 40
0.5714285714285713
 40
0.5714285714285713
 40
0.5714285714285713
 40
0.5714285714285713
 40
0.607142857142857
 40
0.607142857142857
 40
0.607142857142857
 40
0.607142857142857
 40
0.6428571428571427
 40
0.6428571428571427
 40
0.6428571428571427
 40
0.6428571428571427
 40
0.6785714285714284
 40
0.6785714285714284
 40
0.6785714285714284
 40
0.6785714285714284
 40
0.7142857142857141
 40
0.7142857142857141
 40
0.7142857142857141
 40
0.7142857142857141
 40
0.7499999999999998
 40
0.7499999999999998
 40
0.7499999999999998
 40
0.7499999999999998
 40
0.7857142857142855
 40
0.7857142857142855
 40
0.7857142857142855
 40
0.7857142857142855
 40
0.8214285714285712
 40
0.8214285714285712
 40
0.8214285714285712
 40
0.8214285714285712
 40
0.8571428571428569
 40
0.8571428571428569
 40
0.8571428571428569
 40
0.8571428571428569
 40
0.8928571428571426
 40
0.8928571428571426
 40
0.8928571428571426
 40
0.8928571428571426
 40
0.9285714285714283
 40
0.9285714285714283
 40
0.9285714285714283
 40
0.9285714285714283
 40
0.964285714285714
 40
0.964285714285714
 40
0.964285714285714
 40
0.964285714285714
 40
1.0
 40
1.0
 40
1.0
 40
1.0
 10
1.31336220472441
 20
5.710429133858268
 30
0.0
 10
1.31336220472441
 20
5.710429133858268
 30
0.0
 10
1.31336220472441
 20
5.883263779527559
 30
0.0
 10
1.31336220472441
 20
5.883263779527559
 30
0.0
 10
1.31336220472441
 20
5.883263779527559
 30
0.0
 10
1.31336220472441
 20
5.883263779527559
 30
0.0
 10
1.339527559055118
 20
5.883263779527559
 30
0.0
 10
1.339527559055118
 20
5.883263779527559
 30
0.0
 10
1.339527559055118
 20
5.883263779527559
 30
0.0
 10
1.339527559055118
 20
5.883263779527559
 30
0.0
 10
1.339527559055118
 20
5.85903937007874
 30
0.0
 10
1.339527559055118
 20
5.85903937007874
 30
0.0
 10
1.339527559055118
 20
5.85903937007874
 30
0.0
 10
1.344972440944882
 20
5.867484251968504
 30
0.0
 10
1.352196850393701
 20
5.874318897637796
 30
0.0
 10
1.361196850393701
 20
5.879429133858268
 30
0.0
 10
1.361196850393701
 20
5.879429133858268
 30
0.0
 10
1.370196850393701
 20
5.884598425196851
 30
0.0
 10
1.380472440944882
 20
5.887208661417323
 30
0.0
 10
1.391972440944882
 20
5.887208661417323
 30
0.0
 10
1.391972440944882
 20
5.887208661417323
 30
0.0
 10
1.404751968503937
 20
5.887208661417323
 30
0.0
 10
1.415251968503937
 20
5.88453937007874
 30
0.0
 10
1.423417322834646
 20
5.879208661417323
 30
0.0
 10
1.423417322834646
 20
5.879208661417323
 30
0.0
 10
1.431641732283465
 20
5.873874015748032
 30
0.0
 10
1.437417322834646
 20
5.866484251968505
 30
0.0
 10
1.440751968503937
 20
5.856929133858268
 30
0.0
 10
1.440751968503937
 20
5.856929133858268
 30
0.0
 10
1.454472440944882
 20
5.87709842519685
 30
0.0
 10
1.472251968503937
 20
5.887208661417323
 30
0.0
 10
1.494141732283465
 20
5.887208661417323
 30
0.0
 10
1.494141732283465
 20
5.887208661417323
 30
0.0
 10
1.511307086614173
 20
5.887208661417323
 30
0.0
 10
1.524472440944882
 20
5.882429133858268
 30
0.0
 10
1.533696850393701
 20
5.872929133858268
 30
0.0
 10
1.533696850393701
 20
5.872929133858268
 30
0.0
 10
1.542917322834646
 20
5.863429133858268
 30
0.0
 10
1.547531496062992
 20
5.848818897637796
 30
0.0
 10
1.547531496062992
 20
5.829094488188977
 30
0.0
 10
1.547531496062992
 20
5.829094488188977
 30
0.0
 10
1.547531496062992
 20
5.829094488188977
 30
0.0
 10
1.547531496062992
 20
5.710429133858268
 30
0.0
 10
1.547531496062992
 20
5.710429133858268
 30
0.0
 10
1.547531496062992
 20
5.710429133858268
 30
0.0
 10
1.547531496062992
 20
5.710429133858268
 30
0.0
 10
1.518417322834646
 20
5.710429133858268
 30
0.0
 10
1.518417322834646
 20
5.710429133858268
 30
0.0
 10
1.518417322834646
 20
5.710429133858268
 30
0.0
 10
1.518417322834646
 20
5.710429133858268
 30
0.0
 10
1.518417322834646
 20
5.819318897637795
 30
0.0
 10
1.518417322834646
 20
5.819318897637795
 30
0.0
 10
1.518417322834646
 20
5.819318897637795
 30
0.0
 10
1.518417322834646
 20
5.831039370078741
 30
0.0
 10
1.517472440944882
 20
5.839484251968504
 30
0.0
 10
1.515586614173228
 20
5.844653543307087
 30
0.0
 10
1.515586614173228
 20
5.844653543307087
 30
0.0
 10
1.513641732283465
 20
5.849763779527559
 30
0.0
 10
1.510196850393701
 20
5.853929133858268
 30
0.0
 10
1.505251968503937
 20
5.857094488188976
 30
0.0
 10
1.505251968503937
 20
5.857094488188976
 30
0.0
 10
1.500251968503937
 20
5.860208661417323
 30
0.0
 10
1.49436220472441
 20
5.861818897637796
 30
0.0
 10
1.487641732283465
 20
5.861818897637796
 30
0.0
 10
1.487641732283465
 20
5.861818897637796
 30
0.0
 10
1.475472440944882
 20
5.861818897637796
 30
0.0
 10
1.465417322834646
 20
5.857763779527559
 30
0.0
 10
1.45736220472441
 20
5.849653543307086
 30
0.0
 10
1.45736220472441
 20
5.849653543307086
 30
0.0
 10
1.44936220472441
 20
5.841594488188977
 30
0.0
 10
1.445307086614173
 20
5.828653543307087
 30
0.0
 10
1.445307086614173
 20
5.810874015748031
 30
0.0
 10
1.445307086614173
 20
5.810874015748031
 30
0.0
 10
1.445307086614173
 20
5.810874015748031
 30
0.0
 10
1.445307086614173
 20
5.710429133858268
 30
0.0
 10
1.445307086614173
 20
5.710429133858268
 30
0.0
 10
1.445307086614173
 20
5.710429133858268
 30
0.0
 10
1.445307086614173
 20
5.710429133858268
 30
0.0
 10
1.416027559055118
 20
5.710429133858268
 30
0.0
 10
1.416027559055118
 20
5.710429133858268
 30
0.0
 10
1.416027559055118
 20
5.710429133858268
 30
0.0
 10
1.416027559055118
 20
5.710429133858268
 30
0.0
 10
1.416027559055118
 20
5.822708661417323
 30
0.0
 10
1.416027559055118
 20
5.822708661417323
 30
0.0
 10
1.416027559055118
 20
5.822708661417323
 30
0.0
 10
1.416027559055118
 20
5.835763779527559
 30
0.0
 10
1.413641732283465
 20
5.845539370078741
 30
0.0
 10
1.40886220472441
 20
5.852039370078741
 30
0.0
 10
1.40886220472441
 20
5.852039370078741
 30
0.0
 10
1.404086614173228
 20
5.858539370078741
 30
0.0
 10
1.396307086614173
 20
5.861818897637796
 30
0.0
 10
1.385417322834646
 20
5.861818897637796
 30
0.0
 10
1.385417322834646
 20
5.861818897637796
 30
0.0
 10
1.377196850393701
 20
5.861818897637796
 30
0.0
 10
1.369586614173229
 20
5.859653543307087
 30
0.0
 10
1.362586614173228
 20
5.85526377952756
 30
0.0
 10
1.362586614173228
 20
5.85526377952756
 30
0.0
 10
1.355586614173229
 20
5.850929133858268
 30
0.0
 10
1.350472440944882
 20
5.844594488188976
 30
0.0
 10
1.34736220472441
 20
5.83626377952756
 30
0.0
 10
1.34736220472441
 20
5.83626377952756
 30
0.0
 10
1.344196850393701
 20
5.827874015748032
 30
0.0
 10
1.342641732283465
 20
5.815818897637795
 30
0.0
 10
1.342641732283465
 20
5.800094488188977
 30
0.0
 10
1.342641732283465
 20
5.800094488188977
 30
0.0
 10
1.342641732283465
 20
5.800094488188977
 30
0.0
 10
1.342641732283465
 20
5.710429133858268
 30
0.0
 10
1.342641732283465
 20
5.710429133858268
 30
0.0
 10
1.342641732283465
 20
5.710429133858268
 30
0.0
 10
1.342641732283465
 20
5.710429133858268
 30
0.0
 10
1.31336220472441
 20
5.710429133858268
 30
0.0
 10
1.31336220472441
 20
5.710429133858268
 30
0.0
  0
SPLINE
  5
81
330
1F
100
AcDbEntity
  8
Capa 1
100
AcDbSpline
210
0.0
220
0.0
230
1.0
 70
    11
 71
     3
 72
   116
 73
   112
 74
     0
 42
0.0000000001
 43
0.0000000001
 40
0.0
 40
0.0
 40
0.0
 40
0.0
 40
0.0357142857142857
 40
0.0357142857142857
 40
0.0357142857142857
 40
0.0357142857142857
 40
0.0714285714285714
 40
0.0714285714285714
 40
0.0714285714285714
 40
0.0714285714285714
 40
0.1071428571428571
 40
0.1071428571428571
 40
0.1071428571428571
 40
0.1071428571428571
 40
0.1428571428571429
 40
0.1428571428571429
 40
0.1428571428571429
 40
0.1428571428571429
 40
0.1785714285714286
 40
0.1785714285714286
 40
0.1785714285714286
 40
0.1785714285714286
 40
0.2142857142857143
 40
0.2142857142857143
 40
0.2142857142857143
 40
0.2142857142857143
 40
0.2499999999999999
 40
0.2499999999999999
 40
0.2499999999999999
 40
0.2499999999999999
 40
0.2857142857142856
 40
0.2857142857142856
 40
0.2857142857142856
 40
0.2857142857142856
 40
0.3214285714285713
 40
0.3214285714285713
 40
0.3214285714285713
 40
0.3214285714285713
 40
0.357142857142857
 40
0.357142857142857
 40
0.357142857142857
 40
0.357142857142857
 40
0.3928571428571427
 40
0.3928571428571427
 40
0.3928571428571427
 40
0.3928571428571427
 40
0.4285714285714284
 40
0.4285714285714284
 40
0.4285714285714284
 40
0.4285714285714284
 40
0.4642857142857141
 40
0.4642857142857141
 40
0.4642857142857141
 40
0.4642857142857141
 40
0.4999999999999998
 40
0.4999999999999998
 40
0.4999999999999998
 40
0.4999999999999998
 40
0.5357142857142856
 40
0.5357142857142856
 40
0.5357142857142856
 40
0.5357142857142856
 40
0.5714285714285713
 40
0.5714285714285713
 40
0.5714285714285713
 40
0.5714285714285713
 40
0.607142857142857
 40
0.607142857142857
 40
0.607142857142857
 40
0.607142857142857
 40
0.6428571428571427
 40
0.6428571428571427
 40
0.6428571428571427
 40
0.6428571428571427
 40
0.6785714285714284
 40
0.6785714285714284
 40
0.6785714285714284
 40
0.6785714285714284
 40
0.7142857142857141
 40
0.7142857142857141
 40
0.7142857142857141
 40
0.7142857142857141
 40
0.7499999999999998
 40
0.7499999999999998
 40
0.7499999999999998
 40
0.7499999999999998
 40
0.7857142857142855
 40
0.7857142857142855
 40
0.7857142857142855
 40
0.7857142857142855
 40
0.8214285714285712
 40
0.8214285714285712
 40
0.8214285714285712
 40
0.8214285714285712
 40
0.8571428571428569
 40
0.8571428571428569
 40
0.8571428571428569
 40
0.8571428571428569
 40
0.8928571428571426
 40
0.8928571428571426
 40
0.8928571428571426
 40
0.8928571428571426
 40
0.9285714285714283
 40
0.9285714285714283
 40
0.9285714285714283
 40
0.9285714285714283
 40
0.964285714285714
 40
0.964285714285714
 40
0.964285714285714
 40
0.964285714285714
 40
1.0
 40
1.0
 40
1.0
 40
1.0
 10
1.591031496062992
 20
5.710429133858268
 30
0.0
 10
1.591031496062992
 20
5.710429133858268
 30
0.0
 10
1.591031496062992
 20
5.883263779527559
 30
0.0
 10
1.591031496062992
 20
5.883263779527559
 30
0.0
 10
1.591031496062992
 20
5.883263779527559
 30
0.0
 10
1.591031496062992
 20
5.883263779527559
 30
0.0
 10
1.617196850393701
 20
5.883263779527559
 30
0.0
 10
1.617196850393701
 20
5.883263779527559
 30
0.0
 10
1.617196850393701
 20
5.883263779527559
 30
0.0
 10
1.617196850393701
 20
5.883263779527559
 30
0.0
 10
1.617196850393701
 20
5.85903937007874
 30
0.0
 10
1.617196850393701
 20
5.85903937007874
 30
0.0
 10
1.617196850393701
 20
5.85903937007874
 30
0.0
 10
1.622641732283465
 20
5.867484251968504
 30
0.0
 10
1.629866141732284
 20
5.874318897637796
 30
0.0
 10
1.638866141732284
 20
5.879429133858268
 30
0.0
 10
1.638866141732284
 20
5.879429133858268
 30
0.0
 10
1.647866141732284
 20
5.884598425196851
 30
0.0
 10
1.658141732283465
 20
5.887208661417323
 30
0.0
 10
1.669641732283465
 20
5.887208661417323
 30
0.0
 10
1.669641732283465
 20
5.887208661417323
 30
0.0
 10
1.68242125984252
 20
5.887208661417323
 30
0.0
 10
1.69292125984252
 20
5.88453937007874
 30
0.0
 10
1.701086614173228
 20
5.879208661417323
 30
0.0
 10
1.701086614173228
 20
5.879208661417323
 30
0.0
 10
1.709311023622047
 20
5.873874015748032
 30
0.0
 10
1.715086614173228
 20
5.866484251968505
 30
0.0
 10
1.71842125984252
 20
5.856929133858268
 30
0.0
 10
1.71842125984252
 20
5.856929133858268
 30
0.0
 10
1.732141732283465
 20
5.87709842519685
 30
0.0
 10
1.74992125984252
 20
5.887208661417323
 30
0.0
 10
1.771811023622047
 20
5.887208661417323
 30
0.0
 10
1.771811023622047
 20
5.887208661417323
 30
0.0
 10
1.788976377952756
 20
5.887208661417323
 30
0.0
 10
1.802141732283465
 20
5.882429133858268
 30
0.0
 10
1.811366141732284
 20
5.872929133858268
 30
0.0
 10
1.811366141732284
 20
5.872929133858268
 30
0.0
 10
1.820586614173228
 20
5.863429133858268
 30
0.0
 10
1.825200787401575
 20
5.848818897637796
 30
0.0
 10
1.825200787401575
 20
5.829094488188977
 30
0.0
 10
1.825200787401575
 20
5.829094488188977
 30
0.0
 10
1.825200787401575
 20
5.829094488188977
 30
0.0
 10
1.825200787401575
 20
5.710429133858268
 30
0.0
 10
1.825200787401575
 20
5.710429133858268
 30
0.0
 10
1.825200787401575
 20
5.710429133858268
 30
0.0
 10
1.825200787401575
 20
5.710429133858268
 30
0.0
 10
1.796086614173228
 20
5.710429133858268
 30
0.0
 10
1.796086614173228
 20
5.710429133858268
 30
0.0
 10
1.796086614173228
 20
5.710429133858268
 30
0.0
 10
1.796086614173228
 20
5.710429133858268
 30
0.0
 10
1.796086614173228
 20
5.819318897637795
 30
0.0
 10
1.796086614173228
 20
5.819318897637795
 30
0.0
 10
1.796086614173228
 20
5.819318897637795
 30
0.0
 10
1.796086614173228
 20
5.831039370078741
 30
0.0
 10
1.795141732283465
 20
5.839484251968504
 30
0.0
 10
1.793255905511811
 20
5.844653543307087
 30
0.0
 10
1.793255905511811
 20
5.844653543307087
 30
0.0
 10
1.791311023622047
 20
5.849763779527559
 30
0.0
 10
1.787866141732284
 20
5.853929133858268
 30
0.0
 10
1.78292125984252
 20
5.857094488188976
 30
0.0
 10
1.78292125984252
 20
5.857094488188976
 30
0.0
 10
1.77792125984252
 20
5.860208661417323
 30
0.0
 10
1.772031496062992
 20
5.861818897637796
 30
0.0
 10
1.765311023622047
 20
5.861818897637796
 30
0.0
 10
1.765311023622047
 20
5.861818897637796
 30
0.0
 10
1.753141732283465
 20
5.861818897637796
 30
0.0
 10
1.743086614173228
 20
5.857763779527559
 30
0.0
 10
1.735031496062992
 20
5.849653543307086
 30
0.0
 10
1.735031496062992
 20
5.849653543307086
 30
0.0
 10
1.727031496062992
 20
5.841594488188977
 30
0.0
 10
1.722976377952756
 20
5.828653543307087
 30
0.0
 10
1.722976377952756
 20
5.810874015748031
 30
0.0
 10
1.722976377952756
 20
5.810874015748031
 30
0.0
 10
1.722976377952756
 20
5.810874015748031
 30
0.0
 10
1.722976377952756
 20
5.710429133858268
 30
0.0
 10
1.722976377952756
 20
5.710429133858268
 30
0.0
 10
1.722976377952756
 20
5.710429133858268
 30
0.0
 10
1.722976377952756
 20
5.710429133858268
 30
0.0
 10
1.693696850393701
 20
5.710429133858268
 30
0.0
 10
1.693696850393701
 20
5.710429133858268
 30
0.0
 10
1.693696850393701
 20
5.710429133858268
 30
0.0
 10
1.693696850393701
 20
5.710429133858268
 30
0.0
 10
1.693696850393701
 20
5.822708661417323
 30
0.0
 10
1.693696850393701
 20
5.822708661417323
 30
0.0
 10
1.693696850393701
 20
5.822708661417323
 30
0.0
 10
1.693696850393701
 20
5.835763779527559
 30
0.0
 10
1.691311023622047
 20
5.845539370078741
 30
0.0
 10
1.686531496062992
 20
5.852039370078741
 30
0.0
 10
1.686531496062992
 20
5.852039370078741
 30
0.0
 10
1.681755905511811
 20
5.858539370078741
 30
0.0
 10
1.673976377952756
 20
5.861818897637796
 30
0.0
 10
1.663086614173228
 20
5.861818897637796
 30
0.0
 10
1.663086614173228
 20
5.861818897637796
 30
0.0
 10
1.654866141732284
 20
5.861818897637796
 30
0.0
 10
1.647255905511811
 20
5.859653543307087
 30
0.0
 10
1.640255905511811
 20
5.85526377952756
 30
0.0
 10
1.640255905511811
 20
5.85526377952756
 30
0.0
 10
1.633255905511811
 20
5.850929133858268
 30
0.0
 10
1.628141732283465
 20
5.844594488188976
 30
0.0
 10
1.625031496062992
 20
5.83626377952756
 30
0.0
 10
1.625031496062992
 20
5.83626377952756
 30
0.0
 10
1.621866141732284
 20
5.827874015748032
 30
0.0
 10
1.620311023622047
 20
5.815818897637795
 30
0.0
 10
1.620311023622047
 20
5.800094488188977
 30
0.0
 10
1.620311023622047
 20
5.800094488188977
 30
0.0
 10
1.620311023622047
 20
5.800094488188977
 30
0.0
 10
1.620311023622047
 20
5.710429133858268
 30
0.0
 10
1.620311023622047
 20
5.710429133858268
 30
0.0
 10
1.620311023622047
 20
5.710429133858268
 30
0.0
 10
1.620311023622047
 20
5.710429133858268
 30
0.0
 10
1.591031496062992
 20
5.710429133858268
 30
0.0
 10
1.591031496062992
 20
5.710429133858268
 30
0.0
  0
SPLINE
  5
83
330
1F
100
AcDbEntity
  8
Default
370
     5
100
AcDbSpline
210
0.0
220
0.0
230
1.0
 70
    24
 71
     3
 72
     8
 73
     4
 74
     0
 42
0.0000000001
 43
0.0000000001
 40
0.0
 40
0.0
 40
0.0
 40
0.0
 40
1.0
 40
1.0
 40
1.0
 40
1.0
 10
-3.543307086614173
 20
5.118110236220472
 30
0.0
 10
-3.543307086614173
 20
5.118110236220472
 30
0.0
 10
3.543303149606299
 20
5.118110236220472
 30
0.0
 10
3.543303149606299
 20
5.118110236220472
 30
0.0
  0
SPLINE
  5
84
330
1F
100
AcDbEntity
  8
Default
370
     5
100
AcDbSpline
210
0.0
220
0.0
230
1.0
 70
    27
 71
     3
 72
     8
 73
     4
 74
     0
 42
0.0000000001
 43
0.0000000001
 40
0.0
 40
0.0
 40
0.0
 40
0.0
 40
1.0
 40
1.0
 40
1.0
 40
1.0
 10
-3.543307086614173
 20
5.118110236220472
 30
0.0
 10
-3.543307086614173
 20
5.118110236220472
 30
0.0
 10
-3.543307086614173
 20
5.118110236220472
 30
0.0
 10
-3.543307086614173
 20
5.118110236220472
 30
0.0
  0
SPLINE
  5
85
330
1F
100
AcDbEntity
  8
Default
370
     5
100
AcDbSpline
210
0.0
220
0.0
230
1.0
 70
    24
 71
     3
 72
     8
 73
     4
 74
     0
 42
0.0000000001
 43
0.0000000001
 40
0.0
 40
0.0
 40
0.0
 40
0.0
 40
1.0
 40
1.0
 40
1.0
 40
1.0
 10
-3.543307086614173
 20
-5.118106299212599
 30
0.0
 10
-3.543307086614173
 20
-5.118106299212599
 30
0.0
 10
-3.543307086614173
 20
5.118110236220472
 30
0.0
 10
-3.543307086614173
 20
5.118110236220472
 30
0.0
  0
SPLINE
  5
86
330
1F
100
AcDbEntity
  8
Default
370
     5
100
AcDbSpline
210
0.0
220
0.0
230
1.0
 70
    24
 71
     3
 72
     8
 73
     4
 74
     0
 42
0.0000000001
 43
0.0000000001
 40
0.0
 40
0.0
 40
0.0
 40
0.0
 40
1.0
 40
1.0
 40
1.0
 40
1.0
 10
3.543303149606299
 20
-5.118106299212599
 30
0.0
 10
3.543303149606299
 20
-5.118106299212599
 30
0.0
 10
-3.543307086614173
 20
-5.118106299212599
 30
0.0
 10
-3.543307086614173
 20
-5.118106299212599
 30
0.0
  0
SPLINE
  5
87
330
1F
100
AcDbEntity
  8
Default
370
     5
100
AcDbSpline
210
0.0
220
0.0
230
1.0
 70
    27
 71
     3
 72
     8
 73
     4
 74
     0
 42
0.0000000001
 43
0.0000000001
 40
0.0
 40
0.0
 40
0.0
 40
0.0
 40
1.0
 40
1.0
 40
1.0
 40
1.0
 10
3.543303149606299
 20
5.118110236220472
 30
0.0
 10
3.543303149606299
 20
5.118110236220472
 30
0.0
 10
3.543303149606299
 20
5.118110236220472
 30
0.0
 10
3.543303149606299
 20
5.118110236220472
 30
0.0
  0
SPLINE
  5
88
330
1F
100
AcDbEntity
  8
Default
370
     5
100
AcDbSpline
210
0.0
220
0.0
230
1.0
 70
    24
 71
     3
 72
     8
 73
     4
 74
     0
 42
0.0000000001
 43
0.0000000001
 40
0.0
 40
0.0
 40
0.0
 40
0.0
 40
1.0
 40
1.0
 40
1.0
 40
1.0
 10
3.543303149606299
 20
5.118110236220472
 30
0.0
 10
3.543303149606299
 20
5.118110236220472
 30
0.0
 10
3.543303149606299
 20
-5.118106299212599
 30
0.0
 10
3.543303149606299
 20
-5.118106299212599
 30
0.0
  0
SPLINE
  5
89
330
1F
100
AcDbEntity
  8
Default
370
     5
100
AcDbSpline
210
0.0
220
0.0
230
1.0
 70
    11
 71
     3
 72
    20
 73
    16
 74
     0
 42
0.0000000001
 43
0.0000000001
 40
0.0
 40
0.0
 40
0.0
 40
0.0
 40
0.25
 40
0.25
 40
0.25
 40
0.25
 40
0.5
 40
0.5
 40
0.5
 40
0.5
 40
0.75
 40
0.75
 40
0.75
 40
0.75
 40
1.0
 40
1.0
 40
1.0
 40
1.0
 10
-3.323425196850394
 20
-4.960625984251969
 30
0.0
 10
-3.323425196850394
 20
-4.926161417322835
 30
0.0
 10
-3.351362204724409
 20
-4.898224409448819
 30
0.0
 10
-3.385826771653544
 20
-4.898224409448819
 30
0.0
 10
-3.385826771653544
 20
-4.898224409448819
 30
0.0
 10
-3.420291338582677
 20
-4.898224409448819
 30
0.0
 10
-3.448228346456693
 20
-4.926161417322835
 30
0.0
 10
-3.448228346456693
 20
-4.960625984251969
 30
0.0
 10
-3.448228346456693
 20
-4.960625984251969
 30
0.0
 10
-3.448228346456693
 20
-4.995090551181103
 30
0.0
 10
-3.420291338582677
 20
-5.023027559055119
 30
0.0
 10
-3.385826771653544
 20
-5.023027559055119
 30
0.0
 10
-3.385826771653544
 20
-5.023027559055119
 30
0.0
 10
-3.351362204724409
 20
-5.023027559055119
 30
0.0
 10
-3.323425196850394
 20
-4.995090551181103
 30
0.0
 10
-3.323425196850394
 20
-4.960625984251969
 30
0.0
  0
SPLINE
  5
8A
330
1F
100
AcDbEntity
  8
Default
370
     5
100
AcDbSpline
210
0.0
220
0.0
230
1.0
 70
    11
 71
     3
 72
    20
 73
    16
 74
     0
 42
0.0000000001
 43
0.0000000001
 40
0.0
 40
0.0
 40
0.0
 40
0.0
 40
0.25
 40
0.25
 40
0.25
 40
0.25
 40
0.5
 40
0.5
 40
0.5
 40
0.5
 40
0.75
 40
0.75
 40
0.75
 40
0.75
 40
1.0
 40
1.0
 40
1.0
 40
1.0
 10
3.448224409448819
 20
-4.960625984251969
 30
0.0
 10
3.448224409448819
 20
-4.926161417322835
 30
0.0
 10
3.420287401574803
 20
-4.898224409448819
 30
0.0
 10
3.38582283464567
 20
-4.898224409448819
 30
0.0
 10
3.38582283464567
 20
-4.898224409448819
 30
0.0
 10
3.351358267716535
 20
-4.898224409448819
 30
0.0
 10
3.32342125984252
 20
-4.926161417322835
 30
0.0
 10
3.32342125984252
 20
-4.960625984251969
 30
0.0
 10
3.32342125984252
 20
-4.960625984251969
 30
0.0
 10
3.32342125984252
 20
-4.995090551181103
 30
0.0
 10
3.351358267716535
 20
-5.023027559055119
 30
0.0
 10
3.38582283464567
 20
-5.023027559055119
 30
0.0
 10
3.38582283464567
 20
-5.023027559055119
 30
0.0
 10
3.420287401574803
 20
-5.023027559055119
 30
0.0
 10
3.448224409448819
 20
-4.995090551181103
 30
0.0
 10
3.448224409448819
 20
-4.960625984251969
 30
0.0
  0
SPLINE
  5
8B
330
1F
100
AcDbEntity
  8
Default
370
     5
100
AcDbSpline
210
0.0
220
0.0
230
1.0
 70
    11
 71
     3
 72
    20
 73
    16
 74
     0
 42
0.0000000001
 43
0.0000000001
 40
0.0
 40
0.0
 40
0.0
 40
0.0
 40
0.25
 40
0.25
 40
0.25
 40
0.25
 40
0.5
 40
0.5
 40
0.5
 40
0.5
 40
0.75
 40
0.75
 40
0.75
 40
0.75
 40
1.0
 40
1.0
 40
1.0
 40
1.0
 10
-3.323425196850394
 20
4.960629921259843
 30
0.0
 10
-3.323425196850394
 20
4.995094488188976
 30
0.0
 10
-3.351362204724409
 20
5.023031496062992
 30
0.0
 10
-3.385826771653544
 20
5.023031496062992
 30
0.0
 10
-3.385826771653544
 20
5.023031496062992
 30
0.0
 10
-3.420291338582677
 20
5.023031496062992
 30
0.0
 10
-3.448228346456693
 20
4.995094488188976
 30
0.0
 10
-3.448228346456693
 20
4.960629921259843
 30
0.0
 10
-3.448228346456693
 20
4.960629921259843
 30
0.0
 10
-3.448228346456693
 20
4.926165354330709
 30
0.0
 10
-3.420291338582677
 20
4.898228346456693
 30
0.0
 10
-3.385826771653544
 20
4.898228346456693
 30
0.0
 10
-3.385826771653544
 20
4.898228346456693
 30
0.0
 10
-3.351362204724409
 20
4.898228346456693
 30
0.0
 10
-3.323425196850394
 20
4.926165354330709
 30
0.0
 10
-3.323425196850394
 20
4.960629921259843
 30
0.0
  0
SPLINE
  5
8C
330
1F
100
AcDbEntity
  8
Default
370
     5
100
AcDbSpline
210
0.0
220
0.0
230
1.0
 70
    11
 71
     3
 72
    20
 73
    16
 74
     0
 42
0.0000000001
 43
0.0000000001
 40
0.0
 40
0.0
 40
0.0
 40
0.0
 40
0.25
 40
0.25
 40
0.25
 40
0.25
 40
0.5
 40
0.5
 40
0.5
 40
0.5
 40
0.75
 40
0.75
 40
0.75
 40
0.75
 40
1.0
 40
1.0
 40
1.0
 40
1.0
 10
3.448224409448819
 20
4.960629921259843
 30
0.0
 10
3.448224409448819
 20
4.995094488188976
 30
0.0
 10
3.420287401574803
 20
5.023031496062992
 30
0.0
 10
3.38582283464567
 20
5.023031496062992
 30
0.0
 10
3.38582283464567
 20
5.023031496062992
 30
0.0
 10
3.351358267716535
 20
5.023031496062992
 30
0.0
 10
3.32342125984252
 20
4.995094488188976
 30
0.0
 10
3.32342125984252
 20
4.960629921259843
 30
0.0
 10
3.32342125984252
 20
4.960629921259843
 30
0.0
 10
3.32342125984252
 20
4.926165354330709
 30
0.0
 10
3.351358267716535
 20
4.898228346456693
 30
0.0
 10
3.38582283464567
 20
4.898228346456693
 30
0.0
 10
3.38582283464567
 20
4.898228346456693
 30
0.0
 10
3.420287401574803
 20
4.898228346456693
 30
0.0
 10
3.448224409448819
 20
4.926165354330709
 30
0.0
 10
3.448224409448819
 20
4.960629921259843
 30
0.0
  0
ENDSEC
  0
SECTION
  2
OBJECTS
  0
DICTIONARY
  5
C
330
0
100
AcDbDictionary
281
     1
  3
ACAD_GROUP
350
D
  3
ACAD_LAYOUT
350
1A
  3
ACAD_MLINESTYLE
350
17
  3
ACAD_PLOTSETTINGS
350
19
  3
ACAD_PLOTSTYLENAME
350
E
  0
DICTIONARY
  5
D
102
{ACAD_REACTORS
330
C
102
}
330
C
100
AcDbDictionary
281
     1
  0
DICTIONARY
  5
1A
102
{ACAD_REACTORS
330
C
102
}
330
C
100
AcDbDictionary
281
     1
  3
Layout1
350
1E
  3
Layout2
350
26
  3
Model
350
22
  0
DICTIONARY
  5
17
102
{ACAD_REACTORS
330
C
102
}
330
C
100
AcDbDictionary
281
     1
  3
Standard
350
18
  0
DICTIONARY
  5
19
102
{ACAD_REACTORS
330
C
102
}
330
C
100
AcDbDictionary
281
     1
  0
ACDBDICTIONARYWDFLT
  5
E
102
{ACAD_REACTORS
330
C
102
}
330
C
100
AcDbDictionary
281
     1
  3
Normal
350
F
100
AcDbDictionaryWithDefault
340
F
  0
LAYOUT
  5
1E
102
{ACAD_REACTORS
330
1A
102
}
330
1A
100
AcDbPlotSettings
  1

  2

  4

  6

 40
0.0
 41
0.0
 42
0.0
 43
0.0
 44
0.0
 45
0.0
 46
0.0
 47
0.0
 48
0.0
 49
0.0
140
0.0
141
0.0
142
1.0
143
1.0
 70
   688
 72
     0
 73
     0
 74
     5
  7

 75
    16
 76
     0
 77
     2
 78
   300
147
1.0
148
0.0
149
0.0
100
AcDbLayout
  1
Layout1
 70
     1
 71
     1
 10
0.0
 20
0.0
 11
12.0
 21
9.0
 12
0.0
 22
0.0
 32
0.0
 14
1.000000000000000E+20
 24
1.000000000000000E+20
 34
1.000000000000000E+20
 15
-1.000000000000000E+20
 25
-1.000000000000000E+20
 35
-1.000000000000000E+20
146
0.0
 13
0.0
 23
0.0
 33
0.0
 16
1.0
 26
0.0
 36
0.0
 17
0.0
 27
1.0
 37
0.0
 76
     0
330
1B
  0
LAYOUT
  5
26
102
{ACAD_REACTORS
330
1A
102
}
330
1A
100
AcDbPlotSettings
  1

  2

  4

  6

 40
0.0
 41
0.0
 42
0.0
 43
0.0
 44
0.0
 45
0.0
 46
0.0
 47
0.0
 48
0.0
 49
0.0
140
0.0
141
0.0
142
1.0
143
1.0
 70
   688
 72
     0
 73
     0
 74
     5
  7

 75
    16
 76
     0
 77
     2
 78
   300
147
1.0
148
0.0
149
0.0
100
AcDbLayout
  1
Layout2
 70
     1
 71
     2
 10
0.0
 20
0.0
 11
0.0
 21
0.0
 12
0.0
 22
0.0
 32
0.0
 14
0.0
 24
0.0
 34
0.0
 15
0.0
 25
0.0
 35
0.0
146
0.0
 13
0.0
 23
0.0
 33
0.0
 16
1.0
 26
0.0
 36
0.0
 17
0.0
 27
1.0
 37
0.0
 76
     0
330
23
  0
LAYOUT
  5
22
102
{ACAD_REACTORS
330
1A
102
}
330
1A
100
AcDbPlotSettings
  1

  2

  4

  6

 40
0.0
 41
0.0
 42
0.0
 43
0.0
 44
0.0
 45
0.0
 46
0.0
 47
0.0
 48
0.0
 49
0.0
140
0.0
141
0.0
142
1.0
143
1.0
 70
  1712
 72
     0
 73
     0
 74
     0
  7

 75
     0
 76
     0
 77
     2
 78
   300
147
1.0
148
0.0
149
0.0
100
AcDbLayout
  1
Model
 70
     1
 71
     0
 10
0.0
 20
0.0
 11
0.0
 21
0.0
 12
0.0
 22
0.0
 32
0.0
 14
-4.693444881889763
 24
-5.119606299212599
 34
0.0
 15
4.605141732283465
 25
6.763503937007874
 35
0.0
146
0.0
 13
0.0
 23
0.0
 33
0.0
 16
1.0
 26
0.0
 36
0.0
 17
0.0
 27
1.0
 37
0.0
 76
     0
330
1F
  0
MLINESTYLE
  5
18
102
{ACAD_REACTORS
330
17
102
}
330
17
100
AcDbMlineStyle
  2
Standard
 70
     0
  3

 62
   256
 51
90.0
 52
90.0
 71
     2
 49
0.5
 62
   256
  6
BYLAYER
 49
-0.5
 62
   256
  6
BYLAYER
  0
ACDBPLACEHOLDER
  5
F
102
{ACAD_REACTORS
330
E
102
}
330
E
  0
ENDSEC
  0
EOF
