  0
SECTION
  2
HEADER
  9
$ACADVER
  1
AC1018
  9
$ACADMAINTVER
 70
     0
  9
$DWGCODEPAGE
  3
ANSI_1252
  9
$INSBASE
 10
0.0
 20
0.0
 30
0.0
  9
$EXTMIN
 10
-9.131874015748032
 20
-4.356633858267717
 30
0.0
  9
$EXTMAX
 10
8.900389763779527
 20
5.056755905511811
 30
0.0
  9
$LIMMIN
 10
0.0
 20
0.0
  9
$LIMMAX
 10
12.0
 20
9.0
  9
$ORTHOMODE
 70
     0
  9
$REGENMODE
 70
     1
  9
$FILLMODE
 70
     1
  9
$QTEXTMODE
 70
     0
  9
$MIRRTEXT
 70
     1
  9
$LTSCALE
 40
1.0
  9
$ATTMODE
 70
     1
  9
$TEXTSIZE
 40
0.2
  9
$TRACEWID
 40
0.05
  9
$TEXTSTYLE
  7
Standard
  9
$CLAYER
  8
0
  9
$CELTYPE
  6
ByLayer
  9
$CECOLOR
 62
   256
  9
$CELTSCALE
 40
1.0
  9
$DISPSILH
 70
     0
  9
$DIMSCALE
 40
1.0
  9
$DIMASZ
 40
0.18
  9
$DIMEXO
 40
0.0625
  9
$DIMDLI
 40
0.38
  9
$DIMRND
 40
0.0
  9
$DIMDLE
 40
0.0
  9
$DIMEXE
 40
0.18
  9
$DIMTP
 40
0.0
  9
$DIMTM
 40
0.0
  9
$DIMTXT
 40
0.18
  9
$DIMCEN
 40
0.09
  9
$DIMTSZ
 40
0.0
  9
$DIMTOL
 70
     0
  9
$DIMLIM
 70
     0
  9
$DIMTIH
 70
     1
  9
$DIMTOH
 70
     1
  9
$DIMSE1
 70
     0
  9
$DIMSE2
 70
     0
  9
$DIMTAD
 70
     0
  9
$DIMZIN
 70
     0
  9
$DIMBLK
  1

  9
$DIMASO
 70
     1
  9
$DIMSHO
 70
     1
  9
$DIMPOST
  1

  9
$DIMAPOST
  1

  9
$DIMALT
 70
     0
  9
$DIMALTD
 70
     2
  9
$DIMALTF
 40
25.4
  9
$DIMLFAC
 40
1.0
  9
$DIMTOFL
 70
     0
  9
$DIMTVP
 40
0.0
  9
$DIMTIX
 70
     0
  9
$DIMSOXD
 70
     0
  9
$DIMSAH
 70
     0
  9
$DIMBLK1
  1

  9
$DIMBLK2
  1

  9
$DIMSTYLE
  2
Standard
  9
$DIMCLRD
 70
     0
  9
$DIMCLRE
 70
     0
  9
$DIMCLRT
 70
     0
  9
$DIMTFAC
 40
1.0
  9
$DIMGAP
 40
0.09
  9
$DIMJUST
 70
     0
  9
$DIMSD1
 70
     0
  9
$DIMSD2
 70
     0
  9
$DIMTOLJ
 70
     1
  9
$DIMTZIN
 70
     0
  9
$DIMALTZ
 70
     0
  9
$DIMALTTZ
 70
     0
  9
$DIMUPT
 70
     0
  9
$DIMDEC
 70
     4
  9
$DIMTDEC
 70
     4
  9
$DIMALTU
 70
     2
  9
$DIMALTTD
 70
     2
  9
$DIMTXSTY
  7
Standard
  9
$DIMAUNIT
 70
     0
  9
$DIMADEC
 70
     0
  9
$DIMALTRND
 40
0.0
  9
$DIMAZIN
 70
     0
  9
$DIMDSEP
 70
    46
  9
$DIMATFIT
 70
     3
  9
$DIMFRAC
 70
     0
  9
$DIMLDRBLK
  1

  9
$DIMLUNIT
 70
     2
  9
$DIMLWD
 70
    -2
  9
$DIMLWE
 70
    -2
  9
$DIMTMOVE
 70
     0
  9
$LUNITS
 70
     2
  9
$LUPREC
 70
     4
  9
$SKETCHINC
 40
0.1
  9
$FILLETRAD
 40
0.5
  9
$AUNITS
 70
     0
  9
$AUPREC
 70
     0
  9
$MENU
  1
.
  9
$ELEVATION
 40
0.0
  9
$PELEVATION
 40
0.0
  9
$THICKNESS
 40
0.0
  9
$LIMCHECK
 70
     0
  9
$CHAMFERA
 40
0.5
  9
$CHAMFERB
 40
0.5
  9
$CHAMFERC
 40
1.0
  9
$CHAMFERD
 40
0.0
  9
$SKPOLY
 70
     0
  9
$TDCREATE
 40
2456689.353170405
  9
$TDUCREATE
 40
2456689.561503739
  9
$TDUPDATE
 40
2456689.353170417
  9
$TDUUPDATE
 40
2456689.56150375
  9
$TDINDWG
 40
0.0000000116
  9
$TDUSRTIMER
 40
0.0000000116
  9
$USRTIMER
 70
     1
  9
$ANGBASE
 50
0.0
  9
$ANGDIR
 70
     0
  9
$PDMODE
 70
     0
  9
$PDSIZE
 40
0.0
  9
$PLINEWID
 40
0.0
  9
$SPLFRAME
 70
     0
  9
$SPLINETYPE
 70
     6
  9
$SPLINESEGS
 70
     8
  9
$HANDSEED
  5
93
  9
$SURFTAB1
 70
     6
  9
$SURFTAB2
 70
     6
  9
$SURFTYPE
 70
     6
  9
$SURFU
 70
     6
  9
$SURFV
 70
     6
  9
$UCSBASE
  2

  9
$UCSNAME
  2

  9
$UCSORG
 10
0.0
 20
0.0
 30
0.0
  9
$UCSXDIR
 10
1.0
 20
0.0
 30
0.0
  9
$UCSYDIR
 10
0.0
 20
1.0
 30
0.0
  9
$UCSORTHOREF
  2

  9
$UCSORTHOVIEW
 70
     0
  9
$UCSORGTOP
 10
0.0
 20
0.0
 30
0.0
  9
$UCSORGBOTTOM
 10
0.0
 20
0.0
 30
0.0
  9
$UCSORGLEFT
 10
0.0
 20
0.0
 30
0.0
  9
$UCSORGRIGHT
 10
0.0
 20
0.0
 30
0.0
  9
$UCSORGFRONT
 10
0.0
 20
0.0
 30
0.0
  9
$UCSORGBACK
 10
0.0
 20
0.0
 30
0.0
  9
$PUCSBASE
  2

  9
$PUCSNAME
  2

  9
$PUCSORG
 10
0.0
 20
0.0
 30
0.0
  9
$PUCSXDIR
 10
1.0
 20
0.0
 30
0.0
  9
$PUCSYDIR
 10
0.0
 20
1.0
 30
0.0
  9
$PUCSORTHOREF
  2

  9
$PUCSORTHOVIEW
 70
     0
  9
$PUCSORGTOP
 10
0.0
 20
0.0
 30
0.0
  9
$PUCSORGBOTTOM
 10
0.0
 20
0.0
 30
0.0
  9
$PUCSORGLEFT
 10
0.0
 20
0.0
 30
0.0
  9
$PUCSORGRIGHT
 10
0.0
 20
0.0
 30
0.0
  9
$PUCSORGFRONT
 10
0.0
 20
0.0
 30
0.0
  9
$PUCSORGBACK
 10
0.0
 20
0.0
 30
0.0
  9
$USERI1
 70
     0
  9
$USERI2
 70
     0
  9
$USERI3
 70
     0
  9
$USERI4
 70
     0
  9
$USERI5
 70
     0
  9
$USERR1
 40
0.0
  9
$USERR2
 40
0.0
  9
$USERR3
 40
0.0
  9
$USERR4
 40
0.0
  9
$USERR5
 40
0.0
  9
$WORLDVIEW
 70
     1
  9
$SHADEDGE
 70
     3
  9
$SHADEDIF
 70
    70
  9
$TILEMODE
 70
     1
  9
$MAXACTVP
 70
    64
  9
$PINSBASE
 10
0.0
 20
0.0
 30
0.0
  9
$PLIMCHECK
 70
     0
  9
$PEXTMIN
 10
1.000000000000000E+20
 20
1.000000000000000E+20
 30
1.000000000000000E+20
  9
$PEXTMAX
 10
-1.000000000000000E+20
 20
-1.000000000000000E+20
 30
-1.000000000000000E+20
  9
$PLIMMIN
 10
0.0
 20
0.0
  9
$PLIMMAX
 10
12.0
 20
9.0
  9
$UNITMODE
 70
     0
  9
$VISRETAIN
 70
     1
  9
$PLINEGEN
 70
     0
  9
$PSLTSCALE
 70
     1
  9
$TREEDEPTH
 70
  3020
  9
$CMLSTYLE
  2
Standard
  9
$CMLJUST
 70
     0
  9
$CMLSCALE
 40
1.0
  9
$PROXYGRAPHICS
 70
     1
  9
$MEASUREMENT
 70
     0
  9
$CELWEIGHT
370
    -1
  9
$ENDCAPS
280
     0
  9
$JOINSTYLE
280
     0
  9
$LWDISPLAY
290
     0
  9
$INSUNITS
 70
     1
  9
$HYPERLINKBASE
  1

  9
$STYLESHEET
  1

  9
$XEDIT
290
     1
  9
$CEPSNTYPE
380
     0
  9
$PSTYLEMODE
290
     0
  9
$FINGERPRINTGUID
  2
{FAEB1C30-E019-11D5-929B-00C0DF256EC4}
  9
$VERSIONGUID
  2
{FAEB1C32-E019-11D5-929B-00C0DF256EC4}
  9
$EXTNAMES
290
     1
  9
$PSVPSCALE
 40
0.0
  9
$OLESTARTUP
290
     0
  9
$SORTENTS
280
   127
  9
$INDEXCTL
280
     0
  9
$HIDETEXT
280
     1
  9
$XCLIPFRAME
290
     0
  9
$HALOGAP
280
     0
  9
$OBSCOLOR
 70
   257
  9
$OBSLTYPE
280
     0
  9
$INTERSECTIONDISPLAY
280
     0
  9
$INTERSECTIONCOLOR
 70
   257
  9
$DIMASSOC
280
     2
  9
$PROJECTNAME
  1

  0
ENDSEC
  0
SECTION
  2
CLASSES
  0
CLASS
  1
ACDBDICTIONARYWDFLT
  2
AcDbDictionaryWithDefault
  3
ObjectDBX Classes
 90
        0
 91
        1
280
     0
281
     0
  0
ENDSEC
  0
SECTION
  2
TABLES
  0
TABLE
  2
VPORT
  5
8
330
0
100
AcDbSymbolTable
 70
     2
  0
VPORT
  5
29
330
8
100
AcDbSymbolTableRecord
100
AcDbViewportTableRecord
  2
*Active
 70
     0
 10
0.0
 20
0.0
 11
1.0
 21
1.0
 12
10.42990654205607
 22
4.5
 13
0.0
 23
0.0
 14
0.5
 24
0.5
 15
0.5
 25
0.5
 16
0.0
 26
0.0
 36
1.0
 17
0.0
 27
0.0
 37
0.0
 40
9.0
 41
1.972972972850329
 42
50.0
 43
0.0
 44
0.0
 50
0.0
 51
0.0
 71
     0
 72
   100
 73
     1
 74
     3
 75
     0
 76
     0
 77
     0
 78
     0
281
     0
 65
     1
110
0.0
120
0.0
130
0.0
111
1.0
121
0.0
131
0.0
112
0.0
122
1.0
132
0.0
 79
     0
146
0.0
  0
ENDTAB
  0
TABLE
  2
LTYPE
  5
5
330
0
100
AcDbSymbolTable
 70
     1
  0
LTYPE
  5
14
330
5
100
AcDbSymbolTableRecord
100
AcDbLinetypeTableRecord
  2
ByBlock
 70
     0
  3

 72
    65
 73
     0
 40
0.0
  0
LTYPE
  5
15
330
5
100
AcDbSymbolTableRecord
100
AcDbLinetypeTableRecord
  2
ByLayer
 70
     0
  3

 72
    65
 73
     0
 40
0.0
  0
LTYPE
  5
16
330
5
100
AcDbSymbolTableRecord
100
AcDbLinetypeTableRecord
  2
Continuous
 70
     0
  3
Solid line
 72
    65
 73
     0
 40
0.0
  0
ENDTAB
  0
TABLE
  2
LAYER
  5
2
330
0
100
AcDbSymbolTable
 70
     2
  0
LAYER
  5
10
330
2
100
AcDbSymbolTableRecord
100
AcDbLayerTableRecord
  2
0
 70
     0
 62
     7
  6
Continuous
370
    -3
390
F
  0
LAYER
  5
2B
330
2
100
AcDbSymbolTableRecord
100
AcDbLayerTableRecord
  2
Capa 1
 70
     0
 62
     7
  6
Continuous
370
    -3
390
F
  0
ENDTAB
  0
TABLE
  2
STYLE
  5
3
330
0
100
AcDbSymbolTable
 70
     1
  0
STYLE
  5
11
330
3
100
AcDbSymbolTableRecord
100
AcDbTextStyleTableRecord
  2
Standard
 70
     0
 40
0.0
 41
1.0
 50
0.0
 71
     0
 42
0.2
  3
txt
  4

  0
ENDTAB
  0
TABLE
  2
VIEW
  5
6
330
0
100
AcDbSymbolTable
 70
     0
  0
ENDTAB
  0
TABLE
  2
UCS
  5
7
330
0
100
AcDbSymbolTable
 70
     0
  0
ENDTAB
  0
TABLE
  2
APPID
  5
9
330
0
100
AcDbSymbolTable
 70
     2
  0
APPID
  5
12
330
9
100
AcDbSymbolTableRecord
100
AcDbRegAppTableRecord
  2
ACAD
 70
     0
  0
APPID
  5
2A
330
9
100
AcDbSymbolTableRecord
100
AcDbRegAppTableRecord
  2
ODA
 70
     0
  0
ENDTAB
  0
TABLE
  2
DIMSTYLE
  5
A
330
0
100
AcDbSymbolTable
 70
     1
100
AcDbDimStyleTable
  0
DIMSTYLE
105
27
330
A
100
AcDbSymbolTableRecord
100
AcDbDimStyleTableRecord
  2
Standard
 70
     0
340
11
  0
ENDTAB
  0
TABLE
  2
BLOCK_RECORD
  5
1
330
0
100
AcDbSymbolTable
 70
     1
  0
BLOCK_RECORD
  5
1F
330
1
100
AcDbSymbolTableRecord
100
AcDbBlockTableRecord
  2
*Model_Space
340
22
  0
BLOCK_RECORD
  5
1B
330
1
100
AcDbSymbolTableRecord
100
AcDbBlockTableRecord
  2
*Paper_Space
340
1E
  0
BLOCK_RECORD
  5
23
330
1
100
AcDbSymbolTableRecord
100
AcDbBlockTableRecord
  2
*Paper_Space0
340
26
  0
ENDTAB
  0
ENDSEC
  0
SECTION
  2
BLOCKS
  0
BLOCK
  5
20
330
1F
100
AcDbEntity
  8
0
100
AcDbBlockBegin
  2
*Model_Space
 70
     0
 71
     0
 10
0.0
 20
0.0
 30
0.0
  3
*Model_Space
  1

  0
ENDBLK
  5
21
330
1F
100
AcDbEntity
  8
0
100
AcDbBlockEnd
  0
BLOCK
  5
1C
330
1B
100
AcDbEntity
 67
     1
  8
0
100
AcDbBlockBegin
  2
*Paper_Space
 70
     0
 71
     0
 10
0.0
 20
0.0
 30
0.0
  3
*Paper_Space
  1

  0
ENDBLK
  5
1D
330
1B
100
AcDbEntity
 67
     1
  8
0
100
AcDbBlockEnd
  0
BLOCK
  5
24
330
23
100
AcDbEntity
  8
0
100
AcDbBlockBegin
  2
*Paper_Space0
 70
     0
 71
     0
 10
0.0
 20
0.0
 30
0.0
  3
*Paper_Space0
  1

  0
ENDBLK
  5
25
330
23
100
AcDbEntity
  8
0
100
AcDbBlockEnd
  0
ENDSEC
  0
SECTION
  2
ENTITIES
  0
SPLINE
  5
2C
330
1F
100
AcDbEntity
  8
Capa 1
 62
   250
370
     5
100
AcDbSpline
210
0.0
220
0.0
230
1.0
 70
    11
 71
     3
 72
    52
 73
    48
 74
     0
 42
0.0000000001
 43
0.0000000001
 40
0.0
 40
0.0
 40
0.0
 40
0.0
 40
0.0833333333333333
 40
0.0833333333333333
 40
0.0833333333333333
 40
0.0833333333333333
 40
0.1666666666666667
 40
0.1666666666666667
 40
0.1666666666666667
 40
0.1666666666666667
 40
0.25
 40
0.25
 40
0.25
 40
0.25
 40
0.3333333333333333
 40
0.3333333333333333
 40
0.3333333333333333
 40
0.3333333333333333
 40
0.4166666666666666
 40
0.4166666666666666
 40
0.4166666666666666
 40
0.4166666666666666
 40
0.4999999999999999
 40
0.4999999999999999
 40
0.4999999999999999
 40
0.4999999999999999
 40
0.5833333333333333
 40
0.5833333333333333
 40
0.5833333333333333
 40
0.5833333333333333
 40
0.6666666666666666
 40
0.6666666666666666
 40
0.6666666666666666
 40
0.6666666666666666
 40
0.75
 40
0.75
 40
0.75
 40
0.75
 40
0.8333333333333334
 40
0.8333333333333334
 40
0.8333333333333334
 40
0.8333333333333334
 40
0.9166666666666667
 40
0.9166666666666667
 40
0.9166666666666667
 40
0.9166666666666667
 40
1.0
 40
1.0
 40
1.0
 40
1.0
 10
-7.342515748031496
 20
-2.460625984251969
 30
0.0
 10
-7.342515748031496
 20
-2.460625984251969
 30
0.0
 10
7.34251968503937
 20
-2.460625984251969
 30
0.0
 10
7.34251968503937
 20
-2.460625984251969
 30
0.0
 10
7.34251968503937
 20
-2.460625984251969
 30
0.0
 10
7.36340157480315
 20
-2.460625984251969
 30
0.0
 10
7.383429133858268
 20
-2.452326771653544
 30
0.0
 10
7.398196850393701
 20
-2.437562992125984
 30
0.0
 10
7.398196850393701
 20
-2.437562992125984
 30
0.0
 10
7.412964566929134
 20
-2.422795275590551
 30
0.0
 10
7.421259842519685
 20
-2.402767716535433
 30
0.0
 10
7.421259842519685
 20
-2.381885826771654
 30
0.0
 10
7.421259842519685
 20
-2.381885826771654
 30
0.0
 10
7.421259842519685
 20
-2.381885826771654
 30
0.0
 10
7.421259842519685
 20
2.381889763779528
 30
0.0
 10
7.421259842519685
 20
2.381889763779528
 30
0.0
 10
7.421259842519685
 20
2.381889763779528
 30
0.0
 10
7.421259842519685
 20
2.402775590551181
 30
0.0
 10
7.412964566929134
 20
2.422803149606299
 30
0.0
 10
7.398196850393701
 20
2.437570866141733
 30
0.0
 10
7.398196850393701
 20
2.437570866141733
 30
0.0
 10
7.383429133858268
 20
2.452334645669291
 30
0.0
 10
7.36340157480315
 20
2.460629921259843
 30
0.0
 10
7.34251968503937
 20
2.460629921259843
 30
0.0
 10
7.34251968503937
 20
2.460629921259843
 30
0.0
 10
7.34251968503937
 20
2.460629921259843
 30
0.0
 10
-7.342515748031496
 20
2.460629921259843
 30
0.0
 10
-7.342515748031496
 20
2.460629921259843
 30
0.0
 10
-7.342515748031496
 20
2.460629921259843
 30
0.0
 10
-7.363397637795276
 20
2.460629921259843
 30
0.0
 10
-7.383425196850394
 20
2.452334645669291
 30
0.0
 10
-7.398192913385827
 20
2.437570866141733
 30
0.0
 10
-7.398192913385827
 20
2.437570866141733
 30
0.0
 10
-7.41296062992126
 20
2.422803149606299
 30
0.0
 10
-7.421255905511812
 20
2.402775590551181
 30
0.0
 10
-7.421255905511812
 20
2.381889763779528
 30
0.0
 10
-7.421255905511812
 20
2.381889763779528
 30
0.0
 10
-7.421255905511812
 20
2.381889763779528
 30
0.0
 10
-7.421255905511812
 20
-2.381885826771654
 30
0.0
 10
-7.421255905511812
 20
-2.381885826771654
 30
0.0
 10
-7.421255905511812
 20
-2.381885826771654
 30
0.0
 10
-7.421255905511812
 20
-2.402767716535433
 30
0.0
 10
-7.41296062992126
 20
-2.422795275590551
 30
0.0
 10
-7.398192913385827
 20
-2.437562992125984
 30
0.0
 10
-7.398192913385827
 20
-2.437562992125984
 30
0.0
 10
-7.383425196850394
 20
-2.452326771653544
 30
0.0
 10
-7.363397637795276
 20
-2.460625984251969
 30
0.0
 10
-7.342515748031496
 20
-2.460625984251969
 30
0.0
  0
SPLINE
  5
2D
330
1F
100
AcDbEntity
  8
Capa 1
 62
   250
370
     5
100
AcDbSpline
210
0.0
220
0.0
230
1.0
 70
    11
 71
     3
 72
    20
 73
    16
 74
     0
 42
0.0000000001
 43
0.0000000001
 40
0.0
 40
0.0
 40
0.0
 40
0.0
 40
0.25
 40
0.25
 40
0.25
 40
0.25
 40
0.5
 40
0.5
 40
0.5
 40
0.5
 40
0.75
 40
0.75
 40
0.75
 40
0.75
 40
1.0
 40
1.0
 40
1.0
 40
1.0
 10
-5.905507874015748
 20
2.106291338582677
 30
0.0
 10
-5.862023622047245
 20
2.106291338582677
 30
0.0
 10
-5.826767716535433
 20
2.141543307086614
 30
0.0
 10
-5.826767716535433
 20
2.185031496062992
 30
0.0
 10
-5.826767716535433
 20
2.185031496062992
 30
0.0
 10
-5.826767716535433
 20
2.22851968503937
 30
0.0
 10
-5.86201968503937
 20
2.263771653543307
 30
0.0
 10
-5.905507874015748
 20
2.263771653543307
 30
0.0
 10
-5.905507874015748
 20
2.263771653543307
 30
0.0
 10
-5.948996062992126
 20
2.263771653543307
 30
0.0
 10
-5.984248031496064
 20
2.22851968503937
 30
0.0
 10
-5.984248031496064
 20
2.185031496062992
 30
0.0
 10
-5.984248031496064
 20
2.185031496062992
 30
0.0
 10
-5.984248031496064
 20
2.141547244094488
 30
0.0
 10
-5.948996062992126
 20
2.106291338582677
 30
0.0
 10
-5.905507874015748
 20
2.106291338582677
 30
0.0
  0
SPLINE
  5
2E
330
1F
100
AcDbEntity
  8
Capa 1
 62
   250
370
     5
100
AcDbSpline
210
0.0
220
0.0
230
1.0
 70
    11
 71
     3
 72
    20
 73
    16
 74
     0
 42
0.0000000001
 43
0.0000000001
 40
0.0
 40
0.0
 40
0.0
 40
0.0
 40
0.25
 40
0.25
 40
0.25
 40
0.25
 40
0.5
 40
0.5
 40
0.5
 40
0.5
 40
0.75
 40
0.75
 40
0.75
 40
0.75
 40
1.0
 40
1.0
 40
1.0
 40
1.0
 10
-0.0787362204724409
 20
2.185031496062992
 30
0.0
 10
-0.0787362204724409
 20
2.141547244094488
 30
0.0
 10
-0.0434842519685039
 20
2.106291338582677
 30
0.0
 10
0.000003937007874
 20
2.106291338582677
 30
0.0
 10
0.000003937007874
 20
2.106291338582677
 30
0.0
 10
0.043488188976378
 20
2.106291338582677
 30
0.0
 10
0.078744094488189
 20
2.141543307086614
 30
0.0
 10
0.078744094488189
 20
2.185031496062992
 30
0.0
 10
0.078744094488189
 20
2.185031496062992
 30
0.0
 10
0.078744094488189
 20
2.22851968503937
 30
0.0
 10
0.043492125984252
 20
2.263771653543307
 30
0.0
 10
0.000003937007874
 20
2.263771653543307
 30
0.0
 10
0.000003937007874
 20
2.263771653543307
 30
0.0
 10
-0.0434842519685039
 20
2.263771653543307
 30
0.0
 10
-0.0787362204724409
 20
2.22851968503937
 30
0.0
 10
-0.0787362204724409
 20
2.185031496062992
 30
0.0
  0
SPLINE
  5
2F
330
1F
100
AcDbEntity
  8
Capa 1
 62
   250
370
     5
100
AcDbSpline
210
0.0
220
0.0
230
1.0
 70
    11
 71
     3
 72
    20
 73
    16
 74
     0
 42
0.0000000001
 43
0.0000000001
 40
0.0
 40
0.0
 40
0.0
 40
0.0
 40
0.25
 40
0.25
 40
0.25
 40
0.25
 40
0.5
 40
0.5
 40
0.5
 40
0.5
 40
0.75
 40
0.75
 40
0.75
 40
0.75
 40
1.0
 40
1.0
 40
1.0
 40
1.0
 10
-5.905507874015748
 20
-2.106303149606299
 30
0.0
 10
-5.948996062992126
 20
-2.106303149606299
 30
0.0
 10
-5.984248031496064
 20
-2.141555118110236
 30
0.0
 10
-5.984248031496064
 20
-2.185043307086614
 30
0.0
 10
-5.984248031496064
 20
-2.185043307086614
 30
0.0
 10
-5.984248031496064
 20
-2.228527559055118
 30
0.0
 10
-5.948996062992126
 20
-2.263783464566929
 30
0.0
 10
-5.905507874015748
 20
-2.263783464566929
 30
0.0
 10
-5.905507874015748
 20
-2.263783464566929
 30
0.0
 10
-5.862023622047245
 20
-2.263783464566929
 30
0.0
 10
-5.826767716535433
 20
-2.228531496062992
 30
0.0
 10
-5.826767716535433
 20
-2.185043307086614
 30
0.0
 10
-5.826767716535433
 20
-2.185043307086614
 30
0.0
 10
-5.826767716535433
 20
-2.141555118110236
 30
0.0
 10
-5.86201968503937
 20
-2.106303149606299
 30
0.0
 10
-5.905507874015748
 20
-2.106303149606299
 30
0.0
  0
SPLINE
  5
30
330
1F
100
AcDbEntity
  8
Capa 1
 62
   250
370
     5
100
AcDbSpline
210
0.0
220
0.0
230
1.0
 70
    11
 71
     3
 72
    20
 73
    16
 74
     0
 42
0.0000000001
 43
0.0000000001
 40
0.0
 40
0.0
 40
0.0
 40
0.0
 40
0.25
 40
0.25
 40
0.25
 40
0.25
 40
0.5
 40
0.5
 40
0.5
 40
0.5
 40
0.75
 40
0.75
 40
0.75
 40
0.75
 40
1.0
 40
1.0
 40
1.0
 40
1.0
 10
0.000003937007874
 20
-2.106303149606299
 30
0.0
 10
-0.0434842519685039
 20
-2.106303149606299
 30
0.0
 10
-0.0787362204724409
 20
-2.141555118110236
 30
0.0
 10
-0.0787362204724409
 20
-2.185043307086614
 30
0.0
 10
-0.0787362204724409
 20
-2.185043307086614
 30
0.0
 10
-0.0787362204724409
 20
-2.228527559055118
 30
0.0
 10
-0.0434842519685039
 20
-2.263783464566929
 30
0.0
 10
0.000003937007874
 20
-2.263783464566929
 30
0.0
 10
0.000003937007874
 20
-2.263783464566929
 30
0.0
 10
0.043488188976378
 20
-2.263783464566929
 30
0.0
 10
0.078744094488189
 20
-2.228531496062992
 30
0.0
 10
0.078744094488189
 20
-2.185043307086614
 30
0.0
 10
0.078744094488189
 20
-2.185043307086614
 30
0.0
 10
0.078744094488189
 20
-2.141555118110236
 30
0.0
 10
0.043492125984252
 20
-2.106303149606299
 30
0.0
 10
0.000003937007874
 20
-2.106303149606299
 30
0.0
  0
SPLINE
  5
31
330
1F
100
AcDbEntity
  8
Capa 1
 62
   250
370
     5
100
AcDbSpline
210
0.0
220
0.0
230
1.0
 70
    11
 71
     3
 72
    20
 73
    16
 74
     0
 42
0.0000000001
 43
0.0000000001
 40
0.0
 40
0.0
 40
0.0
 40
0.0
 40
0.25
 40
0.25
 40
0.25
 40
0.25
 40
0.5
 40
0.5
 40
0.5
 40
0.5
 40
0.75
 40
0.75
 40
0.75
 40
0.75
 40
1.0
 40
1.0
 40
1.0
 40
1.0
 10
5.905511811023622
 20
2.263771653543307
 30
0.0
 10
5.862023622047245
 20
2.263771653543307
 30
0.0
 10
5.826771653543307
 20
2.22851968503937
 30
0.0
 10
5.826771653543307
 20
2.185031496062992
 30
0.0
 10
5.826771653543307
 20
2.185031496062992
 30
0.0
 10
5.826771653543307
 20
2.141547244094488
 30
0.0
 10
5.862023622047245
 20
2.106291338582677
 30
0.0
 10
5.905511811023622
 20
2.106291338582677
 30
0.0
 10
5.905511811023622
 20
2.106291338582677
 30
0.0
 10
5.948996062992126
 20
2.106291338582677
 30
0.0
 10
5.984251968503937
 20
2.141543307086614
 30
0.0
 10
5.984251968503937
 20
2.185031496062992
 30
0.0
 10
5.984251968503937
 20
2.185031496062992
 30
0.0
 10
5.984251968503937
 20
2.22851968503937
 30
0.0
 10
5.949
 20
2.263771653543307
 30
0.0
 10
5.905511811023622
 20
2.263771653543307
 30
0.0
  0
SPLINE
  5
32
330
1F
100
AcDbEntity
  8
Capa 1
 62
   250
370
     5
100
AcDbSpline
210
0.0
220
0.0
230
1.0
 70
    11
 71
     3
 72
    20
 73
    16
 74
     0
 42
0.0000000001
 43
0.0000000001
 40
0.0
 40
0.0
 40
0.0
 40
0.0
 40
0.25
 40
0.25
 40
0.25
 40
0.25
 40
0.5
 40
0.5
 40
0.5
 40
0.5
 40
0.75
 40
0.75
 40
0.75
 40
0.75
 40
1.0
 40
1.0
 40
1.0
 40
1.0
 10
5.905511811023622
 20
-2.106303149606299
 30
0.0
 10
5.862023622047245
 20
-2.106303149606299
 30
0.0
 10
5.826771653543307
 20
-2.141555118110236
 30
0.0
 10
5.826771653543307
 20
-2.185043307086614
 30
0.0
 10
5.826771653543307
 20
-2.185043307086614
 30
0.0
 10
5.826771653543307
 20
-2.228527559055118
 30
0.0
 10
5.862023622047245
 20
-2.263783464566929
 30
0.0
 10
5.905511811023622
 20
-2.263783464566929
 30
0.0
 10
5.905511811023622
 20
-2.263783464566929
 30
0.0
 10
5.948996062992126
 20
-2.263783464566929
 30
0.0
 10
5.984251968503937
 20
-2.228531496062992
 30
0.0
 10
5.984251968503937
 20
-2.185043307086614
 30
0.0
 10
5.984251968503937
 20
-2.185043307086614
 30
0.0
 10
5.984251968503937
 20
-2.141555118110236
 30
0.0
 10
5.949
 20
-2.106303149606299
 30
0.0
 10
5.905511811023622
 20
-2.106303149606299
 30
0.0
  0
SPLINE
  5
33
330
1F
100
AcDbEntity
  8
Capa 1
 62
   250
370
     5
100
AcDbSpline
210
0.0
220
0.0
230
1.0
 70
    24
 71
     3
 72
     8
 73
     4
 74
     0
 42
0.0000000001
 43
0.0000000001
 40
0.0
 40
0.0
 40
0.0
 40
0.0
 40
1.0
 40
1.0
 40
1.0
 40
1.0
 10
-6.749448818897638
 20
2.460629921259843
 30
0.0
 10
-6.749448818897638
 20
2.460629921259843
 30
0.0
 10
-8.289929133858268
 20
2.460629921259843
 30
0.0
 10
-8.289929133858268
 20
2.460629921259843
 30
0.0
  0
SPLINE
  5
34
330
1F
100
AcDbEntity
  8
Capa 1
 62
   250
370
     5
100
AcDbSpline
210
0.0
220
0.0
230
1.0
 70
    24
 71
     3
 72
     8
 73
     4
 74
     0
 42
0.0000000001
 43
0.0000000001
 40
0.0
 40
0.0
 40
0.0
 40
0.0
 40
1.0
 40
1.0
 40
1.0
 40
1.0
 10
-6.588944881889765
 20
-2.460625984251969
 30
0.0
 10
-6.588944881889765
 20
-2.460625984251969
 30
0.0
 10
-8.289929133858268
 20
-2.460625984251969
 30
0.0
 10
-8.289929133858268
 20
-2.460625984251969
 30
0.0
  0
SPLINE
  5
35
330
1F
100
AcDbEntity
  8
Capa 1
 62
   250
370
     5
100
AcDbSpline
210
0.0
220
0.0
230
1.0
 70
    24
 71
     3
 72
     8
 73
     4
 74
     0
 42
0.0000000001
 43
0.0000000001
 40
0.0
 40
0.0
 40
0.0
 40
0.0
 40
1.0
 40
1.0
 40
1.0
 40
1.0
 10
-8.089929133858268
 20
2.460629921259843
 30
0.0
 10
-8.089929133858268
 20
2.460629921259843
 30
0.0
 10
-8.089929133858268
 20
-2.460625984251969
 30
0.0
 10
-8.089929133858268
 20
-2.460625984251969
 30
0.0
  0
SPLINE
  5
36
330
1F
100
AcDbEntity
  8
Capa 1
 62
   250
100
AcDbSpline
210
0.0
220
0.0
230
1.0
 70
    11
 71
     3
 72
    40
 73
    36
 74
     0
 42
0.0000000001
 43
0.0000000001
 40
0.0
 40
0.0
 40
0.0
 40
0.0
 40
0.1111111111111111
 40
0.1111111111111111
 40
0.1111111111111111
 40
0.1111111111111111
 40
0.2222222222222222
 40
0.2222222222222222
 40
0.2222222222222222
 40
0.2222222222222222
 40
0.3333333333333333
 40
0.3333333333333333
 40
0.3333333333333333
 40
0.3333333333333333
 40
0.4444444444444444
 40
0.4444444444444444
 40
0.4444444444444444
 40
0.4444444444444444
 40
0.5555555555555556
 40
0.5555555555555556
 40
0.5555555555555556
 40
0.5555555555555556
 40
0.6666666666666667
 40
0.6666666666666667
 40
0.6666666666666667
 40
0.6666666666666667
 40
0.7777777777777779
 40
0.7777777777777779
 40
0.7777777777777779
 40
0.7777777777777779
 40
0.8888888888888891
 40
0.8888888888888891
 40
0.8888888888888891
 40
0.8888888888888891
 40
1.0
 40
1.0
 40
1.0
 40
1.0
 10
-7.972153543307087
 20
-4.232468503937009
 30
0.0
 10
-7.972153543307087
 20
-4.232468503937009
 30
0.0
 10
-7.972153543307087
 20
-4.261744094488189
 30
0.0
 10
-7.972153543307087
 20
-4.261744094488189
 30
0.0
 10
-7.972153543307087
 20
-4.261744094488189
 30
0.0
 10
-7.972153543307087
 20
-4.261744094488189
 30
0.0
 10
-8.158822834645669
 20
-4.261744094488189
 30
0.0
 10
-8.158822834645669
 20
-4.261744094488189
 30
0.0
 10
-8.158822834645669
 20
-4.261744094488189
 30
0.0
 10
-8.152098425196851
 20
-4.268799212598426
 30
0.0
 10
-8.145377952755906
 20
-4.278023622047244
 30
0.0
 10
-8.138653543307086
 20
-4.289468503937008
 30
0.0
 10
-8.138653543307086
 20
-4.289468503937008
 30
0.0
 10
-8.131933070866142
 20
-4.300968503937008
 30
0.0
 10
-8.126877952755907
 20
-4.311244094488189
 30
0.0
 10
-8.123543307086614
 20
-4.320354330708661
 30
0.0
 10
-8.123543307086614
 20
-4.320354330708661
 30
0.0
 10
-8.123543307086614
 20
-4.320354330708661
 30
0.0
 10
-8.151822834645669
 20
-4.320354330708661
 30
0.0
 10
-8.151822834645669
 20
-4.320354330708661
 30
0.0
 10
-8.151822834645669
 20
-4.320354330708661
 30
0.0
 10
-8.159543307086615
 20
-4.303968503937008
 30
0.0
 10
-8.168877952755906
 20
-4.289633858267717
 30
0.0
 10
-8.17982283464567
 20
-4.277354330708661
 30
0.0
 10
-8.17982283464567
 20
-4.277354330708661
 30
0.0
 10
-8.190822834645669
 20
-4.265133858267717
 30
0.0
 10
-8.201433070866143
 20
-4.256409448818898
 30
0.0
 10
-8.211708661417323
 20
-4.251299212598426
 30
0.0
 10
-8.211708661417323
 20
-4.251299212598426
 30
0.0
 10
-8.211708661417323
 20
-4.251299212598426
 30
0.0
 10
-8.211708661417323
 20
-4.232468503937009
 30
0.0
 10
-8.211708661417323
 20
-4.232468503937009
 30
0.0
 10
-8.211708661417323
 20
-4.232468503937009
 30
0.0
 10
-8.211708661417323
 20
-4.232468503937009
 30
0.0
 10
-7.972153543307087
 20
-4.232468503937009
 30
0.0
 10
-7.972153543307087
 20
-4.232468503937009
 30
0.0
  0
SPLINE
  5
37
330
1F
100
AcDbEntity
  8
Capa 1
 62
   250
100
AcDbSpline
210
0.0
220
0.0
230
1.0
 70
    11
 71
     3
 72
    92
 73
    88
 74
     0
 42
0.0000000001
 43
0.0000000001
 40
0.0
 40
0.0
 40
0.0
 40
0.0
 40
0.0454545454545455
 40
0.0454545454545455
 40
0.0454545454545455
 40
0.0454545454545455
 40
0.0909090909090909
 40
0.0909090909090909
 40
0.0909090909090909
 40
0.0909090909090909
 40
0.1363636363636364
 40
0.1363636363636364
 40
0.1363636363636364
 40
0.1363636363636364
 40
0.1818181818181818
 40
0.1818181818181818
 40
0.1818181818181818
 40
0.1818181818181818
 40
0.2272727272727273
 40
0.2272727272727273
 40
0.2272727272727273
 40
0.2272727272727273
 40
0.2727272727272728
 40
0.2727272727272728
 40
0.2727272727272728
 40
0.2727272727272728
 40
0.3181818181818182
 40
0.3181818181818182
 40
0.3181818181818182
 40
0.3181818181818182
 40
0.3636363636363637
 40
0.3636363636363637
 40
0.3636363636363637
 40
0.3636363636363637
 40
0.4090909090909092
 40
0.4090909090909092
 40
0.4090909090909092
 40
0.4090909090909092
 40
0.4545454545454546
 40
0.4545454545454546
 40
0.4545454545454546
 40
0.4545454545454546
 40
0.5000000000000001
 40
0.5000000000000001
 40
0.5000000000000001
 40
0.5000000000000001
 40
0.5454545454545455
 40
0.5454545454545455
 40
0.5454545454545455
 40
0.5454545454545455
 40
0.5909090909090909
 40
0.5909090909090909
 40
0.5909090909090909
 40
0.5909090909090909
 40
0.6363636363636364
 40
0.6363636363636364
 40
0.6363636363636364
 40
0.6363636363636364
 40
0.6818181818181818
 40
0.6818181818181818
 40
0.6818181818181818
 40
0.6818181818181818
 40
0.7272727272727272
 40
0.7272727272727272
 40
0.7272727272727272
 40
0.7272727272727272
 40
0.7727272727272726
 40
0.7727272727272726
 40
0.7727272727272726
 40
0.7727272727272726
 40
0.818181818181818
 40
0.818181818181818
 40
0.818181818181818
 40
0.818181818181818
 40
0.8636363636363634
 40
0.8636363636363634
 40
0.8636363636363634
 40
0.8636363636363634
 40
0.9090909090909088
 40
0.9090909090909088
 40
0.9090909090909088
 40
0.9090909090909088
 40
0.9545454545454543
 40
0.9545454545454543
 40
0.9545454545454543
 40
0.9545454545454543
 40
1.0
 40
1.0
 40
1.0
 40
1.0
 10
-8.000318897637795
 20
-4.003409448818898
 30
0.0
 10
-8.000318897637795
 20
-4.003409448818898
 30
0.0
 10
-7.972153543307087
 20
-4.003409448818898
 30
0.0
 10
-7.972153543307087
 20
-4.003409448818898
 30
0.0
 10
-7.972153543307087
 20
-4.003409448818898
 30
0.0
 10
-7.972153543307087
 20
-4.003409448818898
 30
0.0
 10
-7.972153543307087
 20
-4.161133858267717
 30
0.0
 10
-7.972153543307087
 20
-4.161133858267717
 30
0.0
 10
-7.972153543307087
 20
-4.161133858267717
 30
0.0
 10
-7.979208661417323
 20
-4.161354330708662
 30
0.0
 10
-7.985988188976378
 20
-4.160244094488189
 30
0.0
 10
-7.992488188976378
 20
-4.157744094488189
 30
0.0
 10
-7.992488188976378
 20
-4.157744094488189
 30
0.0
 10
-8.003263779527559
 20
-4.153744094488189
 30
0.0
 10
-8.013818897637796
 20
-4.147299212598425
 30
0.0
 10
-8.024208661417323
 20
-4.138464566929134
 30
0.0
 10
-8.024208661417323
 20
-4.138464566929134
 30
0.0
 10
-8.034653543307087
 20
-4.129578740157481
 30
0.0
 10
-8.046708661417323
 20
-4.116799212598425
 30
0.0
 10
-8.060377952755905
 20
-4.100133858267717
 30
0.0
 10
-8.060377952755905
 20
-4.100133858267717
 30
0.0
 10
-8.081653543307088
 20
-4.074188976377953
 30
0.0
 10
-8.098488188976379
 20
-4.056633858267717
 30
0.0
 10
-8.110933070866143
 20
-4.04751968503937
 30
0.0
 10
-8.110933070866143
 20
-4.04751968503937
 30
0.0
 10
-8.123318897637796
 20
-4.038409448818898
 30
0.0
 10
-8.135098425196851
 20
-4.033854330708661
 30
0.0
 10
-8.146153543307086
 20
-4.033854330708661
 30
0.0
 10
-8.146153543307086
 20
-4.033854330708661
 30
0.0
 10
-8.15776377952756
 20
-4.033854330708661
 30
0.0
 10
-8.167543307086614
 20
-4.03801968503937
 30
0.0
 10
-8.175543307086615
 20
-4.046299212598425
 30
0.0
 10
-8.175543307086615
 20
-4.046299212598425
 30
0.0
 10
-8.183488188976378
 20
-4.054633858267716
 30
0.0
 10
-8.187488188976378
 20
-4.065464566929134
 30
0.0
 10
-8.187488188976378
 20
-4.078799212598425
 30
0.0
 10
-8.187488188976378
 20
-4.078799212598425
 30
0.0
 10
-8.187488188976378
 20
-4.092909448818898
 30
0.0
 10
-8.183263779527559
 20
-4.104188976377953
 30
0.0
 10
-8.174763779527559
 20
-4.112633858267717
 30
0.0
 10
-8.174763779527559
 20
-4.112633858267717
 30
0.0
 10
-8.166322834645669
 20
-4.121133858267717
 30
0.0
 10
-8.15459842519685
 20
-4.125409448818898
 30
0.0
 10
-8.139653543307087
 20
-4.125523622047244
 30
0.0
 10
-8.139653543307087
 20
-4.125523622047244
 30
0.0
 10
-8.139653543307087
 20
-4.125523622047244
 30
0.0
 10
-8.142708661417323
 20
-4.155633858267716
 30
0.0
 10
-8.142708661417323
 20
-4.155633858267716
 30
0.0
 10
-8.142708661417323
 20
-4.155633858267716
 30
0.0
 10
-8.165208661417323
 20
-4.153578740157481
 30
0.0
 10
-8.182322834645669
 20
-4.145799212598425
 30
0.0
 10
-8.194098425196851
 20
-4.132354330708662
 30
0.0
 10
-8.194098425196851
 20
-4.132354330708662
 30
0.0
 10
-8.205877952755905
 20
-4.118909448818898
 30
0.0
 10
-8.211708661417323
 20
-4.100799212598425
 30
0.0
 10
-8.211708661417323
 20
-4.078133858267717
 30
0.0
 10
-8.211708661417323
 20
-4.078133858267717
 30
0.0
 10
-8.211708661417323
 20
-4.055244094488189
 30
0.0
 10
-8.205377952755907
 20
-4.037133858267716
 30
0.0
 10
-8.192708661417322
 20
-4.023799212598425
 30
0.0
 10
-8.192708661417322
 20
-4.023799212598425
 30
0.0
 10
-8.179988188976378
 20
-4.010409448818898
 30
0.0
 10
-8.164263779527559
 20
-4.003744094488189
 30
0.0
 10
-8.145488188976378
 20
-4.003744094488189
 30
0.0
 10
-8.145488188976378
 20
-4.003744094488189
 30
0.0
 10
-8.135933070866143
 20
-4.003744094488189
 30
0.0
 10
-8.126543307086614
 20
-4.005688976377953
 30
0.0
 10
-8.117318897637796
 20
-4.009633858267717
 30
0.0
 10
-8.117318897637796
 20
-4.009633858267717
 30
0.0
 10
-8.10809842519685
 20
-4.013519685039371
 30
0.0
 10
-8.098377952755905
 20
-4.020019685039371
 30
0.0
 10
-8.088208661417323
 20
-4.02907874015748
 30
0.0
 10
-8.088208661417323
 20
-4.02907874015748
 30
0.0
 10
-8.077988188976379
 20
-4.038133858267717
 30
0.0
 10
-8.063988188976378
 20
-4.053188976377953
 30
0.0
 10
-8.046208661417323
 20
-4.074244094488189
 30
0.0
 10
-8.046208661417323
 20
-4.074244094488189
 30
0.0
 10
-8.031433070866141
 20
-4.091799212598425
 30
0.0
 10
-8.021433070866141
 20
-4.10307874015748
 30
0.0
 10
-8.016153543307087
 20
-4.10807874015748
 30
0.0
 10
-8.016153543307087
 20
-4.10807874015748
 30
0.0
 10
-8.010933070866143
 20
-4.113078740157481
 30
0.0
 10
-8.005653543307087
 20
-4.117188976377953
 30
0.0
 10
-8.000318897637795
 20
-4.120464566929134
 30
0.0
 10
-8.000318897637795
 20
-4.120464566929134
 30
0.0
 10
-8.000318897637795
 20
-4.120464566929134
 30
0.0
 10
-8.000318897637795
 20
-4.003409448818898
 30
0.0
 10
-8.000318897637795
 20
-4.003409448818898
 30
0.0
  0
SPLINE
  5
38
330
1F
100
AcDbEntity
  8
Capa 1
 62
   250
100
AcDbSpline
210
0.0
220
0.0
230
1.0
 70
    11
 71
     3
 72
    92
 73
    88
 74
     0
 42
0.0000000001
 43
0.0000000001
 40
0.0
 40
0.0
 40
0.0
 40
0.0
 40
0.0454545454545455
 40
0.0454545454545455
 40
0.0454545454545455
 40
0.0454545454545455
 40
0.0909090909090909
 40
0.0909090909090909
 40
0.0909090909090909
 40
0.0909090909090909
 40
0.1363636363636364
 40
0.1363636363636364
 40
0.1363636363636364
 40
0.1363636363636364
 40
0.1818181818181818
 40
0.1818181818181818
 40
0.1818181818181818
 40
0.1818181818181818
 40
0.2272727272727273
 40
0.2272727272727273
 40
0.2272727272727273
 40
0.2272727272727273
 40
0.2727272727272728
 40
0.2727272727272728
 40
0.2727272727272728
 40
0.2727272727272728
 40
0.3181818181818182
 40
0.3181818181818182
 40
0.3181818181818182
 40
0.3181818181818182
 40
0.3636363636363637
 40
0.3636363636363637
 40
0.3636363636363637
 40
0.3636363636363637
 40
0.4090909090909092
 40
0.4090909090909092
 40
0.4090909090909092
 40
0.4090909090909092
 40
0.4545454545454546
 40
0.4545454545454546
 40
0.4545454545454546
 40
0.4545454545454546
 40
0.5000000000000001
 40
0.5000000000000001
 40
0.5000000000000001
 40
0.5000000000000001
 40
0.5454545454545455
 40
0.5454545454545455
 40
0.5454545454545455
 40
0.5454545454545455
 40
0.5909090909090909
 40
0.5909090909090909
 40
0.5909090909090909
 40
0.5909090909090909
 40
0.6363636363636364
 40
0.6363636363636364
 40
0.6363636363636364
 40
0.6363636363636364
 40
0.6818181818181818
 40
0.6818181818181818
 40
0.6818181818181818
 40
0.6818181818181818
 40
0.7272727272727272
 40
0.7272727272727272
 40
0.7272727272727272
 40
0.7272727272727272
 40
0.7727272727272726
 40
0.7727272727272726
 40
0.7727272727272726
 40
0.7727272727272726
 40
0.818181818181818
 40
0.818181818181818
 40
0.818181818181818
 40
0.818181818181818
 40
0.8636363636363634
 40
0.8636363636363634
 40
0.8636363636363634
 40
0.8636363636363634
 40
0.9090909090909088
 40
0.9090909090909088
 40
0.9090909090909088
 40
0.9090909090909088
 40
0.9545454545454543
 40
0.9545454545454543
 40
0.9545454545454543
 40
0.9545454545454543
 40
1.0
 40
1.0
 40
1.0
 40
1.0
 10
-8.034653543307087
 20
-3.97201968503937
 30
0.0
 10
-8.034653543307087
 20
-3.97201968503937
 30
0.0
 10
-8.03726377952756
 20
-3.941244094488189
 30
0.0
 10
-8.03726377952756
 20
-3.941244094488189
 30
0.0
 10
-8.03726377952756
 20
-3.941244094488189
 30
0.0
 10
-8.02226377952756
 20
-3.938964566929134
 30
0.0
 10
-8.011043307086615
 20
-3.933688976377953
 30
0.0
 10
-8.003488188976379
 20
-3.925409448818898
 30
0.0
 10
-8.003488188976379
 20
-3.925409448818898
 30
0.0
 10
-7.995933070866142
 20
-3.917074803149606
 30
0.0
 10
-7.992153543307087
 20
-3.907074803149607
 30
0.0
 10
-7.992153543307087
 20
-3.895354330708662
 30
0.0
 10
-7.992153543307087
 20
-3.895354330708662
 30
0.0
 10
-7.992153543307087
 20
-3.881244094488189
 30
0.0
 10
-7.997488188976378
 20
-3.869299212598425
 30
0.0
 10
-8.008098425196851
 20
-3.859574803149607
 30
0.0
 10
-8.008098425196851
 20
-3.859574803149607
 30
0.0
 10
-8.018763779527559
 20
-3.849799212598426
 30
0.0
 10
-8.032877952755905
 20
-3.844909448818898
 30
0.0
 10
-8.050433070866141
 20
-3.844909448818898
 30
0.0
 10
-8.050433070866141
 20
-3.844909448818898
 30
0.0
 10
-8.067153543307088
 20
-3.844909448818898
 30
0.0
 10
-8.080318897637795
 20
-3.849574803149606
 30
0.0
 10
-8.089988188976378
 20
-3.858964566929134
 30
0.0
 10
-8.089988188976378
 20
-3.858964566929134
 30
0.0
 10
-8.099653543307086
 20
-3.868354330708661
 30
0.0
 10
-8.104488188976378
 20
-3.880629921259843
 30
0.0
 10
-8.104488188976378
 20
-3.895854330708662
 30
0.0
 10
-8.104488188976378
 20
-3.895854330708662
 30
0.0
 10
-8.104488188976378
 20
-3.905299212598425
 30
0.0
 10
-8.102318897637796
 20
-3.913799212598426
 30
0.0
 10
-8.098043307086615
 20
-3.921409448818898
 30
0.0
 10
-8.098043307086615
 20
-3.921409448818898
 30
0.0
 10
-8.09376377952756
 20
-3.92901968503937
 30
0.0
 10
-8.088208661417323
 20
-3.934964566929134
 30
0.0
 10
-8.081377952755906
 20
-3.939299212598425
 30
0.0
 10
-8.081377952755906
 20
-3.939299212598425
 30
0.0
 10
-8.081377952755906
 20
-3.939299212598425
 30
0.0
 10
-8.084933070866143
 20
-3.966799212598426
 30
0.0
 10
-8.084933070866143
 20
-3.966799212598426
 30
0.0
 10
-8.084933070866143
 20
-3.966799212598426
 30
0.0
 10
-8.084933070866143
 20
-3.966799212598426
 30
0.0
 10
-8.207488188976379
 20
-3.943688976377953
 30
0.0
 10
-8.207488188976379
 20
-3.943688976377953
 30
0.0
 10
-8.207488188976379
 20
-3.943688976377953
 30
0.0
 10
-8.207488188976379
 20
-3.943688976377953
 30
0.0
 10
-8.207488188976379
 20
-3.82501968503937
 30
0.0
 10
-8.207488188976379
 20
-3.82501968503937
 30
0.0
 10
-8.207488188976379
 20
-3.82501968503937
 30
0.0
 10
-8.207488188976379
 20
-3.82501968503937
 30
0.0
 10
-8.179488188976379
 20
-3.82501968503937
 30
0.0
 10
-8.179488188976379
 20
-3.82501968503937
 30
0.0
 10
-8.179488188976379
 20
-3.82501968503937
 30
0.0
 10
-8.179488188976379
 20
-3.82501968503937
 30
0.0
 10
-8.179488188976379
 20
-3.920244094488189
 30
0.0
 10
-8.179488188976379
 20
-3.920244094488189
 30
0.0
 10
-8.179488188976379
 20
-3.920244094488189
 30
0.0
 10
-8.179488188976379
 20
-3.920244094488189
 30
0.0
 10
-8.115377952755907
 20
-3.933133858267717
 30
0.0
 10
-8.115377952755907
 20
-3.933133858267717
 30
0.0
 10
-8.115377952755907
 20
-3.933133858267717
 30
0.0
 10
-8.125377952755907
 20
-3.918799212598426
 30
0.0
 10
-8.130377952755906
 20
-3.903744094488189
 30
0.0
 10
-8.130377952755906
 20
-3.88801968503937
 30
0.0
 10
-8.130377952755906
 20
-3.88801968503937
 30
0.0
 10
-8.130377952755906
 20
-3.867188976377953
 30
0.0
 10
-8.123153543307087
 20
-3.849629921259843
 30
0.0
 10
-8.108708661417323
 20
-3.835299212598426
 30
0.0
 10
-8.108708661417323
 20
-3.835299212598426
 30
0.0
 10
-8.094263779527559
 20
-3.820964566929134
 30
0.0
 10
-8.075708661417323
 20
-3.813799212598426
 30
0.0
 10
-8.053043307086615
 20
-3.813799212598426
 30
0.0
 10
-8.053043307086615
 20
-3.813799212598426
 30
0.0
 10
-8.031433070866141
 20
-3.813799212598426
 30
0.0
 10
-8.012763779527559
 20
-3.820129921259843
 30
0.0
 10
-7.997043307086615
 20
-3.832688976377953
 30
0.0
 10
-7.997043307086615
 20
-3.832688976377953
 30
0.0
 10
-7.977763779527559
 20
-3.84801968503937
 30
0.0
 10
-7.968098425196851
 20
-3.868909448818898
 30
0.0
 10
-7.968098425196851
 20
-3.895354330708662
 30
0.0
 10
-7.968098425196851
 20
-3.895354330708662
 30
0.0
 10
-7.968098425196851
 20
-3.917074803149606
 30
0.0
 10
-7.974153543307087
 20
-3.934799212598426
 30
0.0
 10
-7.986318897637796
 20
-3.94851968503937
 30
0.0
 10
-7.986318897637796
 20
-3.94851968503937
 30
0.0
 10
-7.998488188976379
 20
-3.962244094488189
 30
0.0
 10
-8.014598425196851
 20
-3.970074803149606
 30
0.0
 10
-8.034653543307087
 20
-3.97201968503937
 30
0.0
  0
SPLINE
  5
39
330
1F
100
AcDbEntity
  8
Capa 1
 62
   250
100
AcDbSpline
210
0.0
220
0.0
230
1.0
 70
    11
 71
     3
 72
    20
 73
    16
 74
     0
 42
0.0000000001
 43
0.0000000001
 40
0.0
 40
0.0
 40
0.0
 40
0.0
 40
0.25
 40
0.25
 40
0.25
 40
0.25
 40
0.5
 40
0.5
 40
0.5
 40
0.5
 40
0.75
 40
0.75
 40
0.75
 40
0.75
 40
1.0
 40
1.0
 40
1.0
 40
1.0
 10
-7.972153543307087
 20
-3.770185039370079
 30
0.0
 10
-7.972153543307087
 20
-3.770185039370079
 30
0.0
 10
-8.005543307086615
 20
-3.770185039370079
 30
0.0
 10
-8.005543307086615
 20
-3.770185039370079
 30
0.0
 10
-8.005543307086615
 20
-3.770185039370079
 30
0.0
 10
-8.005543307086615
 20
-3.770185039370079
 30
0.0
 10
-8.005543307086615
 20
-3.736799212598426
 30
0.0
 10
-8.005543307086615
 20
-3.736799212598426
 30
0.0
 10
-8.005543307086615
 20
-3.736799212598426
 30
0.0
 10
-8.005543307086615
 20
-3.736799212598426
 30
0.0
 10
-7.972153543307087
 20
-3.736799212598426
 30
0.0
 10
-7.972153543307087
 20
-3.736799212598426
 30
0.0
 10
-7.972153543307087
 20
-3.736799212598426
 30
0.0
 10
-7.972153543307087
 20
-3.736799212598426
 30
0.0
 10
-7.972153543307087
 20
-3.770185039370079
 30
0.0
 10
-7.972153543307087
 20
-3.770185039370079
 30
0.0
  0
SPLINE
  5
3A
330
1F
100
AcDbEntity
  8
Capa 1
 62
   250
100
AcDbSpline
210
0.0
220
0.0
230
1.0
 70
    11
 71
     3
 72
    52
 73
    48
 74
     0
 42
0.0000000001
 43
0.0000000001
 40
0.0
 40
0.0
 40
0.0
 40
0.0
 40
0.0833333333333333
 40
0.0833333333333333
 40
0.0833333333333333
 40
0.0833333333333333
 40
0.1666666666666667
 40
0.1666666666666667
 40
0.1666666666666667
 40
0.1666666666666667
 40
0.25
 40
0.25
 40
0.25
 40
0.25
 40
0.3333333333333333
 40
0.3333333333333333
 40
0.3333333333333333
 40
0.3333333333333333
 40
0.4166666666666666
 40
0.4166666666666666
 40
0.4166666666666666
 40
0.4166666666666666
 40
0.4999999999999999
 40
0.4999999999999999
 40
0.4999999999999999
 40
0.4999999999999999
 40
0.5833333333333333
 40
0.5833333333333333
 40
0.5833333333333333
 40
0.5833333333333333
 40
0.6666666666666666
 40
0.6666666666666666
 40
0.6666666666666666
 40
0.6666666666666666
 40
0.75
 40
0.75
 40
0.75
 40
0.75
 40
0.8333333333333334
 40
0.8333333333333334
 40
0.8333333333333334
 40
0.8333333333333334
 40
0.9166666666666667
 40
0.9166666666666667
 40
0.9166666666666667
 40
0.9166666666666667
 40
1.0
 40
1.0
 40
1.0
 40
1.0
 10
-8.089818897637796
 20
-3.69401968503937
 30
0.0
 10
-8.118043307086614
 20
-3.69401968503937
 30
0.0
 10
-8.140763779527559
 20
-3.691133858267717
 30
0.0
 10
-8.157933070866141
 20
-3.685299212598425
 30
0.0
 10
-8.157933070866141
 20
-3.685299212598425
 30
0.0
 10
-8.175153543307086
 20
-3.67951968503937
 30
0.0
 10
-8.188433070866141
 20
-3.670854330708662
 30
0.0
 10
-8.197763779527559
 20
-3.659409448818898
 30
0.0
 10
-8.197763779527559
 20
-3.659409448818898
 30
0.0
 10
-8.20709842519685
 20
-3.647964566929134
 30
0.0
 10
-8.211708661417323
 20
-3.633574803149606
 30
0.0
 10
-8.211708661417323
 20
-3.616244094488189
 30
0.0
 10
-8.211708661417323
 20
-3.616244094488189
 30
0.0
 10
-8.211708661417323
 20
-3.603409448818898
 30
0.0
 10
-8.209153543307087
 20
-3.592188976377953
 30
0.0
 10
-8.203988188976378
 20
-3.58251968503937
 30
0.0
 10
-8.203988188976378
 20
-3.58251968503937
 30
0.0
 10
-8.198877952755906
 20
-3.572854330708662
 30
0.0
 10
-8.191433070866141
 20
-3.564909448818898
 30
0.0
 10
-8.181708661417323
 20
-3.558574803149607
 30
0.0
 10
-8.181708661417323
 20
-3.558574803149607
 30
0.0
 10
-8.171988188976378
 20
-3.552299212598425
 30
0.0
 10
-8.160153543307088
 20
-3.547354330708662
 30
0.0
 10
-8.146208661417322
 20
-3.543799212598426
 30
0.0
 10
-8.146208661417322
 20
-3.543799212598426
 30
0.0
 10
-8.132263779527559
 20
-3.540185039370079
 30
0.0
 10
-8.113488188976378
 20
-3.538409448818898
 30
0.0
 10
-8.089818897637796
 20
-3.538409448818898
 30
0.0
 10
-8.089818897637796
 20
-3.538409448818898
 30
0.0
 10
-8.061818897637796
 20
-3.538409448818898
 30
0.0
 10
-8.039263779527559
 20
-3.541299212598426
 30
0.0
 10
-8.022043307086614
 20
-3.54701968503937
 30
0.0
 10
-8.022043307086614
 20
-3.54701968503937
 30
0.0
 10
-8.004818897637795
 20
-3.552799212598425
 30
0.0
 10
-7.991543307086615
 20
-3.561409448818898
 30
0.0
 10
-7.982153543307087
 20
-3.572854330708662
 30
0.0
 10
-7.982153543307087
 20
-3.572854330708662
 30
0.0
 10
-7.972763779527559
 20
-3.584299212598425
 30
0.0
 10
-7.968098425196851
 20
-3.598744094488189
 30
0.0
 10
-7.968098425196851
 20
-3.616244094488189
 30
0.0
 10
-7.968098425196851
 20
-3.616244094488189
 30
0.0
 10
-7.968098425196851
 20
-3.639244094488189
 30
0.0
 10
-7.976318897637795
 20
-3.657299212598425
 30
0.0
 10
-7.992818897637796
 20
-3.670409448818898
 30
0.0
 10
-7.992818897637796
 20
-3.670409448818898
 30
0.0
 10
-8.012653543307087
 20
-3.686133858267717
 30
0.0
 10
-8.045043307086614
 20
-3.69401968503937
 30
0.0
 10
-8.089818897637796
 20
-3.69401968503937
 30
0.0
  0
SPLINE
  5
3B
330
1F
100
AcDbEntity
  8
Capa 1
 62
   250
100
AcDbSpline
210
0.0
220
0.0
230
1.0
 70
    11
 71
     3
 72
    36
 73
    32
 74
     0
 42
0.0000000001
 43
0.0000000001
 40
0.0
 40
0.0
 40
0.0
 40
0.0
 40
0.125
 40
0.125
 40
0.125
 40
0.125
 40
0.25
 40
0.25
 40
0.25
 40
0.25
 40
0.375
 40
0.375
 40
0.375
 40
0.375
 40
0.5
 40
0.5
 40
0.5
 40
0.5
 40
0.625
 40
0.625
 40
0.625
 40
0.625
 40
0.75
 40
0.75
 40
0.75
 40
0.75
 40
0.875
 40
0.875
 40
0.875
 40
0.875
 40
1.0
 40
1.0
 40
1.0
 40
1.0
 10
-8.089818897637796
 20
-3.663909448818898
 30
0.0
 10
-8.050653543307087
 20
-3.663909448818898
 30
0.0
 10
-8.024598425196851
 20
-3.659299212598425
 30
0.0
 10
-8.011598425196851
 20
-3.650129921259843
 30
0.0
 10
-8.011598425196851
 20
-3.650129921259843
 30
0.0
 10
-7.998653543307087
 20
-3.640964566929134
 30
0.0
 10
-7.992153543307087
 20
-3.629688976377953
 30
0.0
 10
-7.992153543307087
 20
-3.616244094488189
 30
0.0
 10
-7.992153543307087
 20
-3.616244094488189
 30
0.0
 10
-7.992153543307087
 20
-3.602744094488189
 30
0.0
 10
-7.998708661417323
 20
-3.591464566929134
 30
0.0
 10
-8.011708661417323
 20
-3.582299212598425
 30
0.0
 10
-8.011708661417323
 20
-3.582299212598425
 30
0.0
 10
-8.024708661417323
 20
-3.573129921259843
 30
0.0
 10
-8.050763779527559
 20
-3.56851968503937
 30
0.0
 10
-8.089818897637796
 20
-3.56851968503937
 30
0.0
 10
-8.089818897637796
 20
-3.56851968503937
 30
0.0
 10
-8.129098425196851
 20
-3.56851968503937
 30
0.0
 10
-8.155208661417323
 20
-3.573129921259843
 30
0.0
 10
-8.168098425196851
 20
-3.582299212598425
 30
0.0
 10
-8.168098425196851
 20
-3.582299212598425
 30
0.0
 10
-8.181043307086615
 20
-3.591464566929134
 30
0.0
 10
-8.187488188976378
 20
-3.602854330708662
 30
0.0
 10
-8.187488188976378
 20
-3.61651968503937
 30
0.0
 10
-8.187488188976378
 20
-3.61651968503937
 30
0.0
 10
-8.187488188976378
 20
-3.63001968503937
 30
0.0
 10
-8.181763779527559
 20
-3.640744094488189
 30
0.0
 10
-8.170377952755906
 20
-3.648799212598425
 30
0.0
 10
-8.170377952755906
 20
-3.648799212598425
 30
0.0
 10
-8.155877952755906
 20
-3.658854330708662
 30
0.0
 10
-8.128988188976379
 20
-3.663909448818898
 30
0.0
 10
-8.089818897637796
 20
-3.663909448818898
 30
0.0
  0
SPLINE
  5
3C
330
1F
100
AcDbEntity
  8
Capa 1
 62
   250
100
AcDbSpline
210
0.0
220
0.0
230
1.0
 70
    11
 71
     3
 72
    52
 73
    48
 74
     0
 42
0.0000000001
 43
0.0000000001
 40
0.0
 40
0.0
 40
0.0
 40
0.0
 40
0.0833333333333333
 40
0.0833333333333333
 40
0.0833333333333333
 40
0.0833333333333333
 40
0.1666666666666667
 40
0.1666666666666667
 40
0.1666666666666667
 40
0.1666666666666667
 40
0.25
 40
0.25
 40
0.25
 40
0.25
 40
0.3333333333333333
 40
0.3333333333333333
 40
0.3333333333333333
 40
0.3333333333333333
 40
0.4166666666666666
 40
0.4166666666666666
 40
0.4166666666666666
 40
0.4166666666666666
 40
0.4999999999999999
 40
0.4999999999999999
 40
0.4999999999999999
 40
0.4999999999999999
 40
0.5833333333333333
 40
0.5833333333333333
 40
0.5833333333333333
 40
0.5833333333333333
 40
0.6666666666666666
 40
0.6666666666666666
 40
0.6666666666666666
 40
0.6666666666666666
 40
0.75
 40
0.75
 40
0.75
 40
0.75
 40
0.8333333333333334
 40
0.8333333333333334
 40
0.8333333333333334
 40
0.8333333333333334
 40
0.9166666666666667
 40
0.9166666666666667
 40
0.9166666666666667
 40
0.9166666666666667
 40
1.0
 40
1.0
 40
1.0
 40
1.0
 10
-8.089818897637796
 20
-3.508629921259843
 30
0.0
 10
-8.118043307086614
 20
-3.508629921259843
 30
0.0
 10
-8.140763779527559
 20
-3.505744094488189
 30
0.0
 10
-8.157933070866141
 20
-3.499909448818898
 30
0.0
 10
-8.157933070866141
 20
-3.499909448818898
 30
0.0
 10
-8.175153543307086
 20
-3.494129921259843
 30
0.0
 10
-8.188433070866141
 20
-3.485464566929134
 30
0.0
 10
-8.197763779527559
 20
-3.47401968503937
 30
0.0
 10
-8.197763779527559
 20
-3.47401968503937
 30
0.0
 10
-8.20709842519685
 20
-3.462574803149606
 30
0.0
 10
-8.211708661417323
 20
-3.448185039370079
 30
0.0
 10
-8.211708661417323
 20
-3.430854330708661
 30
0.0
 10
-8.211708661417323
 20
-3.430854330708661
 30
0.0
 10
-8.211708661417323
 20
-3.41801968503937
 30
0.0
 10
-8.209153543307087
 20
-3.406799212598425
 30
0.0
 10
-8.203988188976378
 20
-3.397129921259843
 30
0.0
 10
-8.203988188976378
 20
-3.397129921259843
 30
0.0
 10
-8.198877952755906
 20
-3.387464566929134
 30
0.0
 10
-8.191433070866141
 20
-3.37951968503937
 30
0.0
 10
-8.181708661417323
 20
-3.373185039370079
 30
0.0
 10
-8.181708661417323
 20
-3.373185039370079
 30
0.0
 10
-8.171988188976378
 20
-3.366909448818898
 30
0.0
 10
-8.160153543307088
 20
-3.361964566929134
 30
0.0
 10
-8.146208661417322
 20
-3.358409448818898
 30
0.0
 10
-8.146208661417322
 20
-3.358409448818898
 30
0.0
 10
-8.132263779527559
 20
-3.354795275590552
 30
0.0
 10
-8.113488188976378
 20
-3.35301968503937
 30
0.0
 10
-8.089818897637796
 20
-3.35301968503937
 30
0.0
 10
-8.089818897637796
 20
-3.35301968503937
 30
0.0
 10
-8.061818897637796
 20
-3.35301968503937
 30
0.0
 10
-8.039263779527559
 20
-3.355909448818898
 30
0.0
 10
-8.022043307086614
 20
-3.361629921259843
 30
0.0
 10
-8.022043307086614
 20
-3.361629921259843
 30
0.0
 10
-8.004818897637795
 20
-3.367409448818898
 30
0.0
 10
-7.991543307086615
 20
-3.37601968503937
 30
0.0
 10
-7.982153543307087
 20
-3.387464566929134
 30
0.0
 10
-7.982153543307087
 20
-3.387464566929134
 30
0.0
 10
-7.972763779527559
 20
-3.398909448818898
 30
0.0
 10
-7.968098425196851
 20
-3.413354330708661
 30
0.0
 10
-7.968098425196851
 20
-3.430854330708661
 30
0.0
 10
-7.968098425196851
 20
-3.430854330708661
 30
0.0
 10
-7.968098425196851
 20
-3.453854330708662
 30
0.0
 10
-7.976318897637795
 20
-3.471909448818898
 30
0.0
 10
-7.992818897637796
 20
-3.48501968503937
 30
0.0
 10
-7.992818897637796
 20
-3.48501968503937
 30
0.0
 10
-8.012653543307087
 20
-3.500744094488189
 30
0.0
 10
-8.045043307086614
 20
-3.508629921259843
 30
0.0
 10
-8.089818897637796
 20
-3.508629921259843
 30
0.0
  0
SPLINE
  5
3D
330
1F
100
AcDbEntity
  8
Capa 1
 62
   250
100
AcDbSpline
210
0.0
220
0.0
230
1.0
 70
    11
 71
     3
 72
    36
 73
    32
 74
     0
 42
0.0000000001
 43
0.0000000001
 40
0.0
 40
0.0
 40
0.0
 40
0.0
 40
0.125
 40
0.125
 40
0.125
 40
0.125
 40
0.25
 40
0.25
 40
0.25
 40
0.25
 40
0.375
 40
0.375
 40
0.375
 40
0.375
 40
0.5
 40
0.5
 40
0.5
 40
0.5
 40
0.625
 40
0.625
 40
0.625
 40
0.625
 40
0.75
 40
0.75
 40
0.75
 40
0.75
 40
0.875
 40
0.875
 40
0.875
 40
0.875
 40
1.0
 40
1.0
 40
1.0
 40
1.0
 10
-8.089818897637796
 20
-3.47851968503937
 30
0.0
 10
-8.050653543307087
 20
-3.47851968503937
 30
0.0
 10
-8.024598425196851
 20
-3.473909448818898
 30
0.0
 10
-8.011598425196851
 20
-3.464740157480315
 30
0.0
 10
-8.011598425196851
 20
-3.464740157480315
 30
0.0
 10
-7.998653543307087
 20
-3.455574803149606
 30
0.0
 10
-7.992153543307087
 20
-3.444299212598426
 30
0.0
 10
-7.992153543307087
 20
-3.430854330708661
 30
0.0
 10
-7.992153543307087
 20
-3.430854330708661
 30
0.0
 10
-7.992153543307087
 20
-3.417354330708661
 30
0.0
 10
-7.998708661417323
 20
-3.406074803149607
 30
0.0
 10
-8.011708661417323
 20
-3.396909448818898
 30
0.0
 10
-8.011708661417323
 20
-3.396909448818898
 30
0.0
 10
-8.024708661417323
 20
-3.387740157480315
 30
0.0
 10
-8.050763779527559
 20
-3.383129921259843
 30
0.0
 10
-8.089818897637796
 20
-3.383129921259843
 30
0.0
 10
-8.089818897637796
 20
-3.383129921259843
 30
0.0
 10
-8.129098425196851
 20
-3.383129921259843
 30
0.0
 10
-8.155208661417323
 20
-3.387740157480315
 30
0.0
 10
-8.168098425196851
 20
-3.396909448818898
 30
0.0
 10
-8.168098425196851
 20
-3.396909448818898
 30
0.0
 10
-8.181043307086615
 20
-3.406074803149607
 30
0.0
 10
-8.187488188976378
 20
-3.417464566929134
 30
0.0
 10
-8.187488188976378
 20
-3.431129921259843
 30
0.0
 10
-8.187488188976378
 20
-3.431129921259843
 30
0.0
 10
-8.187488188976378
 20
-3.444629921259843
 30
0.0
 10
-8.181763779527559
 20
-3.455354330708662
 30
0.0
 10
-8.170377952755906
 20
-3.463409448818898
 30
0.0
 10
-8.170377952755906
 20
-3.463409448818898
 30
0.0
 10
-8.155877952755906
 20
-3.473464566929134
 30
0.0
 10
-8.128988188976379
 20
-3.47851968503937
 30
0.0
 10
-8.089818897637796
 20
-3.47851968503937
 30
0.0
  0
SPLINE
  5
3E
330
1F
100
AcDbEntity
  8
Capa 1
 62
   250
100
AcDbSpline
210
0.0
220
0.0
230
1.0
 70
    11
 71
     3
 72
   116
 73
   112
 74
     0
 42
0.0000000001
 43
0.0000000001
 40
0.0
 40
0.0
 40
0.0
 40
0.0
 40
0.0357142857142857
 40
0.0357142857142857
 40
0.0357142857142857
 40
0.0357142857142857
 40
0.0714285714285714
 40
0.0714285714285714
 40
0.0714285714285714
 40
0.0714285714285714
 40
0.1071428571428571
 40
0.1071428571428571
 40
0.1071428571428571
 40
0.1071428571428571
 40
0.1428571428571429
 40
0.1428571428571429
 40
0.1428571428571429
 40
0.1428571428571429
 40
0.1785714285714286
 40
0.1785714285714286
 40
0.1785714285714286
 40
0.1785714285714286
 40
0.2142857142857143
 40
0.2142857142857143
 40
0.2142857142857143
 40
0.2142857142857143
 40
0.2499999999999999
 40
0.2499999999999999
 40
0.2499999999999999
 40
0.2499999999999999
 40
0.2857142857142856
 40
0.2857142857142856
 40
0.2857142857142856
 40
0.2857142857142856
 40
0.3214285714285713
 40
0.3214285714285713
 40
0.3214285714285713
 40
0.3214285714285713
 40
0.357142857142857
 40
0.357142857142857
 40
0.357142857142857
 40
0.357142857142857
 40
0.3928571428571427
 40
0.3928571428571427
 40
0.3928571428571427
 40
0.3928571428571427
 40
0.4285714285714284
 40
0.4285714285714284
 40
0.4285714285714284
 40
0.4285714285714284
 40
0.4642857142857141
 40
0.4642857142857141
 40
0.4642857142857141
 40
0.4642857142857141
 40
0.4999999999999998
 40
0.4999999999999998
 40
0.4999999999999998
 40
0.4999999999999998
 40
0.5357142857142856
 40
0.5357142857142856
 40
0.5357142857142856
 40
0.5357142857142856
 40
0.5714285714285713
 40
0.5714285714285713
 40
0.5714285714285713
 40
0.5714285714285713
 40
0.607142857142857
 40
0.607142857142857
 40
0.607142857142857
 40
0.607142857142857
 40
0.6428571428571427
 40
0.6428571428571427
 40
0.6428571428571427
 40
0.6428571428571427
 40
0.6785714285714284
 40
0.6785714285714284
 40
0.6785714285714284
 40
0.6785714285714284
 40
0.7142857142857141
 40
0.7142857142857141
 40
0.7142857142857141
 40
0.7142857142857141
 40
0.7499999999999998
 40
0.7499999999999998
 40
0.7499999999999998
 40
0.7499999999999998
 40
0.7857142857142855
 40
0.7857142857142855
 40
0.7857142857142855
 40
0.7857142857142855
 40
0.8214285714285712
 40
0.8214285714285712
 40
0.8214285714285712
 40
0.8214285714285712
 40
0.8571428571428569
 40
0.8571428571428569
 40
0.8571428571428569
 40
0.8571428571428569
 40
0.8928571428571426
 40
0.8928571428571426
 40
0.8928571428571426
 40
0.8928571428571426
 40
0.9285714285714283
 40
0.9285714285714283
 40
0.9285714285714283
 40
0.9285714285714283
 40
0.964285714285714
 40
0.964285714285714
 40
0.964285714285714
 40
0.964285714285714
 40
1.0
 40
1.0
 40
1.0
 40
1.0
 10
-7.972153543307087
 20
-3.222464566929134
 30
0.0
 10
-7.972153543307087
 20
-3.222464566929134
 30
0.0
 10
-8.144988188976379
 20
-3.222464566929134
 30
0.0
 10
-8.144988188976379
 20
-3.222464566929134
 30
0.0
 10
-8.144988188976379
 20
-3.222464566929134
 30
0.0
 10
-8.144988188976379
 20
-3.222464566929134
 30
0.0
 10
-8.144988188976379
 20
-3.196299212598425
 30
0.0
 10
-8.144988188976379
 20
-3.196299212598425
 30
0.0
 10
-8.144988188976379
 20
-3.196299212598425
 30
0.0
 10
-8.144988188976379
 20
-3.196299212598425
 30
0.0
 10
-8.120763779527559
 20
-3.196299212598425
 30
0.0
 10
-8.120763779527559
 20
-3.196299212598425
 30
0.0
 10
-8.120763779527559
 20
-3.196299212598425
 30
0.0
 10
-8.129208661417323
 20
-3.190854330708662
 30
0.0
 10
-8.136043307086615
 20
-3.183629921259843
 30
0.0
 10
-8.141153543307087
 20
-3.174629921259843
 30
0.0
 10
-8.141153543307087
 20
-3.174629921259843
 30
0.0
 10
-8.14632283464567
 20
-3.165629921259843
 30
0.0
 10
-8.148933070866143
 20
-3.155354330708661
 30
0.0
 10
-8.148933070866143
 20
-3.143854330708662
 30
0.0
 10
-8.148933070866143
 20
-3.143854330708662
 30
0.0
 10
-8.148933070866143
 20
-3.131074803149606
 30
0.0
 10
-8.14626377952756
 20
-3.120574803149606
 30
0.0
 10
-8.140933070866142
 20
-3.112409448818898
 30
0.0
 10
-8.140933070866142
 20
-3.112409448818898
 30
0.0
 10
-8.13559842519685
 20
-3.104185039370079
 30
0.0
 10
-8.128208661417324
 20
-3.098409448818898
 30
0.0
 10
-8.118653543307087
 20
-3.095074803149606
 30
0.0
 10
-8.118653543307087
 20
-3.095074803149606
 30
0.0
 10
-8.138822834645669
 20
-3.081354330708662
 30
0.0
 10
-8.148933070866143
 20
-3.063574803149606
 30
0.0
 10
-8.148933070866143
 20
-3.041685039370079
 30
0.0
 10
-8.148933070866143
 20
-3.041685039370079
 30
0.0
 10
-8.148933070866143
 20
-3.02451968503937
 30
0.0
 10
-8.144153543307088
 20
-3.011354330708662
 30
0.0
 10
-8.134653543307087
 20
-3.002129921259843
 30
0.0
 10
-8.134653543307087
 20
-3.002129921259843
 30
0.0
 10
-8.125153543307087
 20
-2.992909448818898
 30
0.0
 10
-8.110543307086614
 20
-2.988295275590551
 30
0.0
 10
-8.090818897637796
 20
-2.988295275590551
 30
0.0
 10
-8.090818897637796
 20
-2.988295275590551
 30
0.0
 10
-8.090818897637796
 20
-2.988295275590551
 30
0.0
 10
-7.972153543307087
 20
-2.988295275590551
 30
0.0
 10
-7.972153543307087
 20
-2.988295275590551
 30
0.0
 10
-7.972153543307087
 20
-2.988295275590551
 30
0.0
 10
-7.972153543307087
 20
-2.988295275590551
 30
0.0
 10
-7.972153543307087
 20
-3.017409448818898
 30
0.0
 10
-7.972153543307087
 20
-3.017409448818898
 30
0.0
 10
-7.972153543307087
 20
-3.017409448818898
 30
0.0
 10
-7.972153543307087
 20
-3.017409448818898
 30
0.0
 10
-8.081043307086615
 20
-3.017409448818898
 30
0.0
 10
-8.081043307086615
 20
-3.017409448818898
 30
0.0
 10
-8.081043307086615
 20
-3.017409448818898
 30
0.0
 10
-8.092763779527559
 20
-3.017409448818898
 30
0.0
 10
-8.101208661417322
 20
-3.018354330708661
 30
0.0
 10
-8.106377952755906
 20
-3.020240157480315
 30
0.0
 10
-8.106377952755906
 20
-3.020240157480315
 30
0.0
 10
-8.111488188976379
 20
-3.022185039370079
 30
0.0
 10
-8.115653543307086
 20
-3.025629921259843
 30
0.0
 10
-8.118818897637796
 20
-3.030574803149607
 30
0.0
 10
-8.118818897637796
 20
-3.030574803149607
 30
0.0
 10
-8.121933070866142
 20
-3.035574803149606
 30
0.0
 10
-8.123543307086614
 20
-3.041464566929134
 30
0.0
 10
-8.123543307086614
 20
-3.048185039370079
 30
0.0
 10
-8.123543307086614
 20
-3.048185039370079
 30
0.0
 10
-8.123543307086614
 20
-3.060354330708662
 30
0.0
 10
-8.119488188976378
 20
-3.070409448818898
 30
0.0
 10
-8.111377952755905
 20
-3.078464566929134
 30
0.0
 10
-8.111377952755905
 20
-3.078464566929134
 30
0.0
 10
-8.103318897637795
 20
-3.086464566929134
 30
0.0
 10
-8.090377952755906
 20
-3.09051968503937
 30
0.0
 10
-8.072598425196851
 20
-3.09051968503937
 30
0.0
 10
-8.072598425196851
 20
-3.09051968503937
 30
0.0
 10
-8.072598425196851
 20
-3.09051968503937
 30
0.0
 10
-7.972153543307087
 20
-3.09051968503937
 30
0.0
 10
-7.972153543307087
 20
-3.09051968503937
 30
0.0
 10
-7.972153543307087
 20
-3.09051968503937
 30
0.0
 10
-7.972153543307087
 20
-3.09051968503937
 30
0.0
 10
-7.972153543307087
 20
-3.119799212598426
 30
0.0
 10
-7.972153543307087
 20
-3.119799212598426
 30
0.0
 10
-7.972153543307087
 20
-3.119799212598426
 30
0.0
 10
-7.972153543307087
 20
-3.119799212598426
 30
0.0
 10
-8.084433070866142
 20
-3.119799212598426
 30
0.0
 10
-8.084433070866142
 20
-3.119799212598426
 30
0.0
 10
-8.084433070866142
 20
-3.119799212598426
 30
0.0
 10
-8.097488188976378
 20
-3.119799212598426
 30
0.0
 10
-8.107263779527559
 20
-3.122185039370079
 30
0.0
 10
-8.113763779527559
 20
-3.126964566929134
 30
0.0
 10
-8.113763779527559
 20
-3.126964566929134
 30
0.0
 10
-8.120263779527559
 20
-3.131740157480315
 30
0.0
 10
-8.123543307086614
 20
-3.13951968503937
 30
0.0
 10
-8.123543307086614
 20
-3.150409448818898
 30
0.0
 10
-8.123543307086614
 20
-3.150409448818898
 30
0.0
 10
-8.123543307086614
 20
-3.158629921259843
 30
0.0
 10
-8.121377952755905
 20
-3.166240157480315
 30
0.0
 10
-8.116988188976379
 20
-3.173240157480315
 30
0.0
 10
-8.116988188976379
 20
-3.173240157480315
 30
0.0
 10
-8.112653543307086
 20
-3.180240157480315
 30
0.0
 10
-8.106318897637795
 20
-3.185354330708662
 30
0.0
 10
-8.097988188976379
 20
-3.188464566929134
 30
0.0
 10
-8.097988188976379
 20
-3.188464566929134
 30
0.0
 10
-8.089598425196851
 20
-3.191629921259843
 30
0.0
 10
-8.077543307086614
 20
-3.193185039370079
 30
0.0
 10
-8.061818897637796
 20
-3.193185039370079
 30
0.0
 10
-8.061818897637796
 20
-3.193185039370079
 30
0.0
 10
-8.061818897637796
 20
-3.193185039370079
 30
0.0
 10
-7.972153543307087
 20
-3.193185039370079
 30
0.0
 10
-7.972153543307087
 20
-3.193185039370079
 30
0.0
 10
-7.972153543307087
 20
-3.193185039370079
 30
0.0
 10
-7.972153543307087
 20
-3.193185039370079
 30
0.0
 10
-7.972153543307087
 20
-3.222464566929134
 30
0.0
 10
-7.972153543307087
 20
-3.222464566929134
 30
0.0
  0
SPLINE
  5
3F
330
1F
100
AcDbEntity
  8
Capa 1
 62
   250
100
AcDbSpline
210
0.0
220
0.0
230
1.0
 70
    11
 71
     3
 72
   116
 73
   112
 74
     0
 42
0.0000000001
 43
0.0000000001
 40
0.0
 40
0.0
 40
0.0
 40
0.0
 40
0.0357142857142857
 40
0.0357142857142857
 40
0.0357142857142857
 40
0.0357142857142857
 40
0.0714285714285714
 40
0.0714285714285714
 40
0.0714285714285714
 40
0.0714285714285714
 40
0.1071428571428571
 40
0.1071428571428571
 40
0.1071428571428571
 40
0.1071428571428571
 40
0.1428571428571429
 40
0.1428571428571429
 40
0.1428571428571429
 40
0.1428571428571429
 40
0.1785714285714286
 40
0.1785714285714286
 40
0.1785714285714286
 40
0.1785714285714286
 40
0.2142857142857143
 40
0.2142857142857143
 40
0.2142857142857143
 40
0.2142857142857143
 40
0.2499999999999999
 40
0.2499999999999999
 40
0.2499999999999999
 40
0.2499999999999999
 40
0.2857142857142856
 40
0.2857142857142856
 40
0.2857142857142856
 40
0.2857142857142856
 40
0.3214285714285713
 40
0.3214285714285713
 40
0.3214285714285713
 40
0.3214285714285713
 40
0.357142857142857
 40
0.357142857142857
 40
0.357142857142857
 40
0.357142857142857
 40
0.3928571428571427
 40
0.3928571428571427
 40
0.3928571428571427
 40
0.3928571428571427
 40
0.4285714285714284
 40
0.4285714285714284
 40
0.4285714285714284
 40
0.4285714285714284
 40
0.4642857142857141
 40
0.4642857142857141
 40
0.4642857142857141
 40
0.4642857142857141
 40
0.4999999999999998
 40
0.4999999999999998
 40
0.4999999999999998
 40
0.4999999999999998
 40
0.5357142857142856
 40
0.5357142857142856
 40
0.5357142857142856
 40
0.5357142857142856
 40
0.5714285714285713
 40
0.5714285714285713
 40
0.5714285714285713
 40
0.5714285714285713
 40
0.607142857142857
 40
0.607142857142857
 40
0.607142857142857
 40
0.607142857142857
 40
0.6428571428571427
 40
0.6428571428571427
 40
0.6428571428571427
 40
0.6428571428571427
 40
0.6785714285714284
 40
0.6785714285714284
 40
0.6785714285714284
 40
0.6785714285714284
 40
0.7142857142857141
 40
0.7142857142857141
 40
0.7142857142857141
 40
0.7142857142857141
 40
0.7499999999999998
 40
0.7499999999999998
 40
0.7499999999999998
 40
0.7499999999999998
 40
0.7857142857142855
 40
0.7857142857142855
 40
0.7857142857142855
 40
0.7857142857142855
 40
0.8214285714285712
 40
0.8214285714285712
 40
0.8214285714285712
 40
0.8214285714285712
 40
0.8571428571428569
 40
0.8571428571428569
 40
0.8571428571428569
 40
0.8571428571428569
 40
0.8928571428571426
 40
0.8928571428571426
 40
0.8928571428571426
 40
0.8928571428571426
 40
0.9285714285714283
 40
0.9285714285714283
 40
0.9285714285714283
 40
0.9285714285714283
 40
0.964285714285714
 40
0.964285714285714
 40
0.964285714285714
 40
0.964285714285714
 40
1.0
 40
1.0
 40
1.0
 40
1.0
 10
-7.972153543307087
 20
-2.944795275590551
 30
0.0
 10
-7.972153543307087
 20
-2.944795275590551
 30
0.0
 10
-8.144988188976379
 20
-2.944795275590551
 30
0.0
 10
-8.144988188976379
 20
-2.944795275590551
 30
0.0
 10
-8.144988188976379
 20
-2.944795275590551
 30
0.0
 10
-8.144988188976379
 20
-2.944795275590551
 30
0.0
 10
-8.144988188976379
 20
-2.918629921259843
 30
0.0
 10
-8.144988188976379
 20
-2.918629921259843
 30
0.0
 10
-8.144988188976379
 20
-2.918629921259843
 30
0.0
 10
-8.144988188976379
 20
-2.918629921259843
 30
0.0
 10
-8.120763779527559
 20
-2.918629921259843
 30
0.0
 10
-8.120763779527559
 20
-2.918629921259843
 30
0.0
 10
-8.120763779527559
 20
-2.918629921259843
 30
0.0
 10
-8.129208661417323
 20
-2.913185039370079
 30
0.0
 10
-8.136043307086615
 20
-2.90596062992126
 30
0.0
 10
-8.141153543307087
 20
-2.89696062992126
 30
0.0
 10
-8.141153543307087
 20
-2.89696062992126
 30
0.0
 10
-8.14632283464567
 20
-2.88796062992126
 30
0.0
 10
-8.148933070866143
 20
-2.877685039370079
 30
0.0
 10
-8.148933070866143
 20
-2.866185039370079
 30
0.0
 10
-8.148933070866143
 20
-2.866185039370079
 30
0.0
 10
-8.148933070866143
 20
-2.853405511811024
 30
0.0
 10
-8.14626377952756
 20
-2.842905511811024
 30
0.0
 10
-8.140933070866142
 20
-2.834740157480315
 30
0.0
 10
-8.140933070866142
 20
-2.834740157480315
 30
0.0
 10
-8.13559842519685
 20
-2.826515748031496
 30
0.0
 10
-8.128208661417324
 20
-2.820740157480315
 30
0.0
 10
-8.118653543307087
 20
-2.817405511811024
 30
0.0
 10
-8.118653543307087
 20
-2.817405511811024
 30
0.0
 10
-8.138822834645669
 20
-2.803685039370079
 30
0.0
 10
-8.148933070866143
 20
-2.785905511811024
 30
0.0
 10
-8.148933070866143
 20
-2.764015748031496
 30
0.0
 10
-8.148933070866143
 20
-2.764015748031496
 30
0.0
 10
-8.148933070866143
 20
-2.746850393700787
 30
0.0
 10
-8.144153543307088
 20
-2.733685039370079
 30
0.0
 10
-8.134653543307087
 20
-2.72446062992126
 30
0.0
 10
-8.134653543307087
 20
-2.72446062992126
 30
0.0
 10
-8.125153543307087
 20
-2.715240157480315
 30
0.0
 10
-8.110543307086614
 20
-2.710625984251969
 30
0.0
 10
-8.090818897637796
 20
-2.710625984251969
 30
0.0
 10
-8.090818897637796
 20
-2.710625984251969
 30
0.0
 10
-8.090818897637796
 20
-2.710625984251969
 30
0.0
 10
-7.972153543307087
 20
-2.710625984251969
 30
0.0
 10
-7.972153543307087
 20
-2.710625984251969
 30
0.0
 10
-7.972153543307087
 20
-2.710625984251969
 30
0.0
 10
-7.972153543307087
 20
-2.710625984251969
 30
0.0
 10
-7.972153543307087
 20
-2.739740157480315
 30
0.0
 10
-7.972153543307087
 20
-2.739740157480315
 30
0.0
 10
-7.972153543307087
 20
-2.739740157480315
 30
0.0
 10
-7.972153543307087
 20
-2.739740157480315
 30
0.0
 10
-8.081043307086615
 20
-2.739740157480315
 30
0.0
 10
-8.081043307086615
 20
-2.739740157480315
 30
0.0
 10
-8.081043307086615
 20
-2.739740157480315
 30
0.0
 10
-8.092763779527559
 20
-2.739740157480315
 30
0.0
 10
-8.101208661417322
 20
-2.740685039370079
 30
0.0
 10
-8.106377952755906
 20
-2.742570866141732
 30
0.0
 10
-8.106377952755906
 20
-2.742570866141732
 30
0.0
 10
-8.111488188976379
 20
-2.744515748031496
 30
0.0
 10
-8.115653543307086
 20
-2.74796062992126
 30
0.0
 10
-8.118818897637796
 20
-2.752905511811024
 30
0.0
 10
-8.118818897637796
 20
-2.752905511811024
 30
0.0
 10
-8.121933070866142
 20
-2.757905511811024
 30
0.0
 10
-8.123543307086614
 20
-2.763795275590551
 30
0.0
 10
-8.123543307086614
 20
-2.770515748031496
 30
0.0
 10
-8.123543307086614
 20
-2.770515748031496
 30
0.0
 10
-8.123543307086614
 20
-2.782685039370079
 30
0.0
 10
-8.119488188976378
 20
-2.792740157480315
 30
0.0
 10
-8.111377952755905
 20
-2.800795275590551
 30
0.0
 10
-8.111377952755905
 20
-2.800795275590551
 30
0.0
 10
-8.103318897637795
 20
-2.808795275590551
 30
0.0
 10
-8.090377952755906
 20
-2.812850393700788
 30
0.0
 10
-8.072598425196851
 20
-2.812850393700788
 30
0.0
 10
-8.072598425196851
 20
-2.812850393700788
 30
0.0
 10
-8.072598425196851
 20
-2.812850393700788
 30
0.0
 10
-7.972153543307087
 20
-2.812850393700788
 30
0.0
 10
-7.972153543307087
 20
-2.812850393700788
 30
0.0
 10
-7.972153543307087
 20
-2.812850393700788
 30
0.0
 10
-7.972153543307087
 20
-2.812850393700788
 30
0.0
 10
-7.972153543307087
 20
-2.842129921259843
 30
0.0
 10
-7.972153543307087
 20
-2.842129921259843
 30
0.0
 10
-7.972153543307087
 20
-2.842129921259843
 30
0.0
 10
-7.972153543307087
 20
-2.842129921259843
 30
0.0
 10
-8.084433070866142
 20
-2.842129921259843
 30
0.0
 10
-8.084433070866142
 20
-2.842129921259843
 30
0.0
 10
-8.084433070866142
 20
-2.842129921259843
 30
0.0
 10
-8.097488188976378
 20
-2.842129921259843
 30
0.0
 10
-8.107263779527559
 20
-2.844515748031496
 30
0.0
 10
-8.113763779527559
 20
-2.849295275590551
 30
0.0
 10
-8.113763779527559
 20
-2.849295275590551
 30
0.0
 10
-8.120263779527559
 20
-2.854070866141732
 30
0.0
 10
-8.123543307086614
 20
-2.861850393700788
 30
0.0
 10
-8.123543307086614
 20
-2.872740157480315
 30
0.0
 10
-8.123543307086614
 20
-2.872740157480315
 30
0.0
 10
-8.123543307086614
 20
-2.88096062992126
 30
0.0
 10
-8.121377952755905
 20
-2.888570866141732
 30
0.0
 10
-8.116988188976379
 20
-2.895570866141732
 30
0.0
 10
-8.116988188976379
 20
-2.895570866141732
 30
0.0
 10
-8.112653543307086
 20
-2.902570866141732
 30
0.0
 10
-8.106318897637795
 20
-2.907685039370079
 30
0.0
 10
-8.097988188976379
 20
-2.910795275590552
 30
0.0
 10
-8.097988188976379
 20
-2.910795275590552
 30
0.0
 10
-8.089598425196851
 20
-2.91396062992126
 30
0.0
 10
-8.077543307086614
 20
-2.915515748031496
 30
0.0
 10
-8.061818897637796
 20
-2.915515748031496
 30
0.0
 10
-8.061818897637796
 20
-2.915515748031496
 30
0.0
 10
-8.061818897637796
 20
-2.915515748031496
 30
0.0
 10
-7.972153543307087
 20
-2.915515748031496
 30
0.0
 10
-7.972153543307087
 20
-2.915515748031496
 30
0.0
 10
-7.972153543307087
 20
-2.915515748031496
 30
0.0
 10
-7.972153543307087
 20
-2.915515748031496
 30
0.0
 10
-7.972153543307087
 20
-2.944795275590551
 30
0.0
 10
-7.972153543307087
 20
-2.944795275590551
 30
0.0
  0
SPLINE
  5
40
330
1F
100
AcDbEntity
  8
Capa 1
 62
   250
370
     5
100
AcDbSpline
210
0.0
220
0.0
230
1.0
 70
    24
 71
     3
 72
     8
 73
     4
 74
     0
 42
0.0000000001
 43
0.0000000001
 40
0.0
 40
0.0
 40
0.0
 40
0.0
 40
1.0
 40
1.0
 40
1.0
 40
1.0
 10
-7.421255905511812
 20
2.048976377952756
 30
0.0
 10
-7.421255905511812
 20
2.048976377952756
 30
0.0
 10
-7.421255905511812
 20
5.056755905511811
 30
0.0
 10
-7.421255905511812
 20
5.056755905511811
 30
0.0
  0
SPLINE
  5
41
330
1F
100
AcDbEntity
  8
Capa 1
 62
   250
370
     5
100
AcDbSpline
210
0.0
220
0.0
230
1.0
 70
    24
 71
     3
 72
     8
 73
     4
 74
     0
 42
0.0000000001
 43
0.0000000001
 40
0.0
 40
0.0
 40
0.0
 40
0.0
 40
1.0
 40
1.0
 40
1.0
 40
1.0
 10
7.421259842519685
 20
0.6502952755905512
 30
0.0
 10
7.421259842519685
 20
0.6502952755905512
 30
0.0
 10
7.421259842519685
 20
5.056755905511811
 30
0.0
 10
7.421259842519685
 20
5.056755905511811
 30
0.0
  0
SPLINE
  5
42
330
1F
100
AcDbEntity
  8
Capa 1
 62
   250
370
     5
100
AcDbSpline
210
0.0
220
0.0
230
1.0
 70
    24
 71
     3
 72
     8
 73
     4
 74
     0
 42
0.0000000001
 43
0.0000000001
 40
0.0
 40
0.0
 40
0.0
 40
0.0
 40
1.0
 40
1.0
 40
1.0
 40
1.0
 10
-7.421255905511812
 20
4.856755905511811
 30
0.0
 10
-7.421255905511812
 20
4.856755905511811
 30
0.0
 10
-1.49648031496063
 20
4.856755905511811
 30
0.0
 10
-1.49648031496063
 20
4.856755905511811
 30
0.0
  0
SPLINE
  5
43
330
1F
100
AcDbEntity
  8
Capa 1
 62
   250
370
     5
100
AcDbSpline
210
0.0
220
0.0
230
1.0
 70
    24
 71
     3
 72
     8
 73
     4
 74
     0
 42
0.0000000001
 43
0.0000000001
 40
0.0
 40
0.0
 40
0.0
 40
0.0
 40
1.0
 40
1.0
 40
1.0
 40
1.0
 10
0.6495275590551182
 20
4.856755905511811
 30
0.0
 10
0.6495275590551182
 20
4.856755905511811
 30
0.0
 10
7.421259842519685
 20
4.856755905511811
 30
0.0
 10
7.421259842519685
 20
4.856755905511811
 30
0.0
  0
SPLINE
  5
44
330
1F
100
AcDbEntity
  8
Capa 1
 62
   250
100
AcDbSpline
210
0.0
220
0.0
230
1.0
 70
    11
 71
     3
 72
   124
 73
   120
 74
     0
 42
0.0000000001
 43
0.0000000001
 40
0.0
 40
0.0
 40
0.0
 40
0.0
 40
0.0333333333333333
 40
0.0333333333333333
 40
0.0333333333333333
 40
0.0333333333333333
 40
0.0666666666666667
 40
0.0666666666666667
 40
0.0666666666666667
 40
0.0666666666666667
 40
0.1
 40
0.1
 40
0.1
 40
0.1
 40
0.1333333333333333
 40
0.1333333333333333
 40
0.1333333333333333
 40
0.1333333333333333
 40
0.1666666666666667
 40
0.1666666666666667
 40
0.1666666666666667
 40
0.1666666666666667
 40
0.2
 40
0.2
 40
0.2
 40
0.2
 40
0.2333333333333333
 40
0.2333333333333333
 40
0.2333333333333333
 40
0.2333333333333333
 40
0.2666666666666667
 40
0.2666666666666667
 40
0.2666666666666667
 40
0.2666666666666667
 40
0.3
 40
0.3
 40
0.3
 40
0.3
 40
0.3333333333333333
 40
0.3333333333333333
 40
0.3333333333333333
 40
0.3333333333333333
 40
0.3666666666666666
 40
0.3666666666666666
 40
0.3666666666666666
 40
0.3666666666666666
 40
0.4
 40
0.4
 40
0.4
 40
0.4
 40
0.4333333333333333
 40
0.4333333333333333
 40
0.4333333333333333
 40
0.4333333333333333
 40
0.4666666666666666
 40
0.4666666666666666
 40
0.4666666666666666
 40
0.4666666666666666
 40
0.4999999999999999
 40
0.4999999999999999
 40
0.4999999999999999
 40
0.4999999999999999
 40
0.5333333333333333
 40
0.5333333333333333
 40
0.5333333333333333
 40
0.5333333333333333
 40
0.5666666666666667
 40
0.5666666666666667
 40
0.5666666666666667
 40
0.5666666666666667
 40
0.6
 40
0.6
 40
0.6
 40
0.6
 40
0.6333333333333333
 40
0.6333333333333333
 40
0.6333333333333333
 40
0.6333333333333333
 40
0.6666666666666666
 40
0.6666666666666666
 40
0.6666666666666666
 40
0.6666666666666666
 40
0.7
 40
0.7
 40
0.7
 40
0.7
 40
0.7333333333333333
 40
0.7333333333333333
 40
0.7333333333333333
 40
0.7333333333333333
 40
0.7666666666666666
 40
0.7666666666666666
 40
0.7666666666666666
 40
0.7666666666666666
 40
0.7999999999999999
 40
0.7999999999999999
 40
0.7999999999999999
 40
0.7999999999999999
 40
0.8333333333333333
 40
0.8333333333333333
 40
0.8333333333333333
 40
0.8333333333333333
 40
0.8666666666666666
 40
0.8666666666666666
 40
0.8666666666666666
 40
0.8666666666666666
 40
0.8999999999999999
 40
0.8999999999999999
 40
0.8999999999999999
 40
0.8999999999999999
 40
0.9333333333333332
 40
0.9333333333333332
 40
0.9333333333333332
 40
0.9333333333333332
 40
0.9666666666666666
 40
0.9666666666666666
 40
0.9666666666666666
 40
0.9666666666666666
 40
1.0
 40
1.0
 40
1.0
 40
1.0
 10
-1.23248031496063
 20
4.802062992125984
 30
0.0
 10
-1.23248031496063
 20
4.802062992125984
 30
0.0
 10
-1.203200787401575
 20
4.805952755905512
 30
0.0
 10
-1.203200787401575
 20
4.805952755905512
 30
0.0
 10
-1.203200787401575
 20
4.805952755905512
 30
0.0
 10
-1.199814960629921
 20
4.789342519685039
 30
0.0
 10
-1.194090551181102
 20
4.777397637795276
 30
0.0
 10
-1.186035433070866
 20
4.770062992125984
 30
0.0
 10
-1.186035433070866
 20
4.770062992125984
 30
0.0
 10
-1.177925196850394
 20
4.762728346456693
 30
0.0
 10
-1.168090551181102
 20
4.759062992125984
 30
0.0
 10
-1.15648031496063
 20
4.759062992125984
 30
0.0
 10
-1.15648031496063
 20
4.759062992125984
 30
0.0
 10
-1.142700787401575
 20
4.759062992125984
 30
0.0
 10
-1.131035433070866
 20
4.763842519685039
 30
0.0
 10
-1.121535433070866
 20
4.773397637795275
 30
0.0
 10
-1.121535433070866
 20
4.773397637795275
 30
0.0
 10
-1.112090551181102
 20
4.782952755905512
 30
0.0
 10
-1.107314960629921
 20
4.794787401574803
 30
0.0
 10
-1.107314960629921
 20
4.808897637795276
 30
0.0
 10
-1.107314960629921
 20
4.808897637795276
 30
0.0
 10
-1.107314960629921
 20
4.82234251968504
 30
0.0
 10
-1.111700787401575
 20
4.833452755905512
 30
0.0
 10
-1.12048031496063
 20
4.842173228346457
 30
0.0
 10
-1.12048031496063
 20
4.842173228346457
 30
0.0
 10
-1.129314960629921
 20
4.850897637795276
 30
0.0
 10
-1.14048031496063
 20
4.855287401574803
 30
0.0
 10
-1.154035433070866
 20
4.855287401574803
 30
0.0
 10
-1.154035433070866
 20
4.855287401574803
 30
0.0
 10
-1.159590551181102
 20
4.855287401574803
 30
0.0
 10
-1.16648031496063
 20
4.854173228346457
 30
0.0
 10
-1.174700787401575
 20
4.852007874015748
 30
0.0
 10
-1.174700787401575
 20
4.852007874015748
 30
0.0
 10
-1.174700787401575
 20
4.852007874015748
 30
0.0
 10
-1.171425196850394
 20
4.877728346456693
 30
0.0
 10
-1.171425196850394
 20
4.877728346456693
 30
0.0
 10
-1.171425196850394
 20
4.877728346456693
 30
0.0
 10
-1.16948031496063
 20
4.877507874015748
 30
0.0
 10
-1.167925196850394
 20
4.877397637795276
 30
0.0
 10
-1.166700787401575
 20
4.877397637795276
 30
0.0
 10
-1.166700787401575
 20
4.877397637795276
 30
0.0
 10
-1.154255905511811
 20
4.877397637795276
 30
0.0
 10
-1.143035433070866
 20
4.880673228346457
 30
0.0
 10
-1.133035433070866
 20
4.887173228346457
 30
0.0
 10
-1.133035433070866
 20
4.887173228346457
 30
0.0
 10
-1.123035433070866
 20
4.893673228346457
 30
0.0
 10
-1.118035433070866
 20
4.903728346456693
 30
0.0
 10
-1.118035433070866
 20
4.917287401574804
 30
0.0
 10
-1.118035433070866
 20
4.917287401574804
 30
0.0
 10
-1.118035433070866
 20
4.928007874015748
 30
0.0
 10
-1.121700787401575
 20
4.936952755905512
 30
0.0
 10
-1.12898031496063
 20
4.943952755905512
 30
0.0
 10
-1.12898031496063
 20
4.943952755905512
 30
0.0
 10
-1.136255905511811
 20
4.951007874015748
 30
0.0
 10
-1.145645669291339
 20
4.954562992125984
 30
0.0
 10
-1.157145669291339
 20
4.954562992125984
 30
0.0
 10
-1.157145669291339
 20
4.954562992125984
 30
0.0
 10
-1.168535433070866
 20
4.954562992125984
 30
0.0
 10
-1.178035433070866
 20
4.950952755905512
 30
0.0
 10
-1.185590551181103
 20
4.94384251968504
 30
0.0
 10
-1.185590551181103
 20
4.94384251968504
 30
0.0
 10
-1.193200787401575
 20
4.936673228346457
 30
0.0
 10
-1.198090551181102
 20
4.925897637795276
 30
0.0
 10
-1.200259842519685
 20
4.911562992125984
 30
0.0
 10
-1.200259842519685
 20
4.911562992125984
 30
0.0
 10
-1.200259842519685
 20
4.911562992125984
 30
0.0
 10
-1.229535433070866
 20
4.916787401574803
 30
0.0
 10
-1.229535433070866
 20
4.916787401574803
 30
0.0
 10
-1.229535433070866
 20
4.916787401574803
 30
0.0
 10
-1.22598031496063
 20
4.936452755905512
 30
0.0
 10
-1.217814960629921
 20
4.951673228346457
 30
0.0
 10
-1.205145669291339
 20
4.962452755905512
 30
0.0
 10
-1.205145669291339
 20
4.962452755905512
 30
0.0
 10
-1.192425196850394
 20
4.973232283464567
 30
0.0
 10
-1.176645669291339
 20
4.978673228346457
 30
0.0
 10
-1.157755905511811
 20
4.978673228346457
 30
0.0
 10
-1.157755905511811
 20
4.978673228346457
 30
0.0
 10
-1.144755905511811
 20
4.978673228346457
 30
0.0
 10
-1.132755905511811
 20
4.97584251968504
 30
0.0
 10
-1.121814960629921
 20
4.970287401574804
 30
0.0
 10
-1.121814960629921
 20
4.970287401574804
 30
0.0
 10
-1.110870078740158
 20
4.964673228346457
 30
0.0
 10
-1.10248031496063
 20
4.957062992125985
 30
0.0
 10
-1.096645669291339
 20
4.947397637795276
 30
0.0
 10
-1.096645669291339
 20
4.947397637795276
 30
0.0
 10
-1.090870078740158
 20
4.937732283464567
 30
0.0
 10
-1.087925196850394
 20
4.927507874015748
 30
0.0
 10
-1.087925196850394
 20
4.916618110236221
 30
0.0
 10
-1.087925196850394
 20
4.916618110236221
 30
0.0
 10
-1.087925196850394
 20
4.906342519685039
 30
0.0
 10
-1.090700787401575
 20
4.896952755905512
 30
0.0
 10
-1.096255905511811
 20
4.888452755905512
 30
0.0
 10
-1.096255905511811
 20
4.888452755905512
 30
0.0
 10
-1.101814960629921
 20
4.880007874015749
 30
0.0
 10
-1.10998031496063
 20
4.873287401574803
 30
0.0
 10
-1.120814960629921
 20
4.868287401574803
 30
0.0
 10
-1.120814960629921
 20
4.868287401574803
 30
0.0
 10
-1.106700787401575
 20
4.865062992125984
 30
0.0
 10
-1.095755905511811
 20
4.858287401574803
 30
0.0
 10
-1.087925196850394
 20
4.848007874015749
 30
0.0
 10
-1.087925196850394
 20
4.848007874015749
 30
0.0
 10
-1.080145669291339
 20
4.837787401574803
 30
0.0
 10
-1.076255905511811
 20
4.824952755905512
 30
0.0
 10
-1.076255905511811
 20
4.809562992125985
 30
0.0
 10
-1.076255905511811
 20
4.809562992125985
 30
0.0
 10
-1.076255905511811
 20
4.788728346456693
 30
0.0
 10
-1.083814960629921
 20
4.771062992125985
 30
0.0
 10
-1.099035433070866
 20
4.756562992125985
 30
0.0
 10
-1.099035433070866
 20
4.756562992125985
 30
0.0
 10
-1.114200787401575
 20
4.742062992125985
 30
0.0
 10
-1.133425196850394
 20
4.734842519685039
 30
0.0
 10
-1.156645669291339
 20
4.734842519685039
 30
0.0
 10
-1.156645669291339
 20
4.734842519685039
 30
0.0
 10
-1.177590551181103
 20
4.734842519685039
 30
0.0
 10
-1.19498031496063
 20
4.741062992125984
 30
0.0
 10
-1.208814960629921
 20
4.753562992125985
 30
0.0
 10
-1.208814960629921
 20
4.753562992125985
 30
0.0
 10
-1.222645669291339
 20
4.766007874015748
 30
0.0
 10
-1.230535433070866
 20
4.782173228346457
 30
0.0
 10
-1.23248031496063
 20
4.802062992125984
 30
0.0
  0
SPLINE
  5
45
330
1F
100
AcDbEntity
  8
Capa 1
 62
   250
100
AcDbSpline
210
0.0
220
0.0
230
1.0
 70
    11
 71
     3
 72
    48
 73
    44
 74
     0
 42
0.0000000001
 43
0.0000000001
 40
0.0
 40
0.0
 40
0.0
 40
0.0
 40
0.0909090909090909
 40
0.0909090909090909
 40
0.0909090909090909
 40
0.0909090909090909
 40
0.1818181818181818
 40
0.1818181818181818
 40
0.1818181818181818
 40
0.1818181818181818
 40
0.2727272727272727
 40
0.2727272727272727
 40
0.2727272727272727
 40
0.2727272727272727
 40
0.3636363636363637
 40
0.3636363636363637
 40
0.3636363636363637
 40
0.3636363636363637
 40
0.4545454545454546
 40
0.4545454545454546
 40
0.4545454545454546
 40
0.4545454545454546
 40
0.5454545454545455
 40
0.5454545454545455
 40
0.5454545454545455
 40
0.5454545454545455
 40
0.6363636363636365
 40
0.6363636363636365
 40
0.6363636363636365
 40
0.6363636363636365
 40
0.7272727272727274
 40
0.7272727272727274
 40
0.7272727272727274
 40
0.7272727272727274
 40
0.8181818181818183
 40
0.8181818181818183
 40
0.8181818181818183
 40
0.8181818181818183
 40
0.9090909090909093
 40
0.9090909090909093
 40
0.9090909090909093
 40
0.9090909090909093
 40
1.0
 40
1.0
 40
1.0
 40
1.0
 10
-1.045311023622047
 20
4.946397637795275
 30
0.0
 10
-1.045311023622047
 20
4.946397637795275
 30
0.0
 10
-1.045311023622047
 20
4.974562992125985
 30
0.0
 10
-1.045311023622047
 20
4.974562992125985
 30
0.0
 10
-1.045311023622047
 20
4.974562992125985
 30
0.0
 10
-1.045311023622047
 20
4.974562992125985
 30
0.0
 10
-0.8908661417322835
 20
4.974562992125985
 30
0.0
 10
-0.8908661417322835
 20
4.974562992125985
 30
0.0
 10
-0.8908661417322835
 20
4.974562992125985
 30
0.0
 10
-0.8908661417322835
 20
4.974562992125985
 30
0.0
 10
-0.8908661417322835
 20
4.951787401574803
 30
0.0
 10
-0.8908661417322835
 20
4.951787401574803
 30
0.0
 10
-0.8908661417322835
 20
4.951787401574803
 30
0.0
 10
-0.9060354330708662
 20
4.935618110236221
 30
0.0
 10
-0.9210905511811024
 20
4.91411811023622
 30
0.0
 10
-0.9360354330708662
 20
4.887342519685039
 30
0.0
 10
-0.9360354330708662
 20
4.887342519685039
 30
0.0
 10
-0.9509251968503938
 20
4.860562992125985
 30
0.0
 10
-0.9624803149606299
 20
4.832952755905512
 30
0.0
 10
-0.9705905511811024
 20
4.804673228346457
 30
0.0
 10
-0.9705905511811024
 20
4.804673228346457
 30
0.0
 10
-0.9764803149606299
 20
4.784673228346457
 30
0.0
 10
-0.9802007874015748
 20
4.76284251968504
 30
0.0
 10
-0.9818110236220473
 20
4.739062992125985
 30
0.0
 10
-0.9818110236220473
 20
4.739062992125985
 30
0.0
 10
-0.9818110236220473
 20
4.739062992125985
 30
0.0
 10
-1.011925196850394
 20
4.739062992125985
 30
0.0
 10
-1.011925196850394
 20
4.739062992125985
 30
0.0
 10
-1.011925196850394
 20
4.739062992125985
 30
0.0
 10
-1.011590551181102
 20
4.757842519685039
 30
0.0
 10
-1.007925196850394
 20
4.780507874015748
 30
0.0
 10
-1.000866141732284
 20
4.807118110236221
 30
0.0
 10
-1.000866141732284
 20
4.807118110236221
 30
0.0
 10
-0.9938110236220473
 20
4.833673228346457
 30
0.0
 10
-0.9837007874015749
 20
4.85934251968504
 30
0.0
 10
-0.9705354330708662
 20
4.884007874015748
 30
0.0
 10
-0.9705354330708662
 20
4.884007874015748
 30
0.0
 10
-0.9573110236220472
 20
4.908673228346457
 30
0.0
 10
-0.9433110236220473
 20
4.929507874015748
 30
0.0
 10
-0.9284251968503937
 20
4.946397637795275
 30
0.0
 10
-0.9284251968503937
 20
4.946397637795275
 30
0.0
 10
-0.9284251968503937
 20
4.946397637795275
 30
0.0
 10
-1.045311023622047
 20
4.946397637795275
 30
0.0
 10
-1.045311023622047
 20
4.946397637795275
 30
0.0
  0
SPLINE
  5
46
330
1F
100
AcDbEntity
  8
Capa 1
 62
   250
100
AcDbSpline
210
0.0
220
0.0
230
1.0
 70
    11
 71
     3
 72
    48
 73
    44
 74
     0
 42
0.0000000001
 43
0.0000000001
 40
0.0
 40
0.0
 40
0.0
 40
0.0
 40
0.0909090909090909
 40
0.0909090909090909
 40
0.0909090909090909
 40
0.0909090909090909
 40
0.1818181818181818
 40
0.1818181818181818
 40
0.1818181818181818
 40
0.1818181818181818
 40
0.2727272727272727
 40
0.2727272727272727
 40
0.2727272727272727
 40
0.2727272727272727
 40
0.3636363636363637
 40
0.3636363636363637
 40
0.3636363636363637
 40
0.3636363636363637
 40
0.4545454545454546
 40
0.4545454545454546
 40
0.4545454545454546
 40
0.4545454545454546
 40
0.5454545454545455
 40
0.5454545454545455
 40
0.5454545454545455
 40
0.5454545454545455
 40
0.6363636363636365
 40
0.6363636363636365
 40
0.6363636363636365
 40
0.6363636363636365
 40
0.7272727272727274
 40
0.7272727272727274
 40
0.7272727272727274
 40
0.7272727272727274
 40
0.8181818181818183
 40
0.8181818181818183
 40
0.8181818181818183
 40
0.8181818181818183
 40
0.9090909090909093
 40
0.9090909090909093
 40
0.9090909090909093
 40
0.9090909090909093
 40
1.0
 40
1.0
 40
1.0
 40
1.0
 10
-0.8599212598425198
 20
4.946397637795275
 30
0.0
 10
-0.8599212598425198
 20
4.946397637795275
 30
0.0
 10
-0.8599212598425198
 20
4.974562992125985
 30
0.0
 10
-0.8599212598425198
 20
4.974562992125985
 30
0.0
 10
-0.8599212598425198
 20
4.974562992125985
 30
0.0
 10
-0.8599212598425198
 20
4.974562992125985
 30
0.0
 10
-0.705476377952756
 20
4.974562992125985
 30
0.0
 10
-0.705476377952756
 20
4.974562992125985
 30
0.0
 10
-0.705476377952756
 20
4.974562992125985
 30
0.0
 10
-0.705476377952756
 20
4.974562992125985
 30
0.0
 10
-0.705476377952756
 20
4.951787401574803
 30
0.0
 10
-0.705476377952756
 20
4.951787401574803
 30
0.0
 10
-0.705476377952756
 20
4.951787401574803
 30
0.0
 10
-0.7206456692913387
 20
4.935618110236221
 30
0.0
 10
-0.7357007874015749
 20
4.91411811023622
 30
0.0
 10
-0.7506456692913386
 20
4.887342519685039
 30
0.0
 10
-0.7506456692913386
 20
4.887342519685039
 30
0.0
 10
-0.7655354330708661
 20
4.860562992125985
 30
0.0
 10
-0.7770905511811024
 20
4.832952755905512
 30
0.0
 10
-0.7852007874015748
 20
4.804673228346457
 30
0.0
 10
-0.7852007874015748
 20
4.804673228346457
 30
0.0
 10
-0.7910905511811024
 20
4.784673228346457
 30
0.0
 10
-0.7948110236220473
 20
4.76284251968504
 30
0.0
 10
-0.7964212598425198
 20
4.739062992125985
 30
0.0
 10
-0.7964212598425198
 20
4.739062992125985
 30
0.0
 10
-0.7964212598425198
 20
4.739062992125985
 30
0.0
 10
-0.8265354330708662
 20
4.739062992125985
 30
0.0
 10
-0.8265354330708662
 20
4.739062992125985
 30
0.0
 10
-0.8265354330708662
 20
4.739062992125985
 30
0.0
 10
-0.8262007874015749
 20
4.757842519685039
 30
0.0
 10
-0.8225354330708662
 20
4.780507874015748
 30
0.0
 10
-0.815476377952756
 20
4.807118110236221
 30
0.0
 10
-0.815476377952756
 20
4.807118110236221
 30
0.0
 10
-0.8084212598425197
 20
4.833673228346457
 30
0.0
 10
-0.7983110236220473
 20
4.85934251968504
 30
0.0
 10
-0.7851456692913387
 20
4.884007874015748
 30
0.0
 10
-0.7851456692913387
 20
4.884007874015748
 30
0.0
 10
-0.7719212598425197
 20
4.908673228346457
 30
0.0
 10
-0.7579212598425197
 20
4.929507874015748
 30
0.0
 10
-0.7430354330708662
 20
4.946397637795275
 30
0.0
 10
-0.7430354330708662
 20
4.946397637795275
 30
0.0
 10
-0.7430354330708662
 20
4.946397637795275
 30
0.0
 10
-0.8599212598425198
 20
4.946397637795275
 30
0.0
 10
-0.8599212598425198
 20
4.946397637795275
 30
0.0
  0
SPLINE
  5
47
330
1F
100
AcDbEntity
  8
Capa 1
 62
   250
100
AcDbSpline
210
0.0
220
0.0
230
1.0
 70
    11
 71
     3
 72
    20
 73
    16
 74
     0
 42
0.0000000001
 43
0.0000000001
 40
0.0
 40
0.0
 40
0.0
 40
0.0
 40
0.25
 40
0.25
 40
0.25
 40
0.25
 40
0.5
 40
0.5
 40
0.5
 40
0.5
 40
0.75
 40
0.75
 40
0.75
 40
0.75
 40
1.0
 40
1.0
 40
1.0
 40
1.0
 10
-0.6600314960629922
 20
4.739062992125985
 30
0.0
 10
-0.6600314960629922
 20
4.739062992125985
 30
0.0
 10
-0.6600314960629922
 20
4.772452755905512
 30
0.0
 10
-0.6600314960629922
 20
4.772452755905512
 30
0.0
 10
-0.6600314960629922
 20
4.772452755905512
 30
0.0
 10
-0.6600314960629922
 20
4.772452755905512
 30
0.0
 10
-0.6266456692913386
 20
4.772452755905512
 30
0.0
 10
-0.6266456692913386
 20
4.772452755905512
 30
0.0
 10
-0.6266456692913386
 20
4.772452755905512
 30
0.0
 10
-0.6266456692913386
 20
4.772452755905512
 30
0.0
 10
-0.6266456692913386
 20
4.739062992125985
 30
0.0
 10
-0.6266456692913386
 20
4.739062992125985
 30
0.0
 10
-0.6266456692913386
 20
4.739062992125985
 30
0.0
 10
-0.6266456692913386
 20
4.739062992125985
 30
0.0
 10
-0.6600314960629922
 20
4.739062992125985
 30
0.0
 10
-0.6600314960629922
 20
4.739062992125985
 30
0.0
  0
SPLINE
  5
48
330
1F
100
AcDbEntity
  8
Capa 1
 62
   250
100
AcDbSpline
210
0.0
220
0.0
230
1.0
 70
    11
 71
     3
 72
    52
 73
    48
 74
     0
 42
0.0000000001
 43
0.0000000001
 40
0.0
 40
0.0
 40
0.0
 40
0.0
 40
0.0833333333333333
 40
0.0833333333333333
 40
0.0833333333333333
 40
0.0833333333333333
 40
0.1666666666666667
 40
0.1666666666666667
 40
0.1666666666666667
 40
0.1666666666666667
 40
0.25
 40
0.25
 40
0.25
 40
0.25
 40
0.3333333333333333
 40
0.3333333333333333
 40
0.3333333333333333
 40
0.3333333333333333
 40
0.4166666666666666
 40
0.4166666666666666
 40
0.4166666666666666
 40
0.4166666666666666
 40
0.4999999999999999
 40
0.4999999999999999
 40
0.4999999999999999
 40
0.4999999999999999
 40
0.5833333333333333
 40
0.5833333333333333
 40
0.5833333333333333
 40
0.5833333333333333
 40
0.6666666666666666
 40
0.6666666666666666
 40
0.6666666666666666
 40
0.6666666666666666
 40
0.75
 40
0.75
 40
0.75
 40
0.75
 40
0.8333333333333334
 40
0.8333333333333334
 40
0.8333333333333334
 40
0.8333333333333334
 40
0.9166666666666667
 40
0.9166666666666667
 40
0.9166666666666667
 40
0.9166666666666667
 40
1.0
 40
1.0
 40
1.0
 40
1.0
 10
-0.5838661417322835
 20
4.856728346456693
 30
0.0
 10
-0.5838661417322835
 20
4.884952755905512
 30
0.0
 10
-0.58098031496063
 20
4.907673228346457
 30
0.0
 10
-0.5751456692913386
 20
4.92484251968504
 30
0.0
 10
-0.5751456692913386
 20
4.92484251968504
 30
0.0
 10
-0.5693661417322835
 20
4.942062992125985
 30
0.0
 10
-0.5607007874015748
 20
4.95534251968504
 30
0.0
 10
-0.549255905511811
 20
4.964673228346457
 30
0.0
 10
-0.549255905511811
 20
4.964673228346457
 30
0.0
 10
-0.5378110236220473
 20
4.974007874015748
 30
0.0
 10
-0.5234212598425198
 20
4.978673228346457
 30
0.0
 10
-0.5060905511811024
 20
4.978673228346457
 30
0.0
 10
-0.5060905511811024
 20
4.978673228346457
 30
0.0
 10
-0.493255905511811
 20
4.978673228346457
 30
0.0
 10
-0.4820354330708662
 20
4.976062992125985
 30
0.0
 10
-0.4723661417322835
 20
4.970897637795276
 30
0.0
 10
-0.4723661417322835
 20
4.970897637795276
 30
0.0
 10
-0.4627007874015748
 20
4.965787401574803
 30
0.0
 10
-0.4547559055118111
 20
4.95834251968504
 30
0.0
 10
-0.4484212598425197
 20
4.948618110236221
 30
0.0
 10
-0.4484212598425197
 20
4.948618110236221
 30
0.0
 10
-0.4421456692913386
 20
4.938897637795276
 30
0.0
 10
-0.4372007874015748
 20
4.927062992125984
 30
0.0
 10
-0.4336456692913386
 20
4.913118110236221
 30
0.0
 10
-0.4336456692913386
 20
4.913118110236221
 30
0.0
 10
-0.4300314960629921
 20
4.899173228346457
 30
0.0
 10
-0.428255905511811
 20
4.880397637795276
 30
0.0
 10
-0.428255905511811
 20
4.856728346456693
 30
0.0
 10
-0.428255905511811
 20
4.856728346456693
 30
0.0
 10
-0.428255905511811
 20
4.828728346456694
 30
0.0
 10
-0.4311456692913386
 20
4.806173228346457
 30
0.0
 10
-0.4368661417322835
 20
4.788952755905512
 30
0.0
 10
-0.4368661417322835
 20
4.788952755905512
 30
0.0
 10
-0.4426456692913386
 20
4.771728346456693
 30
0.0
 10
-0.4512559055118111
 20
4.758452755905512
 30
0.0
 10
-0.4627007874015748
 20
4.749062992125984
 30
0.0
 10
-0.4627007874015748
 20
4.749062992125984
 30
0.0
 10
-0.4741456692913386
 20
4.739673228346457
 30
0.0
 10
-0.4885905511811024
 20
4.735007874015748
 30
0.0
 10
-0.5060905511811024
 20
4.735007874015748
 30
0.0
 10
-0.5060905511811024
 20
4.735007874015748
 30
0.0
 10
-0.5290905511811024
 20
4.735007874015748
 30
0.0
 10
-0.5471456692913386
 20
4.743228346456693
 30
0.0
 10
-0.560255905511811
 20
4.759728346456694
 30
0.0
 10
-0.560255905511811
 20
4.759728346456694
 30
0.0
 10
-0.57598031496063
 20
4.779562992125984
 30
0.0
 10
-0.5838661417322835
 20
4.811952755905512
 30
0.0
 10
-0.5838661417322835
 20
4.856728346456693
 30
0.0
  0
SPLINE
  5
49
330
1F
100
AcDbEntity
  8
Capa 1
 62
   250
100
AcDbSpline
210
0.0
220
0.0
230
1.0
 70
    11
 71
     3
 72
    36
 73
    32
 74
     0
 42
0.0000000001
 43
0.0000000001
 40
0.0
 40
0.0
 40
0.0
 40
0.0
 40
0.125
 40
0.125
 40
0.125
 40
0.125
 40
0.25
 40
0.25
 40
0.25
 40
0.25
 40
0.375
 40
0.375
 40
0.375
 40
0.375
 40
0.5
 40
0.5
 40
0.5
 40
0.5
 40
0.625
 40
0.625
 40
0.625
 40
0.625
 40
0.75
 40
0.75
 40
0.75
 40
0.75
 40
0.875
 40
0.875
 40
0.875
 40
0.875
 40
1.0
 40
1.0
 40
1.0
 40
1.0
 10
-0.5537559055118111
 20
4.856728346456693
 30
0.0
 10
-0.5537559055118111
 20
4.817562992125985
 30
0.0
 10
-0.5491456692913386
 20
4.791507874015748
 30
0.0
 10
-0.5399763779527559
 20
4.778507874015748
 30
0.0
 10
-0.5399763779527559
 20
4.778507874015748
 30
0.0
 10
-0.5308110236220472
 20
4.765562992125984
 30
0.0
 10
-0.5195354330708661
 20
4.759062992125984
 30
0.0
 10
-0.5060905511811024
 20
4.759062992125984
 30
0.0
 10
-0.5060905511811024
 20
4.759062992125984
 30
0.0
 10
-0.4925905511811024
 20
4.759062992125984
 30
0.0
 10
-0.4813110236220473
 20
4.765618110236221
 30
0.0
 10
-0.4721456692913386
 20
4.778618110236221
 30
0.0
 10
-0.4721456692913386
 20
4.778618110236221
 30
0.0
 10
-0.4629763779527559
 20
4.791618110236221
 30
0.0
 10
-0.4583661417322835
 20
4.817673228346457
 30
0.0
 10
-0.4583661417322835
 20
4.856728346456693
 30
0.0
 10
-0.4583661417322835
 20
4.856728346456693
 30
0.0
 10
-0.4583661417322835
 20
4.896007874015748
 30
0.0
 10
-0.4629763779527559
 20
4.92211811023622
 30
0.0
 10
-0.4721456692913386
 20
4.935007874015748
 30
0.0
 10
-0.4721456692913386
 20
4.935007874015748
 30
0.0
 10
-0.4813110236220473
 20
4.947952755905512
 30
0.0
 10
-0.4927007874015748
 20
4.954397637795275
 30
0.0
 10
-0.5063661417322835
 20
4.954397637795275
 30
0.0
 10
-0.5063661417322835
 20
4.954397637795275
 30
0.0
 10
-0.5198661417322835
 20
4.954397637795275
 30
0.0
 10
-0.5305905511811024
 20
4.948673228346457
 30
0.0
 10
-0.5386456692913386
 20
4.937287401574803
 30
0.0
 10
-0.5386456692913386
 20
4.937287401574803
 30
0.0
 10
-0.5487007874015748
 20
4.922787401574803
 30
0.0
 10
-0.5537559055118111
 20
4.895897637795276
 30
0.0
 10
-0.5537559055118111
 20
4.856728346456693
 30
0.0
  0
SPLINE
  5
4A
330
1F
100
AcDbEntity
  8
Capa 1
 62
   250
100
AcDbSpline
210
0.0
220
0.0
230
1.0
 70
    11
 71
     3
 72
    52
 73
    48
 74
     0
 42
0.0000000001
 43
0.0000000001
 40
0.0
 40
0.0
 40
0.0
 40
0.0
 40
0.0833333333333333
 40
0.0833333333333333
 40
0.0833333333333333
 40
0.0833333333333333
 40
0.1666666666666667
 40
0.1666666666666667
 40
0.1666666666666667
 40
0.1666666666666667
 40
0.25
 40
0.25
 40
0.25
 40
0.25
 40
0.3333333333333333
 40
0.3333333333333333
 40
0.3333333333333333
 40
0.3333333333333333
 40
0.4166666666666666
 40
0.4166666666666666
 40
0.4166666666666666
 40
0.4166666666666666
 40
0.4999999999999999
 40
0.4999999999999999
 40
0.4999999999999999
 40
0.4999999999999999
 40
0.5833333333333333
 40
0.5833333333333333
 40
0.5833333333333333
 40
0.5833333333333333
 40
0.6666666666666666
 40
0.6666666666666666
 40
0.6666666666666666
 40
0.6666666666666666
 40
0.75
 40
0.75
 40
0.75
 40
0.75
 40
0.8333333333333334
 40
0.8333333333333334
 40
0.8333333333333334
 40
0.8333333333333334
 40
0.9166666666666667
 40
0.9166666666666667
 40
0.9166666666666667
 40
0.9166666666666667
 40
1.0
 40
1.0
 40
1.0
 40
1.0
 10
-0.3984763779527559
 20
4.856728346456693
 30
0.0
 10
-0.3984763779527559
 20
4.884952755905512
 30
0.0
 10
-0.3955905511811024
 20
4.907673228346457
 30
0.0
 10
-0.3897559055118111
 20
4.92484251968504
 30
0.0
 10
-0.3897559055118111
 20
4.92484251968504
 30
0.0
 10
-0.3839763779527559
 20
4.942062992125985
 30
0.0
 10
-0.3753110236220473
 20
4.95534251968504
 30
0.0
 10
-0.3638661417322835
 20
4.964673228346457
 30
0.0
 10
-0.3638661417322835
 20
4.964673228346457
 30
0.0
 10
-0.3524212598425197
 20
4.974007874015748
 30
0.0
 10
-0.3380314960629922
 20
4.978673228346457
 30
0.0
 10
-0.3207007874015748
 20
4.978673228346457
 30
0.0
 10
-0.3207007874015748
 20
4.978673228346457
 30
0.0
 10
-0.3078661417322835
 20
4.978673228346457
 30
0.0
 10
-0.2966456692913386
 20
4.976062992125985
 30
0.0
 10
-0.2869763779527559
 20
4.970897637795276
 30
0.0
 10
-0.2869763779527559
 20
4.970897637795276
 30
0.0
 10
-0.2773110236220472
 20
4.965787401574803
 30
0.0
 10
-0.2693661417322835
 20
4.95834251968504
 30
0.0
 10
-0.2630314960629921
 20
4.948618110236221
 30
0.0
 10
-0.2630314960629921
 20
4.948618110236221
 30
0.0
 10
-0.256755905511811
 20
4.938897637795276
 30
0.0
 10
-0.2518110236220473
 20
4.927062992125984
 30
0.0
 10
-0.248255905511811
 20
4.913118110236221
 30
0.0
 10
-0.248255905511811
 20
4.913118110236221
 30
0.0
 10
-0.2446417322834646
 20
4.899173228346457
 30
0.0
 10
-0.2428661417322835
 20
4.880397637795276
 30
0.0
 10
-0.2428661417322835
 20
4.856728346456693
 30
0.0
 10
-0.2428661417322835
 20
4.856728346456693
 30
0.0
 10
-0.2428661417322835
 20
4.828728346456694
 30
0.0
 10
-0.245755905511811
 20
4.806173228346457
 30
0.0
 10
-0.2514763779527559
 20
4.788952755905512
 30
0.0
 10
-0.2514763779527559
 20
4.788952755905512
 30
0.0
 10
-0.257255905511811
 20
4.771728346456693
 30
0.0
 10
-0.2658661417322835
 20
4.758452755905512
 30
0.0
 10
-0.2773110236220472
 20
4.749062992125984
 30
0.0
 10
-0.2773110236220472
 20
4.749062992125984
 30
0.0
 10
-0.288755905511811
 20
4.739673228346457
 30
0.0
 10
-0.3032007874015748
 20
4.735007874015748
 30
0.0
 10
-0.3207007874015748
 20
4.735007874015748
 30
0.0
 10
-0.3207007874015748
 20
4.735007874015748
 30
0.0
 10
-0.3437007874015748
 20
4.735007874015748
 30
0.0
 10
-0.361755905511811
 20
4.743228346456693
 30
0.0
 10
-0.3748661417322835
 20
4.759728346456694
 30
0.0
 10
-0.3748661417322835
 20
4.759728346456694
 30
0.0
 10
-0.3905905511811024
 20
4.779562992125984
 30
0.0
 10
-0.3984763779527559
 20
4.811952755905512
 30
0.0
 10
-0.3984763779527559
 20
4.856728346456693
 30
0.0
  0
SPLINE
  5
4B
330
1F
100
AcDbEntity
  8
Capa 1
 62
   250
100
AcDbSpline
210
0.0
220
0.0
230
1.0
 70
    11
 71
     3
 72
    36
 73
    32
 74
     0
 42
0.0000000001
 43
0.0000000001
 40
0.0
 40
0.0
 40
0.0
 40
0.0
 40
0.125
 40
0.125
 40
0.125
 40
0.125
 40
0.25
 40
0.25
 40
0.25
 40
0.25
 40
0.375
 40
0.375
 40
0.375
 40
0.375
 40
0.5
 40
0.5
 40
0.5
 40
0.5
 40
0.625
 40
0.625
 40
0.625
 40
0.625
 40
0.75
 40
0.75
 40
0.75
 40
0.75
 40
0.875
 40
0.875
 40
0.875
 40
0.875
 40
1.0
 40
1.0
 40
1.0
 40
1.0
 10
-0.3683661417322835
 20
4.856728346456693
 30
0.0
 10
-0.3683661417322835
 20
4.817562992125985
 30
0.0
 10
-0.363755905511811
 20
4.791507874015748
 30
0.0
 10
-0.3545866141732283
 20
4.778507874015748
 30
0.0
 10
-0.3545866141732283
 20
4.778507874015748
 30
0.0
 10
-0.3454212598425197
 20
4.765562992125984
 30
0.0
 10
-0.3341456692913386
 20
4.759062992125984
 30
0.0
 10
-0.3207007874015748
 20
4.759062992125984
 30
0.0
 10
-0.3207007874015748
 20
4.759062992125984
 30
0.0
 10
-0.3072007874015748
 20
4.759062992125984
 30
0.0
 10
-0.2959212598425197
 20
4.765618110236221
 30
0.0
 10
-0.286755905511811
 20
4.778618110236221
 30
0.0
 10
-0.286755905511811
 20
4.778618110236221
 30
0.0
 10
-0.2775866141732283
 20
4.791618110236221
 30
0.0
 10
-0.2729763779527559
 20
4.817673228346457
 30
0.0
 10
-0.2729763779527559
 20
4.856728346456693
 30
0.0
 10
-0.2729763779527559
 20
4.856728346456693
 30
0.0
 10
-0.2729763779527559
 20
4.896007874015748
 30
0.0
 10
-0.2775866141732283
 20
4.92211811023622
 30
0.0
 10
-0.286755905511811
 20
4.935007874015748
 30
0.0
 10
-0.286755905511811
 20
4.935007874015748
 30
0.0
 10
-0.2959212598425197
 20
4.947952755905512
 30
0.0
 10
-0.3073110236220473
 20
4.954397637795275
 30
0.0
 10
-0.3209763779527559
 20
4.954397637795275
 30
0.0
 10
-0.3209763779527559
 20
4.954397637795275
 30
0.0
 10
-0.3344763779527559
 20
4.954397637795275
 30
0.0
 10
-0.3452007874015748
 20
4.948673228346457
 30
0.0
 10
-0.353255905511811
 20
4.937287401574803
 30
0.0
 10
-0.353255905511811
 20
4.937287401574803
 30
0.0
 10
-0.3633110236220473
 20
4.922787401574803
 30
0.0
 10
-0.3683661417322835
 20
4.895897637795276
 30
0.0
 10
-0.3683661417322835
 20
4.856728346456693
 30
0.0
  0
SPLINE
  5
4C
330
1F
100
AcDbEntity
  8
Capa 1
 62
   250
100
AcDbSpline
210
0.0
220
0.0
230
1.0
 70
    11
 71
     3
 72
   116
 73
   112
 74
     0
 42
0.0000000001
 43
0.0000000001
 40
0.0
 40
0.0
 40
0.0
 40
0.0
 40
0.0357142857142857
 40
0.0357142857142857
 40
0.0357142857142857
 40
0.0357142857142857
 40
0.0714285714285714
 40
0.0714285714285714
 40
0.0714285714285714
 40
0.0714285714285714
 40
0.1071428571428571
 40
0.1071428571428571
 40
0.1071428571428571
 40
0.1071428571428571
 40
0.1428571428571429
 40
0.1428571428571429
 40
0.1428571428571429
 40
0.1428571428571429
 40
0.1785714285714286
 40
0.1785714285714286
 40
0.1785714285714286
 40
0.1785714285714286
 40
0.2142857142857143
 40
0.2142857142857143
 40
0.2142857142857143
 40
0.2142857142857143
 40
0.2499999999999999
 40
0.2499999999999999
 40
0.2499999999999999
 40
0.2499999999999999
 40
0.2857142857142856
 40
0.2857142857142856
 40
0.2857142857142856
 40
0.2857142857142856
 40
0.3214285714285713
 40
0.3214285714285713
 40
0.3214285714285713
 40
0.3214285714285713
 40
0.357142857142857
 40
0.357142857142857
 40
0.357142857142857
 40
0.357142857142857
 40
0.3928571428571427
 40
0.3928571428571427
 40
0.3928571428571427
 40
0.3928571428571427
 40
0.4285714285714284
 40
0.4285714285714284
 40
0.4285714285714284
 40
0.4285714285714284
 40
0.4642857142857141
 40
0.4642857142857141
 40
0.4642857142857141
 40
0.4642857142857141
 40
0.4999999999999998
 40
0.4999999999999998
 40
0.4999999999999998
 40
0.4999999999999998
 40
0.5357142857142856
 40
0.5357142857142856
 40
0.5357142857142856
 40
0.5357142857142856
 40
0.5714285714285713
 40
0.5714285714285713
 40
0.5714285714285713
 40
0.5714285714285713
 40
0.607142857142857
 40
0.607142857142857
 40
0.607142857142857
 40
0.607142857142857
 40
0.6428571428571427
 40
0.6428571428571427
 40
0.6428571428571427
 40
0.6428571428571427
 40
0.6785714285714284
 40
0.6785714285714284
 40
0.6785714285714284
 40
0.6785714285714284
 40
0.7142857142857141
 40
0.7142857142857141
 40
0.7142857142857141
 40
0.7142857142857141
 40
0.7499999999999998
 40
0.7499999999999998
 40
0.7499999999999998
 40
0.7499999999999998
 40
0.7857142857142855
 40
0.7857142857142855
 40
0.7857142857142855
 40
0.7857142857142855
 40
0.8214285714285712
 40
0.8214285714285712
 40
0.8214285714285712
 40
0.8214285714285712
 40
0.8571428571428569
 40
0.8571428571428569
 40
0.8571428571428569
 40
0.8571428571428569
 40
0.8928571428571426
 40
0.8928571428571426
 40
0.8928571428571426
 40
0.8928571428571426
 40
0.9285714285714283
 40
0.9285714285714283
 40
0.9285714285714283
 40
0.9285714285714283
 40
0.964285714285714
 40
0.964285714285714
 40
0.964285714285714
 40
0.964285714285714
 40
1.0
 40
1.0
 40
1.0
 40
1.0
 10
-0.1123110236220472
 20
4.739062992125985
 30
0.0
 10
-0.1123110236220472
 20
4.739062992125985
 30
0.0
 10
-0.1123110236220472
 20
4.911897637795276
 30
0.0
 10
-0.1123110236220472
 20
4.911897637795276
 30
0.0
 10
-0.1123110236220472
 20
4.911897637795276
 30
0.0
 10
-0.1123110236220472
 20
4.911897637795276
 30
0.0
 10
-0.0861456692913386
 20
4.911897637795276
 30
0.0
 10
-0.0861456692913386
 20
4.911897637795276
 30
0.0
 10
-0.0861456692913386
 20
4.911897637795276
 30
0.0
 10
-0.0861456692913386
 20
4.911897637795276
 30
0.0
 10
-0.0861456692913386
 20
4.887673228346457
 30
0.0
 10
-0.0861456692913386
 20
4.887673228346457
 30
0.0
 10
-0.0861456692913386
 20
4.887673228346457
 30
0.0
 10
-0.0807007874015748
 20
4.896118110236221
 30
0.0
 10
-0.0734763779527559
 20
4.902952755905512
 30
0.0
 10
-0.0644763779527559
 20
4.908062992125984
 30
0.0
 10
-0.0644763779527559
 20
4.908062992125984
 30
0.0
 10
-0.0554763779527559
 20
4.913232283464567
 30
0.0
 10
-0.0452007874015748
 20
4.91584251968504
 30
0.0
 10
-0.0337007874015748
 20
4.91584251968504
 30
0.0
 10
-0.0337007874015748
 20
4.91584251968504
 30
0.0
 10
-0.0209212598425197
 20
4.91584251968504
 30
0.0
 10
-0.0104212598425197
 20
4.913173228346457
 30
0.0
 10
-0.002255905511811
 20
4.90784251968504
 30
0.0
 10
-0.002255905511811
 20
4.90784251968504
 30
0.0
 10
0.0059685039370079
 20
4.902507874015749
 30
0.0
 10
0.011744094488189
 20
4.89511811023622
 30
0.0
 10
0.0150787401574803
 20
4.885562992125984
 30
0.0
 10
0.0150787401574803
 20
4.885562992125984
 30
0.0
 10
0.0287992125984252
 20
4.905732283464567
 30
0.0
 10
0.0465787401574803
 20
4.91584251968504
 30
0.0
 10
0.0684685039370079
 20
4.91584251968504
 30
0.0
 10
0.0684685039370079
 20
4.91584251968504
 30
0.0
 10
0.0856338582677165
 20
4.91584251968504
 30
0.0
 10
0.0987992125984252
 20
4.911062992125984
 30
0.0
 10
0.1080236220472441
 20
4.901562992125984
 30
0.0
 10
0.1080236220472441
 20
4.901562992125984
 30
0.0
 10
0.117244094488189
 20
4.892062992125984
 30
0.0
 10
0.1218582677165354
 20
4.877452755905512
 30
0.0
 10
0.1218582677165354
 20
4.857728346456693
 30
0.0
 10
0.1218582677165354
 20
4.857728346456693
 30
0.0
 10
0.1218582677165354
 20
4.857728346456693
 30
0.0
 10
0.1218582677165354
 20
4.739062992125985
 30
0.0
 10
0.1218582677165354
 20
4.739062992125985
 30
0.0
 10
0.1218582677165354
 20
4.739062992125985
 30
0.0
 10
0.1218582677165354
 20
4.739062992125985
 30
0.0
 10
0.092744094488189
 20
4.739062992125985
 30
0.0
 10
0.092744094488189
 20
4.739062992125985
 30
0.0
 10
0.092744094488189
 20
4.739062992125985
 30
0.0
 10
0.092744094488189
 20
4.739062992125985
 30
0.0
 10
0.092744094488189
 20
4.847952755905512
 30
0.0
 10
0.092744094488189
 20
4.847952755905512
 30
0.0
 10
0.092744094488189
 20
4.847952755905512
 30
0.0
 10
0.092744094488189
 20
4.859673228346457
 30
0.0
 10
0.0917992125984252
 20
4.868118110236221
 30
0.0
 10
0.0899133858267717
 20
4.873287401574803
 30
0.0
 10
0.0899133858267717
 20
4.873287401574803
 30
0.0
 10
0.0879685039370079
 20
4.878397637795276
 30
0.0
 10
0.0845236220472441
 20
4.882562992125984
 30
0.0
 10
0.0795787401574803
 20
4.885728346456693
 30
0.0
 10
0.0795787401574803
 20
4.885728346456693
 30
0.0
 10
0.0745787401574803
 20
4.888842519685039
 30
0.0
 10
0.0686889763779528
 20
4.890452755905512
 30
0.0
 10
0.0619685039370079
 20
4.890452755905512
 30
0.0
 10
0.0619685039370079
 20
4.890452755905512
 30
0.0
 10
0.0497992125984252
 20
4.890452755905512
 30
0.0
 10
0.039744094488189
 20
4.886397637795276
 30
0.0
 10
0.0316889763779528
 20
4.878287401574803
 30
0.0
 10
0.0316889763779528
 20
4.878287401574803
 30
0.0
 10
0.0236889763779528
 20
4.870228346456693
 30
0.0
 10
0.0196338582677165
 20
4.857287401574803
 30
0.0
 10
0.0196338582677165
 20
4.839507874015748
 30
0.0
 10
0.0196338582677165
 20
4.839507874015748
 30
0.0
 10
0.0196338582677165
 20
4.839507874015748
 30
0.0
 10
0.0196338582677165
 20
4.739062992125985
 30
0.0
 10
0.0196338582677165
 20
4.739062992125985
 30
0.0
 10
0.0196338582677165
 20
4.739062992125985
 30
0.0
 10
0.0196338582677165
 20
4.739062992125985
 30
0.0
 10
-0.0096456692913386
 20
4.739062992125985
 30
0.0
 10
-0.0096456692913386
 20
4.739062992125985
 30
0.0
 10
-0.0096456692913386
 20
4.739062992125985
 30
0.0
 10
-0.0096456692913386
 20
4.739062992125985
 30
0.0
 10
-0.0096456692913386
 20
4.85134251968504
 30
0.0
 10
-0.0096456692913386
 20
4.85134251968504
 30
0.0
 10
-0.0096456692913386
 20
4.85134251968504
 30
0.0
 10
-0.0096456692913386
 20
4.864397637795276
 30
0.0
 10
-0.0120314960629921
 20
4.874173228346457
 30
0.0
 10
-0.0168110236220472
 20
4.880673228346457
 30
0.0
 10
-0.0168110236220472
 20
4.880673228346457
 30
0.0
 10
-0.0215866141732283
 20
4.887173228346457
 30
0.0
 10
-0.0293661417322835
 20
4.890452755905512
 30
0.0
 10
-0.040255905511811
 20
4.890452755905512
 30
0.0
 10
-0.040255905511811
 20
4.890452755905512
 30
0.0
 10
-0.0484763779527559
 20
4.890452755905512
 30
0.0
 10
-0.0560866141732283
 20
4.888287401574804
 30
0.0
 10
-0.0630866141732283
 20
4.883897637795275
 30
0.0
 10
-0.0630866141732283
 20
4.883897637795275
 30
0.0
 10
-0.0700866141732284
 20
4.879562992125985
 30
0.0
 10
-0.0752007874015748
 20
4.873228346456693
 30
0.0
 10
-0.0783110236220472
 20
4.864897637795276
 30
0.0
 10
-0.0783110236220472
 20
4.864897637795276
 30
0.0
 10
-0.0814763779527559
 20
4.856507874015748
 30
0.0
 10
-0.0830314960629921
 20
4.844452755905512
 30
0.0
 10
-0.0830314960629921
 20
4.828728346456694
 30
0.0
 10
-0.0830314960629921
 20
4.828728346456694
 30
0.0
 10
-0.0830314960629921
 20
4.828728346456694
 30
0.0
 10
-0.0830314960629921
 20
4.739062992125985
 30
0.0
 10
-0.0830314960629921
 20
4.739062992125985
 30
0.0
 10
-0.0830314960629921
 20
4.739062992125985
 30
0.0
 10
-0.0830314960629921
 20
4.739062992125985
 30
0.0
 10
-0.1123110236220472
 20
4.739062992125985
 30
0.0
 10
-0.1123110236220472
 20
4.739062992125985
 30
0.0
  0
SPLINE
  5
4D
330
1F
100
AcDbEntity
  8
Capa 1
 62
   250
100
AcDbSpline
210
0.0
220
0.0
230
1.0
 70
    11
 71
     3
 72
   116
 73
   112
 74
     0
 42
0.0000000001
 43
0.0000000001
 40
0.0
 40
0.0
 40
0.0
 40
0.0
 40
0.0357142857142857
 40
0.0357142857142857
 40
0.0357142857142857
 40
0.0357142857142857
 40
0.0714285714285714
 40
0.0714285714285714
 40
0.0714285714285714
 40
0.0714285714285714
 40
0.1071428571428571
 40
0.1071428571428571
 40
0.1071428571428571
 40
0.1071428571428571
 40
0.1428571428571429
 40
0.1428571428571429
 40
0.1428571428571429
 40
0.1428571428571429
 40
0.1785714285714286
 40
0.1785714285714286
 40
0.1785714285714286
 40
0.1785714285714286
 40
0.2142857142857143
 40
0.2142857142857143
 40
0.2142857142857143
 40
0.2142857142857143
 40
0.2499999999999999
 40
0.2499999999999999
 40
0.2499999999999999
 40
0.2499999999999999
 40
0.2857142857142856
 40
0.2857142857142856
 40
0.2857142857142856
 40
0.2857142857142856
 40
0.3214285714285713
 40
0.3214285714285713
 40
0.3214285714285713
 40
0.3214285714285713
 40
0.357142857142857
 40
0.357142857142857
 40
0.357142857142857
 40
0.357142857142857
 40
0.3928571428571427
 40
0.3928571428571427
 40
0.3928571428571427
 40
0.3928571428571427
 40
0.4285714285714284
 40
0.4285714285714284
 40
0.4285714285714284
 40
0.4285714285714284
 40
0.4642857142857141
 40
0.4642857142857141
 40
0.4642857142857141
 40
0.4642857142857141
 40
0.4999999999999998
 40
0.4999999999999998
 40
0.4999999999999998
 40
0.4999999999999998
 40
0.5357142857142856
 40
0.5357142857142856
 40
0.5357142857142856
 40
0.5357142857142856
 40
0.5714285714285713
 40
0.5714285714285713
 40
0.5714285714285713
 40
0.5714285714285713
 40
0.607142857142857
 40
0.607142857142857
 40
0.607142857142857
 40
0.607142857142857
 40
0.6428571428571427
 40
0.6428571428571427
 40
0.6428571428571427
 40
0.6428571428571427
 40
0.6785714285714284
 40
0.6785714285714284
 40
0.6785714285714284
 40
0.6785714285714284
 40
0.7142857142857141
 40
0.7142857142857141
 40
0.7142857142857141
 40
0.7142857142857141
 40
0.7499999999999998
 40
0.7499999999999998
 40
0.7499999999999998
 40
0.7499999999999998
 40
0.7857142857142855
 40
0.7857142857142855
 40
0.7857142857142855
 40
0.7857142857142855
 40
0.8214285714285712
 40
0.8214285714285712
 40
0.8214285714285712
 40
0.8214285714285712
 40
0.8571428571428569
 40
0.8571428571428569
 40
0.8571428571428569
 40
0.8571428571428569
 40
0.8928571428571426
 40
0.8928571428571426
 40
0.8928571428571426
 40
0.8928571428571426
 40
0.9285714285714283
 40
0.9285714285714283
 40
0.9285714285714283
 40
0.9285714285714283
 40
0.964285714285714
 40
0.964285714285714
 40
0.964285714285714
 40
0.964285714285714
 40
1.0
 40
1.0
 40
1.0
 40
1.0
 10
0.1653582677165355
 20
4.739062992125985
 30
0.0
 10
0.1653582677165355
 20
4.739062992125985
 30
0.0
 10
0.1653582677165355
 20
4.911897637795276
 30
0.0
 10
0.1653582677165355
 20
4.911897637795276
 30
0.0
 10
0.1653582677165355
 20
4.911897637795276
 30
0.0
 10
0.1653582677165355
 20
4.911897637795276
 30
0.0
 10
0.1915236220472441
 20
4.911897637795276
 30
0.0
 10
0.1915236220472441
 20
4.911897637795276
 30
0.0
 10
0.1915236220472441
 20
4.911897637795276
 30
0.0
 10
0.1915236220472441
 20
4.911897637795276
 30
0.0
 10
0.1915236220472441
 20
4.887673228346457
 30
0.0
 10
0.1915236220472441
 20
4.887673228346457
 30
0.0
 10
0.1915236220472441
 20
4.887673228346457
 30
0.0
 10
0.1969685039370079
 20
4.896118110236221
 30
0.0
 10
0.2041929133858268
 20
4.902952755905512
 30
0.0
 10
0.2131929133858268
 20
4.908062992125984
 30
0.0
 10
0.2131929133858268
 20
4.908062992125984
 30
0.0
 10
0.2221929133858268
 20
4.913232283464567
 30
0.0
 10
0.2324685039370079
 20
4.91584251968504
 30
0.0
 10
0.2439685039370079
 20
4.91584251968504
 30
0.0
 10
0.2439685039370079
 20
4.91584251968504
 30
0.0
 10
0.256748031496063
 20
4.91584251968504
 30
0.0
 10
0.267248031496063
 20
4.913173228346457
 30
0.0
 10
0.2754133858267717
 20
4.90784251968504
 30
0.0
 10
0.2754133858267717
 20
4.90784251968504
 30
0.0
 10
0.2836377952755906
 20
4.902507874015749
 30
0.0
 10
0.2894133858267717
 20
4.89511811023622
 30
0.0
 10
0.292748031496063
 20
4.885562992125984
 30
0.0
 10
0.292748031496063
 20
4.885562992125984
 30
0.0
 10
0.3064685039370079
 20
4.905732283464567
 30
0.0
 10
0.324248031496063
 20
4.91584251968504
 30
0.0
 10
0.3461377952755906
 20
4.91584251968504
 30
0.0
 10
0.3461377952755906
 20
4.91584251968504
 30
0.0
 10
0.3633031496062992
 20
4.91584251968504
 30
0.0
 10
0.3764685039370079
 20
4.911062992125984
 30
0.0
 10
0.3856929133858268
 20
4.901562992125984
 30
0.0
 10
0.3856929133858268
 20
4.901562992125984
 30
0.0
 10
0.3949133858267717
 20
4.892062992125984
 30
0.0
 10
0.3995275590551181
 20
4.877452755905512
 30
0.0
 10
0.3995275590551181
 20
4.857728346456693
 30
0.0
 10
0.3995275590551181
 20
4.857728346456693
 30
0.0
 10
0.3995275590551181
 20
4.857728346456693
 30
0.0
 10
0.3995275590551181
 20
4.739062992125985
 30
0.0
 10
0.3995275590551181
 20
4.739062992125985
 30
0.0
 10
0.3995275590551181
 20
4.739062992125985
 30
0.0
 10
0.3995275590551181
 20
4.739062992125985
 30
0.0
 10
0.3704133858267717
 20
4.739062992125985
 30
0.0
 10
0.3704133858267717
 20
4.739062992125985
 30
0.0
 10
0.3704133858267717
 20
4.739062992125985
 30
0.0
 10
0.3704133858267717
 20
4.739062992125985
 30
0.0
 10
0.3704133858267717
 20
4.847952755905512
 30
0.0
 10
0.3704133858267717
 20
4.847952755905512
 30
0.0
 10
0.3704133858267717
 20
4.847952755905512
 30
0.0
 10
0.3704133858267717
 20
4.859673228346457
 30
0.0
 10
0.3694685039370079
 20
4.868118110236221
 30
0.0
 10
0.3675826771653544
 20
4.873287401574803
 30
0.0
 10
0.3675826771653544
 20
4.873287401574803
 30
0.0
 10
0.3656377952755905
 20
4.878397637795276
 30
0.0
 10
0.3621929133858268
 20
4.882562992125984
 30
0.0
 10
0.357248031496063
 20
4.885728346456693
 30
0.0
 10
0.357248031496063
 20
4.885728346456693
 30
0.0
 10
0.352248031496063
 20
4.888842519685039
 30
0.0
 10
0.3463582677165354
 20
4.890452755905512
 30
0.0
 10
0.3396377952755906
 20
4.890452755905512
 30
0.0
 10
0.3396377952755906
 20
4.890452755905512
 30
0.0
 10
0.3274685039370079
 20
4.890452755905512
 30
0.0
 10
0.3174133858267716
 20
4.886397637795276
 30
0.0
 10
0.3093582677165355
 20
4.878287401574803
 30
0.0
 10
0.3093582677165355
 20
4.878287401574803
 30
0.0
 10
0.3013582677165355
 20
4.870228346456693
 30
0.0
 10
0.2973031496062992
 20
4.857287401574803
 30
0.0
 10
0.2973031496062992
 20
4.839507874015748
 30
0.0
 10
0.2973031496062992
 20
4.839507874015748
 30
0.0
 10
0.2973031496062992
 20
4.839507874015748
 30
0.0
 10
0.2973031496062992
 20
4.739062992125985
 30
0.0
 10
0.2973031496062992
 20
4.739062992125985
 30
0.0
 10
0.2973031496062992
 20
4.739062992125985
 30
0.0
 10
0.2973031496062992
 20
4.739062992125985
 30
0.0
 10
0.2680236220472441
 20
4.739062992125985
 30
0.0
 10
0.2680236220472441
 20
4.739062992125985
 30
0.0
 10
0.2680236220472441
 20
4.739062992125985
 30
0.0
 10
0.2680236220472441
 20
4.739062992125985
 30
0.0
 10
0.2680236220472441
 20
4.85134251968504
 30
0.0
 10
0.2680236220472441
 20
4.85134251968504
 30
0.0
 10
0.2680236220472441
 20
4.85134251968504
 30
0.0
 10
0.2680236220472441
 20
4.864397637795276
 30
0.0
 10
0.2656377952755906
 20
4.874173228346457
 30
0.0
 10
0.2608582677165354
 20
4.880673228346457
 30
0.0
 10
0.2608582677165354
 20
4.880673228346457
 30
0.0
 10
0.2560826771653543
 20
4.887173228346457
 30
0.0
 10
0.2483031496062992
 20
4.890452755905512
 30
0.0
 10
0.2374133858267717
 20
4.890452755905512
 30
0.0
 10
0.2374133858267717
 20
4.890452755905512
 30
0.0
 10
0.2291929133858268
 20
4.890452755905512
 30
0.0
 10
0.2215826771653544
 20
4.888287401574804
 30
0.0
 10
0.2145826771653543
 20
4.883897637795275
 30
0.0
 10
0.2145826771653543
 20
4.883897637795275
 30
0.0
 10
0.2075826771653543
 20
4.879562992125985
 30
0.0
 10
0.2024685039370079
 20
4.873228346456693
 30
0.0
 10
0.1993582677165355
 20
4.864897637795276
 30
0.0
 10
0.1993582677165355
 20
4.864897637795276
 30
0.0
 10
0.1961929133858268
 20
4.856507874015748
 30
0.0
 10
0.1946377952755906
 20
4.844452755905512
 30
0.0
 10
0.1946377952755906
 20
4.828728346456694
 30
0.0
 10
0.1946377952755906
 20
4.828728346456694
 30
0.0
 10
0.1946377952755906
 20
4.828728346456694
 30
0.0
 10
0.1946377952755906
 20
4.739062992125985
 30
0.0
 10
0.1946377952755906
 20
4.739062992125985
 30
0.0
 10
0.1946377952755906
 20
4.739062992125985
 30
0.0
 10
0.1946377952755906
 20
4.739062992125985
 30
0.0
 10
0.1653582677165355
 20
4.739062992125985
 30
0.0
 10
0.1653582677165355
 20
4.739062992125985
 30
0.0
  0
SPLINE
  5
4E
330
1F
100
AcDbEntity
  8
Capa 1
 62
   250
370
     5
100
AcDbSpline
210
0.0
220
0.0
230
1.0
 70
    24
 71
     3
 72
     8
 73
     4
 74
     0
 42
0.0000000001
 43
0.0000000001
 40
0.0
 40
0.0
 40
0.0
 40
0.0
 40
1.0
 40
1.0
 40
1.0
 40
1.0
 10
-5.905507874015748
 20
2.285031496062992
 30
0.0
 10
-5.905507874015748
 20
2.285031496062992
 30
0.0
 10
-5.905507874015748
 20
4.277330708661418
 30
0.0
 10
-5.905507874015748
 20
4.277330708661418
 30
0.0
  0
SPLINE
  5
4F
330
1F
100
AcDbEntity
  8
Capa 1
 62
   250
370
     5
100
AcDbSpline
210
0.0
220
0.0
230
1.0
 70
    24
 71
     3
 72
     8
 73
     4
 74
     0
 42
0.0000000001
 43
0.0000000001
 40
0.0
 40
0.0
 40
0.0
 40
0.0
 40
1.0
 40
1.0
 40
1.0
 40
1.0
 10
0.000003937007874
 20
2.285031496062992
 30
0.0
 10
0.000003937007874
 20
2.285031496062992
 30
0.0
 10
0.000003937007874
 20
4.277330708661418
 30
0.0
 10
0.000003937007874
 20
4.277330708661418
 30
0.0
  0
SPLINE
  5
50
330
1F
100
AcDbEntity
  8
Capa 1
 62
   250
370
     5
100
AcDbSpline
210
0.0
220
0.0
230
1.0
 70
    24
 71
     3
 72
     8
 73
     4
 74
     0
 42
0.0000000001
 43
0.0000000001
 40
0.0
 40
0.0
 40
0.0
 40
0.0
 40
1.0
 40
1.0
 40
1.0
 40
1.0
 10
-5.905507874015748
 20
4.077330708661417
 30
0.0
 10
-5.905507874015748
 20
4.077330708661417
 30
0.0
 10
-3.81232283464567
 20
4.077330708661417
 30
0.0
 10
-3.81232283464567
 20
4.077330708661417
 30
0.0
  0
SPLINE
  5
51
330
1F
100
AcDbEntity
  8
Capa 1
 62
   250
370
     5
100
AcDbSpline
210
0.0
220
0.0
230
1.0
 70
    24
 71
     3
 72
     8
 73
     4
 74
     0
 42
0.0000000001
 43
0.0000000001
 40
0.0
 40
0.0
 40
0.0
 40
0.0
 40
1.0
 40
1.0
 40
1.0
 40
1.0
 10
-1.666314960629921
 20
4.077330708661417
 30
0.0
 10
-1.666314960629921
 20
4.077330708661417
 30
0.0
 10
0.000003937007874
 20
4.077330708661417
 30
0.0
 10
0.000003937007874
 20
4.077330708661417
 30
0.0
  0
SPLINE
  5
52
330
1F
100
AcDbEntity
  8
Capa 1
 62
   250
100
AcDbSpline
210
0.0
220
0.0
230
1.0
 70
    11
 71
     3
 72
    40
 73
    36
 74
     0
 42
0.0000000001
 43
0.0000000001
 40
0.0
 40
0.0
 40
0.0
 40
0.0
 40
0.1111111111111111
 40
0.1111111111111111
 40
0.1111111111111111
 40
0.1111111111111111
 40
0.2222222222222222
 40
0.2222222222222222
 40
0.2222222222222222
 40
0.2222222222222222
 40
0.3333333333333333
 40
0.3333333333333333
 40
0.3333333333333333
 40
0.3333333333333333
 40
0.4444444444444444
 40
0.4444444444444444
 40
0.4444444444444444
 40
0.4444444444444444
 40
0.5555555555555556
 40
0.5555555555555556
 40
0.5555555555555556
 40
0.5555555555555556
 40
0.6666666666666667
 40
0.6666666666666667
 40
0.6666666666666667
 40
0.6666666666666667
 40
0.7777777777777779
 40
0.7777777777777779
 40
0.7777777777777779
 40
0.7777777777777779
 40
0.8888888888888891
 40
0.8888888888888891
 40
0.8888888888888891
 40
0.8888888888888891
 40
1.0
 40
1.0
 40
1.0
 40
1.0
 10
-3.438157480314961
 20
3.959555118110236
 30
0.0
 10
-3.438157480314961
 20
3.959555118110236
 30
0.0
 10
-3.467433070866142
 20
3.959555118110236
 30
0.0
 10
-3.467433070866142
 20
3.959555118110236
 30
0.0
 10
-3.467433070866142
 20
3.959555118110236
 30
0.0
 10
-3.467433070866142
 20
3.959555118110236
 30
0.0
 10
-3.467433070866142
 20
4.146224409448819
 30
0.0
 10
-3.467433070866142
 20
4.146224409448819
 30
0.0
 10
-3.467433070866142
 20
4.146224409448819
 30
0.0
 10
-3.474488188976378
 20
4.1395
 30
0.0
 10
-3.483712598425197
 20
4.132779527559055
 30
0.0
 10
-3.495157480314961
 20
4.126055118110236
 30
0.0
 10
-3.495157480314961
 20
4.126055118110236
 30
0.0
 10
-3.506657480314961
 20
4.119334645669292
 30
0.0
 10
-3.516933070866142
 20
4.114279527559055
 30
0.0
 10
-3.526043307086614
 20
4.110944881889764
 30
0.0
 10
-3.526043307086614
 20
4.110944881889764
 30
0.0
 10
-3.526043307086614
 20
4.110944881889764
 30
0.0
 10
-3.526043307086614
 20
4.139224409448819
 30
0.0
 10
-3.526043307086614
 20
4.139224409448819
 30
0.0
 10
-3.526043307086614
 20
4.139224409448819
 30
0.0
 10
-3.509657480314961
 20
4.146944881889764
 30
0.0
 10
-3.495322834645669
 20
4.156279527559056
 30
0.0
 10
-3.483043307086614
 20
4.167224409448819
 30
0.0
 10
-3.483043307086614
 20
4.167224409448819
 30
0.0
 10
-3.47082283464567
 20
4.178224409448819
 30
0.0
 10
-3.462098425196851
 20
4.188834645669291
 30
0.0
 10
-3.456988188976378
 20
4.199165354330709
 30
0.0
 10
-3.456988188976378
 20
4.199165354330709
 30
0.0
 10
-3.456988188976378
 20
4.199165354330709
 30
0.0
 10
-3.438157480314961
 20
4.199165354330709
 30
0.0
 10
-3.438157480314961
 20
4.199165354330709
 30
0.0
 10
-3.438157480314961
 20
4.199165354330709
 30
0.0
 10
-3.438157480314961
 20
4.199165354330709
 30
0.0
 10
-3.438157480314961
 20
3.959555118110236
 30
0.0
 10
-3.438157480314961
 20
3.959555118110236
 30
0.0
  0
SPLINE
  5
53
330
1F
100
AcDbEntity
  8
Capa 1
 62
   250
100
AcDbSpline
210
0.0
220
0.0
230
1.0
 70
    11
 71
     3
 72
    92
 73
    88
 74
     0
 42
0.0000000001
 43
0.0000000001
 40
0.0
 40
0.0
 40
0.0
 40
0.0
 40
0.0454545454545455
 40
0.0454545454545455
 40
0.0454545454545455
 40
0.0454545454545455
 40
0.0909090909090909
 40
0.0909090909090909
 40
0.0909090909090909
 40
0.0909090909090909
 40
0.1363636363636364
 40
0.1363636363636364
 40
0.1363636363636364
 40
0.1363636363636364
 40
0.1818181818181818
 40
0.1818181818181818
 40
0.1818181818181818
 40
0.1818181818181818
 40
0.2272727272727273
 40
0.2272727272727273
 40
0.2272727272727273
 40
0.2272727272727273
 40
0.2727272727272728
 40
0.2727272727272728
 40
0.2727272727272728
 40
0.2727272727272728
 40
0.3181818181818182
 40
0.3181818181818182
 40
0.3181818181818182
 40
0.3181818181818182
 40
0.3636363636363637
 40
0.3636363636363637
 40
0.3636363636363637
 40
0.3636363636363637
 40
0.4090909090909092
 40
0.4090909090909092
 40
0.4090909090909092
 40
0.4090909090909092
 40
0.4545454545454546
 40
0.4545454545454546
 40
0.4545454545454546
 40
0.4545454545454546
 40
0.5000000000000001
 40
0.5000000000000001
 40
0.5000000000000001
 40
0.5000000000000001
 40
0.5454545454545455
 40
0.5454545454545455
 40
0.5454545454545455
 40
0.5454545454545455
 40
0.5909090909090909
 40
0.5909090909090909
 40
0.5909090909090909
 40
0.5909090909090909
 40
0.6363636363636364
 40
0.6363636363636364
 40
0.6363636363636364
 40
0.6363636363636364
 40
0.6818181818181818
 40
0.6818181818181818
 40
0.6818181818181818
 40
0.6818181818181818
 40
0.7272727272727272
 40
0.7272727272727272
 40
0.7272727272727272
 40
0.7272727272727272
 40
0.7727272727272726
 40
0.7727272727272726
 40
0.7727272727272726
 40
0.7727272727272726
 40
0.818181818181818
 40
0.818181818181818
 40
0.818181818181818
 40
0.818181818181818
 40
0.8636363636363634
 40
0.8636363636363634
 40
0.8636363636363634
 40
0.8636363636363634
 40
0.9090909090909088
 40
0.9090909090909088
 40
0.9090909090909088
 40
0.9090909090909088
 40
0.9545454545454543
 40
0.9545454545454543
 40
0.9545454545454543
 40
0.9545454545454543
 40
1.0
 40
1.0
 40
1.0
 40
1.0
 10
-3.363098425196851
 20
4.022055118110236
 30
0.0
 10
-3.363098425196851
 20
4.022055118110236
 30
0.0
 10
-3.33232283464567
 20
4.024665354330709
 30
0.0
 10
-3.33232283464567
 20
4.024665354330709
 30
0.0
 10
-3.33232283464567
 20
4.024665354330709
 30
0.0
 10
-3.330043307086614
 20
4.009665354330709
 30
0.0
 10
-3.324767716535433
 20
3.998444881889764
 30
0.0
 10
-3.316488188976378
 20
3.990889763779528
 30
0.0
 10
-3.316488188976378
 20
3.990889763779528
 30
0.0
 10
-3.308153543307087
 20
3.983334645669292
 30
0.0
 10
-3.298153543307087
 20
3.979555118110236
 30
0.0
 10
-3.286433070866142
 20
3.979555118110236
 30
0.0
 10
-3.286433070866142
 20
3.979555118110236
 30
0.0
 10
-3.272322834645669
 20
3.979555118110236
 30
0.0
 10
-3.260377952755906
 20
3.984889763779528
 30
0.0
 10
-3.250653543307087
 20
3.9955
 30
0.0
 10
-3.250653543307087
 20
3.9955
 30
0.0
 10
-3.240877952755906
 20
4.006165354330709
 30
0.0
 10
-3.235988188976378
 20
4.020279527559056
 30
0.0
 10
-3.235988188976378
 20
4.037834645669292
 30
0.0
 10
-3.235988188976378
 20
4.037834645669292
 30
0.0
 10
-3.235988188976378
 20
4.054555118110236
 30
0.0
 10
-3.240653543307087
 20
4.067720472440946
 30
0.0
 10
-3.250043307086614
 20
4.077389763779528
 30
0.0
 10
-3.250043307086614
 20
4.077389763779528
 30
0.0
 10
-3.259433070866142
 20
4.087055118110237
 30
0.0
 10
-3.271708661417323
 20
4.091889763779528
 30
0.0
 10
-3.286933070866142
 20
4.091889763779528
 30
0.0
 10
-3.286933070866142
 20
4.091889763779528
 30
0.0
 10
-3.296377952755906
 20
4.091889763779528
 30
0.0
 10
-3.304877952755906
 20
4.089720472440945
 30
0.0
 10
-3.312488188976378
 20
4.085444881889764
 30
0.0
 10
-3.312488188976378
 20
4.085444881889764
 30
0.0
 10
-3.32009842519685
 20
4.081165354330709
 30
0.0
 10
-3.326043307086614
 20
4.075610236220473
 30
0.0
 10
-3.330377952755906
 20
4.068779527559055
 30
0.0
 10
-3.330377952755906
 20
4.068779527559055
 30
0.0
 10
-3.330377952755906
 20
4.068779527559055
 30
0.0
 10
-3.357877952755906
 20
4.072334645669292
 30
0.0
 10
-3.357877952755906
 20
4.072334645669292
 30
0.0
 10
-3.357877952755906
 20
4.072334645669292
 30
0.0
 10
-3.357877952755906
 20
4.072334645669292
 30
0.0
 10
-3.334767716535433
 20
4.194889763779528
 30
0.0
 10
-3.334767716535433
 20
4.194889763779528
 30
0.0
 10
-3.334767716535433
 20
4.194889763779528
 30
0.0
 10
-3.334767716535433
 20
4.194889763779528
 30
0.0
 10
-3.21609842519685
 20
4.194889763779528
 30
0.0
 10
-3.21609842519685
 20
4.194889763779528
 30
0.0
 10
-3.21609842519685
 20
4.194889763779528
 30
0.0
 10
-3.21609842519685
 20
4.194889763779528
 30
0.0
 10
-3.21609842519685
 20
4.166889763779528
 30
0.0
 10
-3.21609842519685
 20
4.166889763779528
 30
0.0
 10
-3.21609842519685
 20
4.166889763779528
 30
0.0
 10
-3.21609842519685
 20
4.166889763779528
 30
0.0
 10
-3.31132283464567
 20
4.166889763779528
 30
0.0
 10
-3.31132283464567
 20
4.166889763779528
 30
0.0
 10
-3.31132283464567
 20
4.166889763779528
 30
0.0
 10
-3.31132283464567
 20
4.166889763779528
 30
0.0
 10
-3.324212598425197
 20
4.102779527559055
 30
0.0
 10
-3.324212598425197
 20
4.102779527559055
 30
0.0
 10
-3.324212598425197
 20
4.102779527559055
 30
0.0
 10
-3.309877952755906
 20
4.112779527559055
 30
0.0
 10
-3.294822834645669
 20
4.117779527559056
 30
0.0
 10
-3.279098425196851
 20
4.117779527559056
 30
0.0
 10
-3.279098425196851
 20
4.117779527559056
 30
0.0
 10
-3.258267716535433
 20
4.117779527559056
 30
0.0
 10
-3.240708661417323
 20
4.110555118110236
 30
0.0
 10
-3.226377952755906
 20
4.096110236220473
 30
0.0
 10
-3.226377952755906
 20
4.096110236220473
 30
0.0
 10
-3.212043307086614
 20
4.081665354330709
 30
0.0
 10
-3.204877952755906
 20
4.063110236220473
 30
0.0
 10
-3.204877952755906
 20
4.040444881889764
 30
0.0
 10
-3.204877952755906
 20
4.040444881889764
 30
0.0
 10
-3.204877952755906
 20
4.018834645669291
 30
0.0
 10
-3.211208661417323
 20
4.000165354330709
 30
0.0
 10
-3.223767716535433
 20
3.984444881889764
 30
0.0
 10
-3.223767716535433
 20
3.984444881889764
 30
0.0
 10
-3.23909842519685
 20
3.965165354330709
 30
0.0
 10
-3.259988188976378
 20
3.9555
 30
0.0
 10
-3.286433070866142
 20
3.9555
 30
0.0
 10
-3.286433070866142
 20
3.9555
 30
0.0
 10
-3.308153543307087
 20
3.9555
 30
0.0
 10
-3.325877952755906
 20
3.961555118110236
 30
0.0
 10
-3.339598425196851
 20
3.973720472440945
 30
0.0
 10
-3.339598425196851
 20
3.973720472440945
 30
0.0
 10
-3.353322834645669
 20
3.985889763779528
 30
0.0
 10
-3.361153543307087
 20
4.002
 30
0.0
 10
-3.363098425196851
 20
4.022055118110236
 30
0.0
  0
SPLINE
  5
54
330
1F
100
AcDbEntity
  8
Capa 1
 62
   250
100
AcDbSpline
210
0.0
220
0.0
230
1.0
 70
    11
 71
     3
 72
    52
 73
    48
 74
     0
 42
0.0000000001
 43
0.0000000001
 40
0.0
 40
0.0
 40
0.0
 40
0.0
 40
0.0833333333333333
 40
0.0833333333333333
 40
0.0833333333333333
 40
0.0833333333333333
 40
0.1666666666666667
 40
0.1666666666666667
 40
0.1666666666666667
 40
0.1666666666666667
 40
0.25
 40
0.25
 40
0.25
 40
0.25
 40
0.3333333333333333
 40
0.3333333333333333
 40
0.3333333333333333
 40
0.3333333333333333
 40
0.4166666666666666
 40
0.4166666666666666
 40
0.4166666666666666
 40
0.4166666666666666
 40
0.4999999999999999
 40
0.4999999999999999
 40
0.4999999999999999
 40
0.4999999999999999
 40
0.5833333333333333
 40
0.5833333333333333
 40
0.5833333333333333
 40
0.5833333333333333
 40
0.6666666666666666
 40
0.6666666666666666
 40
0.6666666666666666
 40
0.6666666666666666
 40
0.75
 40
0.75
 40
0.75
 40
0.75
 40
0.8333333333333334
 40
0.8333333333333334
 40
0.8333333333333334
 40
0.8333333333333334
 40
0.9166666666666667
 40
0.9166666666666667
 40
0.9166666666666667
 40
0.9166666666666667
 40
1.0
 40
1.0
 40
1.0
 40
1.0
 10
-3.177708661417323
 20
4.077220472440945
 30
0.0
 10
-3.177708661417323
 20
4.105444881889764
 30
0.0
 10
-3.174822834645669
 20
4.128165354330709
 30
0.0
 10
-3.168988188976378
 20
4.145334645669291
 30
0.0
 10
-3.168988188976378
 20
4.145334645669291
 30
0.0
 10
-3.163208661417323
 20
4.162555118110237
 30
0.0
 10
-3.154543307086614
 20
4.175834645669291
 30
0.0
 10
-3.14309842519685
 20
4.185165354330709
 30
0.0
 10
-3.14309842519685
 20
4.185165354330709
 30
0.0
 10
-3.131653543307087
 20
4.194500000000001
 30
0.0
 10
-3.117263779527559
 20
4.199165354330709
 30
0.0
 10
-3.099933070866142
 20
4.199165354330709
 30
0.0
 10
-3.099933070866142
 20
4.199165354330709
 30
0.0
 10
-3.08709842519685
 20
4.199165354330709
 30
0.0
 10
-3.075877952755906
 20
4.196555118110236
 30
0.0
 10
-3.066208661417323
 20
4.191389763779528
 30
0.0
 10
-3.066208661417323
 20
4.191389763779528
 30
0.0
 10
-3.056543307086614
 20
4.186279527559055
 30
0.0
 10
-3.04859842519685
 20
4.178834645669292
 30
0.0
 10
-3.042263779527559
 20
4.169110236220472
 30
0.0
 10
-3.042263779527559
 20
4.169110236220472
 30
0.0
 10
-3.035988188976378
 20
4.159389763779528
 30
0.0
 10
-3.031043307086614
 20
4.147555118110237
 30
0.0
 10
-3.027488188976378
 20
4.133610236220473
 30
0.0
 10
-3.027488188976378
 20
4.133610236220473
 30
0.0
 10
-3.023874015748032
 20
4.119665354330709
 30
0.0
 10
-3.02209842519685
 20
4.100889763779528
 30
0.0
 10
-3.02209842519685
 20
4.077220472440945
 30
0.0
 10
-3.02209842519685
 20
4.077220472440945
 30
0.0
 10
-3.02209842519685
 20
4.049220472440945
 30
0.0
 10
-3.024988188976378
 20
4.026665354330709
 30
0.0
 10
-3.030708661417323
 20
4.009444881889764
 30
0.0
 10
-3.030708661417323
 20
4.009444881889764
 30
0.0
 10
-3.036488188976378
 20
3.992220472440945
 30
0.0
 10
-3.045098425196851
 20
3.978944881889764
 30
0.0
 10
-3.056543307086614
 20
3.969555118110236
 30
0.0
 10
-3.056543307086614
 20
3.969555118110236
 30
0.0
 10
-3.067988188976378
 20
3.960165354330709
 30
0.0
 10
-3.082433070866142
 20
3.9555
 30
0.0
 10
-3.099933070866142
 20
3.9555
 30
0.0
 10
-3.099933070866142
 20
3.9555
 30
0.0
 10
-3.122933070866142
 20
3.9555
 30
0.0
 10
-3.140988188976378
 20
3.963720472440945
 30
0.0
 10
-3.154098425196851
 20
3.980220472440945
 30
0.0
 10
-3.154098425196851
 20
3.980220472440945
 30
0.0
 10
-3.169822834645669
 20
4.000055118110236
 30
0.0
 10
-3.177708661417323
 20
4.032444881889764
 30
0.0
 10
-3.177708661417323
 20
4.077220472440945
 30
0.0
  0
SPLINE
  5
55
330
1F
100
AcDbEntity
  8
Capa 1
 62
   250
100
AcDbSpline
210
0.0
220
0.0
230
1.0
 70
    11
 71
     3
 72
    36
 73
    32
 74
     0
 42
0.0000000001
 43
0.0000000001
 40
0.0
 40
0.0
 40
0.0
 40
0.0
 40
0.125
 40
0.125
 40
0.125
 40
0.125
 40
0.25
 40
0.25
 40
0.25
 40
0.25
 40
0.375
 40
0.375
 40
0.375
 40
0.375
 40
0.5
 40
0.5
 40
0.5
 40
0.5
 40
0.625
 40
0.625
 40
0.625
 40
0.625
 40
0.75
 40
0.75
 40
0.75
 40
0.75
 40
0.875
 40
0.875
 40
0.875
 40
0.875
 40
1.0
 40
1.0
 40
1.0
 40
1.0
 10
-3.147598425196851
 20
4.077220472440945
 30
0.0
 10
-3.147598425196851
 20
4.038055118110236
 30
0.0
 10
-3.142988188976378
 20
4.012000000000001
 30
0.0
 10
-3.133818897637795
 20
3.999
 30
0.0
 10
-3.133818897637795
 20
3.999
 30
0.0
 10
-3.124653543307087
 20
3.986055118110236
 30
0.0
 10
-3.113377952755906
 20
3.979555118110236
 30
0.0
 10
-3.099933070866142
 20
3.979555118110236
 30
0.0
 10
-3.099933070866142
 20
3.979555118110236
 30
0.0
 10
-3.086433070866142
 20
3.979555118110236
 30
0.0
 10
-3.075153543307087
 20
3.986110236220473
 30
0.0
 10
-3.065988188976378
 20
3.999110236220473
 30
0.0
 10
-3.065988188976378
 20
3.999110236220473
 30
0.0
 10
-3.056818897637796
 20
4.012110236220472
 30
0.0
 10
-3.052208661417323
 20
4.038165354330709
 30
0.0
 10
-3.052208661417323
 20
4.077220472440945
 30
0.0
 10
-3.052208661417323
 20
4.077220472440945
 30
0.0
 10
-3.052208661417323
 20
4.1165
 30
0.0
 10
-3.056818897637796
 20
4.142610236220473
 30
0.0
 10
-3.065988188976378
 20
4.1555
 30
0.0
 10
-3.065988188976378
 20
4.1555
 30
0.0
 10
-3.075153543307087
 20
4.168444881889764
 30
0.0
 10
-3.086543307086614
 20
4.174889763779528
 30
0.0
 10
-3.100208661417323
 20
4.174889763779528
 30
0.0
 10
-3.100208661417323
 20
4.174889763779528
 30
0.0
 10
-3.113708661417323
 20
4.174889763779528
 30
0.0
 10
-3.124433070866142
 20
4.169165354330709
 30
0.0
 10
-3.132488188976378
 20
4.157779527559056
 30
0.0
 10
-3.132488188976378
 20
4.157779527559056
 30
0.0
 10
-3.142543307086614
 20
4.143279527559056
 30
0.0
 10
-3.147598425196851
 20
4.116389763779528
 30
0.0
 10
-3.147598425196851
 20
4.077220472440945
 30
0.0
  0
SPLINE
  5
56
330
1F
100
AcDbEntity
  8
Capa 1
 62
   250
100
AcDbSpline
210
0.0
220
0.0
230
1.0
 70
    11
 71
     3
 72
    20
 73
    16
 74
     0
 42
0.0000000001
 43
0.0000000001
 40
0.0
 40
0.0
 40
0.0
 40
0.0
 40
0.25
 40
0.25
 40
0.25
 40
0.25
 40
0.5
 40
0.5
 40
0.5
 40
0.5
 40
0.75
 40
0.75
 40
0.75
 40
0.75
 40
1.0
 40
1.0
 40
1.0
 40
1.0
 10
-2.975874015748032
 20
3.959555118110236
 30
0.0
 10
-2.975874015748032
 20
3.959555118110236
 30
0.0
 10
-2.975874015748032
 20
3.992944881889764
 30
0.0
 10
-2.975874015748032
 20
3.992944881889764
 30
0.0
 10
-2.975874015748032
 20
3.992944881889764
 30
0.0
 10
-2.975874015748032
 20
3.992944881889764
 30
0.0
 10
-2.942488188976378
 20
3.992944881889764
 30
0.0
 10
-2.942488188976378
 20
3.992944881889764
 30
0.0
 10
-2.942488188976378
 20
3.992944881889764
 30
0.0
 10
-2.942488188976378
 20
3.992944881889764
 30
0.0
 10
-2.942488188976378
 20
3.959555118110236
 30
0.0
 10
-2.942488188976378
 20
3.959555118110236
 30
0.0
 10
-2.942488188976378
 20
3.959555118110236
 30
0.0
 10
-2.942488188976378
 20
3.959555118110236
 30
0.0
 10
-2.975874015748032
 20
3.959555118110236
 30
0.0
 10
-2.975874015748032
 20
3.959555118110236
 30
0.0
  0
SPLINE
  5
57
330
1F
100
AcDbEntity
  8
Capa 1
 62
   250
100
AcDbSpline
210
0.0
220
0.0
230
1.0
 70
    11
 71
     3
 72
    52
 73
    48
 74
     0
 42
0.0000000001
 43
0.0000000001
 40
0.0
 40
0.0
 40
0.0
 40
0.0
 40
0.0833333333333333
 40
0.0833333333333333
 40
0.0833333333333333
 40
0.0833333333333333
 40
0.1666666666666667
 40
0.1666666666666667
 40
0.1666666666666667
 40
0.1666666666666667
 40
0.25
 40
0.25
 40
0.25
 40
0.25
 40
0.3333333333333333
 40
0.3333333333333333
 40
0.3333333333333333
 40
0.3333333333333333
 40
0.4166666666666666
 40
0.4166666666666666
 40
0.4166666666666666
 40
0.4166666666666666
 40
0.4999999999999999
 40
0.4999999999999999
 40
0.4999999999999999
 40
0.4999999999999999
 40
0.5833333333333333
 40
0.5833333333333333
 40
0.5833333333333333
 40
0.5833333333333333
 40
0.6666666666666666
 40
0.6666666666666666
 40
0.6666666666666666
 40
0.6666666666666666
 40
0.75
 40
0.75
 40
0.75
 40
0.75
 40
0.8333333333333334
 40
0.8333333333333334
 40
0.8333333333333334
 40
0.8333333333333334
 40
0.9166666666666667
 40
0.9166666666666667
 40
0.9166666666666667
 40
0.9166666666666667
 40
1.0
 40
1.0
 40
1.0
 40
1.0
 10
-2.899708661417323
 20
4.077220472440945
 30
0.0
 10
-2.899708661417323
 20
4.105444881889764
 30
0.0
 10
-2.896822834645669
 20
4.128165354330709
 30
0.0
 10
-2.890988188976378
 20
4.145334645669291
 30
0.0
 10
-2.890988188976378
 20
4.145334645669291
 30
0.0
 10
-2.885208661417323
 20
4.162555118110237
 30
0.0
 10
-2.876543307086614
 20
4.175834645669291
 30
0.0
 10
-2.86509842519685
 20
4.185165354330709
 30
0.0
 10
-2.86509842519685
 20
4.185165354330709
 30
0.0
 10
-2.853653543307087
 20
4.194500000000001
 30
0.0
 10
-2.839263779527559
 20
4.199165354330709
 30
0.0
 10
-2.821933070866142
 20
4.199165354330709
 30
0.0
 10
-2.821933070866142
 20
4.199165354330709
 30
0.0
 10
-2.809098425196851
 20
4.199165354330709
 30
0.0
 10
-2.797877952755906
 20
4.196555118110236
 30
0.0
 10
-2.788208661417323
 20
4.191389763779528
 30
0.0
 10
-2.788208661417323
 20
4.191389763779528
 30
0.0
 10
-2.778543307086614
 20
4.186279527559055
 30
0.0
 10
-2.77059842519685
 20
4.178834645669292
 30
0.0
 10
-2.764263779527559
 20
4.169110236220472
 30
0.0
 10
-2.764263779527559
 20
4.169110236220472
 30
0.0
 10
-2.757988188976378
 20
4.159389763779528
 30
0.0
 10
-2.753043307086614
 20
4.147555118110237
 30
0.0
 10
-2.749488188976378
 20
4.133610236220473
 30
0.0
 10
-2.749488188976378
 20
4.133610236220473
 30
0.0
 10
-2.745874015748032
 20
4.119665354330709
 30
0.0
 10
-2.74409842519685
 20
4.100889763779528
 30
0.0
 10
-2.74409842519685
 20
4.077220472440945
 30
0.0
 10
-2.74409842519685
 20
4.077220472440945
 30
0.0
 10
-2.74409842519685
 20
4.049220472440945
 30
0.0
 10
-2.746988188976378
 20
4.026665354330709
 30
0.0
 10
-2.752708661417323
 20
4.009444881889764
 30
0.0
 10
-2.752708661417323
 20
4.009444881889764
 30
0.0
 10
-2.758488188976378
 20
3.992220472440945
 30
0.0
 10
-2.767098425196851
 20
3.978944881889764
 30
0.0
 10
-2.778543307086614
 20
3.969555118110236
 30
0.0
 10
-2.778543307086614
 20
3.969555118110236
 30
0.0
 10
-2.789988188976378
 20
3.960165354330709
 30
0.0
 10
-2.804433070866142
 20
3.9555
 30
0.0
 10
-2.821933070866142
 20
3.9555
 30
0.0
 10
-2.821933070866142
 20
3.9555
 30
0.0
 10
-2.844933070866142
 20
3.9555
 30
0.0
 10
-2.862988188976378
 20
3.963720472440945
 30
0.0
 10
-2.87609842519685
 20
3.980220472440945
 30
0.0
 10
-2.87609842519685
 20
3.980220472440945
 30
0.0
 10
-2.891822834645669
 20
4.000055118110236
 30
0.0
 10
-2.899708661417323
 20
4.032444881889764
 30
0.0
 10
-2.899708661417323
 20
4.077220472440945
 30
0.0
  0
SPLINE
  5
58
330
1F
100
AcDbEntity
  8
Capa 1
 62
   250
100
AcDbSpline
210
0.0
220
0.0
230
1.0
 70
    11
 71
     3
 72
    36
 73
    32
 74
     0
 42
0.0000000001
 43
0.0000000001
 40
0.0
 40
0.0
 40
0.0
 40
0.0
 40
0.125
 40
0.125
 40
0.125
 40
0.125
 40
0.25
 40
0.25
 40
0.25
 40
0.25
 40
0.375
 40
0.375
 40
0.375
 40
0.375
 40
0.5
 40
0.5
 40
0.5
 40
0.5
 40
0.625
 40
0.625
 40
0.625
 40
0.625
 40
0.75
 40
0.75
 40
0.75
 40
0.75
 40
0.875
 40
0.875
 40
0.875
 40
0.875
 40
1.0
 40
1.0
 40
1.0
 40
1.0
 10
-2.869598425196851
 20
4.077220472440945
 30
0.0
 10
-2.869598425196851
 20
4.038055118110236
 30
0.0
 10
-2.864988188976378
 20
4.012000000000001
 30
0.0
 10
-2.855818897637795
 20
3.999
 30
0.0
 10
-2.855818897637795
 20
3.999
 30
0.0
 10
-2.846653543307087
 20
3.986055118110236
 30
0.0
 10
-2.835377952755906
 20
3.979555118110236
 30
0.0
 10
-2.821933070866142
 20
3.979555118110236
 30
0.0
 10
-2.821933070866142
 20
3.979555118110236
 30
0.0
 10
-2.808433070866142
 20
3.979555118110236
 30
0.0
 10
-2.797153543307087
 20
3.986110236220473
 30
0.0
 10
-2.787988188976378
 20
3.999110236220473
 30
0.0
 10
-2.787988188976378
 20
3.999110236220473
 30
0.0
 10
-2.778818897637795
 20
4.012110236220472
 30
0.0
 10
-2.774208661417323
 20
4.038165354330709
 30
0.0
 10
-2.774208661417323
 20
4.077220472440945
 30
0.0
 10
-2.774208661417323
 20
4.077220472440945
 30
0.0
 10
-2.774208661417323
 20
4.1165
 30
0.0
 10
-2.778818897637795
 20
4.142610236220473
 30
0.0
 10
-2.787988188976378
 20
4.1555
 30
0.0
 10
-2.787988188976378
 20
4.1555
 30
0.0
 10
-2.797153543307087
 20
4.168444881889764
 30
0.0
 10
-2.808543307086614
 20
4.174889763779528
 30
0.0
 10
-2.822208661417323
 20
4.174889763779528
 30
0.0
 10
-2.822208661417323
 20
4.174889763779528
 30
0.0
 10
-2.835708661417323
 20
4.174889763779528
 30
0.0
 10
-2.846433070866142
 20
4.169165354330709
 30
0.0
 10
-2.854488188976378
 20
4.157779527559056
 30
0.0
 10
-2.854488188976378
 20
4.157779527559056
 30
0.0
 10
-2.864543307086614
 20
4.143279527559056
 30
0.0
 10
-2.869598425196851
 20
4.116389763779528
 30
0.0
 10
-2.869598425196851
 20
4.077220472440945
 30
0.0
  0
SPLINE
  5
59
330
1F
100
AcDbEntity
  8
Capa 1
 62
   250
100
AcDbSpline
210
0.0
220
0.0
230
1.0
 70
    11
 71
     3
 72
    52
 73
    48
 74
     0
 42
0.0000000001
 43
0.0000000001
 40
0.0
 40
0.0
 40
0.0
 40
0.0
 40
0.0833333333333333
 40
0.0833333333333333
 40
0.0833333333333333
 40
0.0833333333333333
 40
0.1666666666666667
 40
0.1666666666666667
 40
0.1666666666666667
 40
0.1666666666666667
 40
0.25
 40
0.25
 40
0.25
 40
0.25
 40
0.3333333333333333
 40
0.3333333333333333
 40
0.3333333333333333
 40
0.3333333333333333
 40
0.4166666666666666
 40
0.4166666666666666
 40
0.4166666666666666
 40
0.4166666666666666
 40
0.4999999999999999
 40
0.4999999999999999
 40
0.4999999999999999
 40
0.4999999999999999
 40
0.5833333333333333
 40
0.5833333333333333
 40
0.5833333333333333
 40
0.5833333333333333
 40
0.6666666666666666
 40
0.6666666666666666
 40
0.6666666666666666
 40
0.6666666666666666
 40
0.75
 40
0.75
 40
0.75
 40
0.75
 40
0.8333333333333334
 40
0.8333333333333334
 40
0.8333333333333334
 40
0.8333333333333334
 40
0.9166666666666667
 40
0.9166666666666667
 40
0.9166666666666667
 40
0.9166666666666667
 40
1.0
 40
1.0
 40
1.0
 40
1.0
 10
-2.714318897637795
 20
4.077220472440945
 30
0.0
 10
-2.714318897637795
 20
4.105444881889764
 30
0.0
 10
-2.711433070866142
 20
4.128165354330709
 30
0.0
 10
-2.70559842519685
 20
4.145334645669291
 30
0.0
 10
-2.70559842519685
 20
4.145334645669291
 30
0.0
 10
-2.699818897637795
 20
4.162555118110237
 30
0.0
 10
-2.691153543307087
 20
4.175834645669291
 30
0.0
 10
-2.679708661417323
 20
4.185165354330709
 30
0.0
 10
-2.679708661417323
 20
4.185165354330709
 30
0.0
 10
-2.668263779527559
 20
4.194500000000001
 30
0.0
 10
-2.653874015748031
 20
4.199165354330709
 30
0.0
 10
-2.636543307086614
 20
4.199165354330709
 30
0.0
 10
-2.636543307086614
 20
4.199165354330709
 30
0.0
 10
-2.623708661417323
 20
4.199165354330709
 30
0.0
 10
-2.612488188976378
 20
4.196555118110236
 30
0.0
 10
-2.602818897637795
 20
4.191389763779528
 30
0.0
 10
-2.602818897637795
 20
4.191389763779528
 30
0.0
 10
-2.593153543307087
 20
4.186279527559055
 30
0.0
 10
-2.585208661417323
 20
4.178834645669292
 30
0.0
 10
-2.578874015748032
 20
4.169110236220472
 30
0.0
 10
-2.578874015748032
 20
4.169110236220472
 30
0.0
 10
-2.57259842519685
 20
4.159389763779528
 30
0.0
 10
-2.567653543307087
 20
4.147555118110237
 30
0.0
 10
-2.564098425196851
 20
4.133610236220473
 30
0.0
 10
-2.564098425196851
 20
4.133610236220473
 30
0.0
 10
-2.560484251968504
 20
4.119665354330709
 30
0.0
 10
-2.558708661417323
 20
4.100889763779528
 30
0.0
 10
-2.558708661417323
 20
4.077220472440945
 30
0.0
 10
-2.558708661417323
 20
4.077220472440945
 30
0.0
 10
-2.558708661417323
 20
4.049220472440945
 30
0.0
 10
-2.561598425196851
 20
4.026665354330709
 30
0.0
 10
-2.567318897637795
 20
4.009444881889764
 30
0.0
 10
-2.567318897637795
 20
4.009444881889764
 30
0.0
 10
-2.573098425196851
 20
3.992220472440945
 30
0.0
 10
-2.581708661417323
 20
3.978944881889764
 30
0.0
 10
-2.593153543307087
 20
3.969555118110236
 30
0.0
 10
-2.593153543307087
 20
3.969555118110236
 30
0.0
 10
-2.60459842519685
 20
3.960165354330709
 30
0.0
 10
-2.619043307086614
 20
3.9555
 30
0.0
 10
-2.636543307086614
 20
3.9555
 30
0.0
 10
-2.636543307086614
 20
3.9555
 30
0.0
 10
-2.659543307086614
 20
3.9555
 30
0.0
 10
-2.67759842519685
 20
3.963720472440945
 30
0.0
 10
-2.690708661417323
 20
3.980220472440945
 30
0.0
 10
-2.690708661417323
 20
3.980220472440945
 30
0.0
 10
-2.706433070866142
 20
4.000055118110236
 30
0.0
 10
-2.714318897637795
 20
4.032444881889764
 30
0.0
 10
-2.714318897637795
 20
4.077220472440945
 30
0.0
  0
SPLINE
  5
5A
330
1F
100
AcDbEntity
  8
Capa 1
 62
   250
100
AcDbSpline
210
0.0
220
0.0
230
1.0
 70
    11
 71
     3
 72
    36
 73
    32
 74
     0
 42
0.0000000001
 43
0.0000000001
 40
0.0
 40
0.0
 40
0.0
 40
0.0
 40
0.125
 40
0.125
 40
0.125
 40
0.125
 40
0.25
 40
0.25
 40
0.25
 40
0.25
 40
0.375
 40
0.375
 40
0.375
 40
0.375
 40
0.5
 40
0.5
 40
0.5
 40
0.5
 40
0.625
 40
0.625
 40
0.625
 40
0.625
 40
0.75
 40
0.75
 40
0.75
 40
0.75
 40
0.875
 40
0.875
 40
0.875
 40
0.875
 40
1.0
 40
1.0
 40
1.0
 40
1.0
 10
-2.684208661417323
 20
4.077220472440945
 30
0.0
 10
-2.684208661417323
 20
4.038055118110236
 30
0.0
 10
-2.679598425196851
 20
4.012000000000001
 30
0.0
 10
-2.670429133858268
 20
3.999
 30
0.0
 10
-2.670429133858268
 20
3.999
 30
0.0
 10
-2.661263779527559
 20
3.986055118110236
 30
0.0
 10
-2.649988188976378
 20
3.979555118110236
 30
0.0
 10
-2.636543307086614
 20
3.979555118110236
 30
0.0
 10
-2.636543307086614
 20
3.979555118110236
 30
0.0
 10
-2.623043307086614
 20
3.979555118110236
 30
0.0
 10
-2.611763779527559
 20
3.986110236220473
 30
0.0
 10
-2.602598425196851
 20
3.999110236220473
 30
0.0
 10
-2.602598425196851
 20
3.999110236220473
 30
0.0
 10
-2.593429133858268
 20
4.012110236220472
 30
0.0
 10
-2.588818897637796
 20
4.038165354330709
 30
0.0
 10
-2.588818897637796
 20
4.077220472440945
 30
0.0
 10
-2.588818897637796
 20
4.077220472440945
 30
0.0
 10
-2.588818897637796
 20
4.1165
 30
0.0
 10
-2.593429133858268
 20
4.142610236220473
 30
0.0
 10
-2.602598425196851
 20
4.1555
 30
0.0
 10
-2.602598425196851
 20
4.1555
 30
0.0
 10
-2.611763779527559
 20
4.168444881889764
 30
0.0
 10
-2.623153543307087
 20
4.174889763779528
 30
0.0
 10
-2.636818897637796
 20
4.174889763779528
 30
0.0
 10
-2.636818897637796
 20
4.174889763779528
 30
0.0
 10
-2.650318897637795
 20
4.174889763779528
 30
0.0
 10
-2.661043307086614
 20
4.169165354330709
 30
0.0
 10
-2.669098425196851
 20
4.157779527559056
 30
0.0
 10
-2.669098425196851
 20
4.157779527559056
 30
0.0
 10
-2.679153543307087
 20
4.143279527559056
 30
0.0
 10
-2.684208661417323
 20
4.116389763779528
 30
0.0
 10
-2.684208661417323
 20
4.077220472440945
 30
0.0
  0
SPLINE
  5
5B
330
1F
100
AcDbEntity
  8
Capa 1
 62
   250
100
AcDbSpline
210
0.0
220
0.0
230
1.0
 70
    11
 71
     3
 72
   116
 73
   112
 74
     0
 42
0.0000000001
 43
0.0000000001
 40
0.0
 40
0.0
 40
0.0
 40
0.0
 40
0.0357142857142857
 40
0.0357142857142857
 40
0.0357142857142857
 40
0.0357142857142857
 40
0.0714285714285714
 40
0.0714285714285714
 40
0.0714285714285714
 40
0.0714285714285714
 40
0.1071428571428571
 40
0.1071428571428571
 40
0.1071428571428571
 40
0.1071428571428571
 40
0.1428571428571429
 40
0.1428571428571429
 40
0.1428571428571429
 40
0.1428571428571429
 40
0.1785714285714286
 40
0.1785714285714286
 40
0.1785714285714286
 40
0.1785714285714286
 40
0.2142857142857143
 40
0.2142857142857143
 40
0.2142857142857143
 40
0.2142857142857143
 40
0.2499999999999999
 40
0.2499999999999999
 40
0.2499999999999999
 40
0.2499999999999999
 40
0.2857142857142856
 40
0.2857142857142856
 40
0.2857142857142856
 40
0.2857142857142856
 40
0.3214285714285713
 40
0.3214285714285713
 40
0.3214285714285713
 40
0.3214285714285713
 40
0.357142857142857
 40
0.357142857142857
 40
0.357142857142857
 40
0.357142857142857
 40
0.3928571428571427
 40
0.3928571428571427
 40
0.3928571428571427
 40
0.3928571428571427
 40
0.4285714285714284
 40
0.4285714285714284
 40
0.4285714285714284
 40
0.4285714285714284
 40
0.4642857142857141
 40
0.4642857142857141
 40
0.4642857142857141
 40
0.4642857142857141
 40
0.4999999999999998
 40
0.4999999999999998
 40
0.4999999999999998
 40
0.4999999999999998
 40
0.5357142857142856
 40
0.5357142857142856
 40
0.5357142857142856
 40
0.5357142857142856
 40
0.5714285714285713
 40
0.5714285714285713
 40
0.5714285714285713
 40
0.5714285714285713
 40
0.607142857142857
 40
0.607142857142857
 40
0.607142857142857
 40
0.607142857142857
 40
0.6428571428571427
 40
0.6428571428571427
 40
0.6428571428571427
 40
0.6428571428571427
 40
0.6785714285714284
 40
0.6785714285714284
 40
0.6785714285714284
 40
0.6785714285714284
 40
0.7142857142857141
 40
0.7142857142857141
 40
0.7142857142857141
 40
0.7142857142857141
 40
0.7499999999999998
 40
0.7499999999999998
 40
0.7499999999999998
 40
0.7499999999999998
 40
0.7857142857142855
 40
0.7857142857142855
 40
0.7857142857142855
 40
0.7857142857142855
 40
0.8214285714285712
 40
0.8214285714285712
 40
0.8214285714285712
 40
0.8214285714285712
 40
0.8571428571428569
 40
0.8571428571428569
 40
0.8571428571428569
 40
0.8571428571428569
 40
0.8928571428571426
 40
0.8928571428571426
 40
0.8928571428571426
 40
0.8928571428571426
 40
0.9285714285714283
 40
0.9285714285714283
 40
0.9285714285714283
 40
0.9285714285714283
 40
0.964285714285714
 40
0.964285714285714
 40
0.964285714285714
 40
0.964285714285714
 40
1.0
 40
1.0
 40
1.0
 40
1.0
 10
-2.428153543307087
 20
3.959555118110236
 30
0.0
 10
-2.428153543307087
 20
3.959555118110236
 30
0.0
 10
-2.428153543307087
 20
4.132389763779528
 30
0.0
 10
-2.428153543307087
 20
4.132389763779528
 30
0.0
 10
-2.428153543307087
 20
4.132389763779528
 30
0.0
 10
-2.428153543307087
 20
4.132389763779528
 30
0.0
 10
-2.401988188976378
 20
4.132389763779528
 30
0.0
 10
-2.401988188976378
 20
4.132389763779528
 30
0.0
 10
-2.401988188976378
 20
4.132389763779528
 30
0.0
 10
-2.401988188976378
 20
4.132389763779528
 30
0.0
 10
-2.401988188976378
 20
4.108165354330708
 30
0.0
 10
-2.401988188976378
 20
4.108165354330708
 30
0.0
 10
-2.401988188976378
 20
4.108165354330708
 30
0.0
 10
-2.396543307086614
 20
4.116610236220472
 30
0.0
 10
-2.389318897637796
 20
4.123444881889764
 30
0.0
 10
-2.380318897637796
 20
4.128555118110237
 30
0.0
 10
-2.380318897637796
 20
4.128555118110237
 30
0.0
 10
-2.371318897637795
 20
4.133724409448819
 30
0.0
 10
-2.361043307086614
 20
4.136334645669291
 30
0.0
 10
-2.349543307086614
 20
4.136334645669291
 30
0.0
 10
-2.349543307086614
 20
4.136334645669291
 30
0.0
 10
-2.336763779527559
 20
4.136334645669291
 30
0.0
 10
-2.326263779527559
 20
4.133665354330709
 30
0.0
 10
-2.318098425196851
 20
4.128334645669291
 30
0.0
 10
-2.318098425196851
 20
4.128334645669291
 30
0.0
 10
-2.309874015748032
 20
4.123
 30
0.0
 10
-2.30409842519685
 20
4.115610236220473
 30
0.0
 10
-2.300763779527559
 20
4.106055118110237
 30
0.0
 10
-2.300763779527559
 20
4.106055118110237
 30
0.0
 10
-2.287043307086614
 20
4.126224409448819
 30
0.0
 10
-2.269263779527559
 20
4.136334645669291
 30
0.0
 10
-2.247374015748032
 20
4.136334645669291
 30
0.0
 10
-2.247374015748032
 20
4.136334645669291
 30
0.0
 10
-2.230208661417323
 20
4.136334645669291
 30
0.0
 10
-2.217043307086614
 20
4.131555118110237
 30
0.0
 10
-2.207818897637795
 20
4.122055118110237
 30
0.0
 10
-2.207818897637795
 20
4.122055118110237
 30
0.0
 10
-2.198598425196851
 20
4.112555118110237
 30
0.0
 10
-2.193984251968504
 20
4.097944881889764
 30
0.0
 10
-2.193984251968504
 20
4.078220472440945
 30
0.0
 10
-2.193984251968504
 20
4.078220472440945
 30
0.0
 10
-2.193984251968504
 20
4.078220472440945
 30
0.0
 10
-2.193984251968504
 20
3.959555118110236
 30
0.0
 10
-2.193984251968504
 20
3.959555118110236
 30
0.0
 10
-2.193984251968504
 20
3.959555118110236
 30
0.0
 10
-2.193984251968504
 20
3.959555118110236
 30
0.0
 10
-2.22309842519685
 20
3.959555118110236
 30
0.0
 10
-2.22309842519685
 20
3.959555118110236
 30
0.0
 10
-2.22309842519685
 20
3.959555118110236
 30
0.0
 10
-2.22309842519685
 20
3.959555118110236
 30
0.0
 10
-2.22309842519685
 20
4.068444881889764
 30
0.0
 10
-2.22309842519685
 20
4.068444881889764
 30
0.0
 10
-2.22309842519685
 20
4.068444881889764
 30
0.0
 10
-2.22309842519685
 20
4.080165354330709
 30
0.0
 10
-2.224043307086614
 20
4.088610236220473
 30
0.0
 10
-2.225929133858268
 20
4.093779527559056
 30
0.0
 10
-2.225929133858268
 20
4.093779527559056
 30
0.0
 10
-2.227874015748032
 20
4.098889763779527
 30
0.0
 10
-2.231318897637796
 20
4.103055118110237
 30
0.0
 10
-2.236263779527559
 20
4.106220472440946
 30
0.0
 10
-2.236263779527559
 20
4.106220472440946
 30
0.0
 10
-2.241263779527559
 20
4.109334645669292
 30
0.0
 10
-2.247153543307087
 20
4.110944881889764
 30
0.0
 10
-2.253874015748032
 20
4.110944881889764
 30
0.0
 10
-2.253874015748032
 20
4.110944881889764
 30
0.0
 10
-2.266043307086614
 20
4.110944881889764
 30
0.0
 10
-2.27609842519685
 20
4.106889763779527
 30
0.0
 10
-2.284153543307087
 20
4.098779527559056
 30
0.0
 10
-2.284153543307087
 20
4.098779527559056
 30
0.0
 10
-2.292153543307087
 20
4.090720472440945
 30
0.0
 10
-2.296208661417323
 20
4.077779527559056
 30
0.0
 10
-2.296208661417323
 20
4.060000000000001
 30
0.0
 10
-2.296208661417323
 20
4.060000000000001
 30
0.0
 10
-2.296208661417323
 20
4.060000000000001
 30
0.0
 10
-2.296208661417323
 20
3.959555118110236
 30
0.0
 10
-2.296208661417323
 20
3.959555118110236
 30
0.0
 10
-2.296208661417323
 20
3.959555118110236
 30
0.0
 10
-2.296208661417323
 20
3.959555118110236
 30
0.0
 10
-2.325488188976378
 20
3.959555118110236
 30
0.0
 10
-2.325488188976378
 20
3.959555118110236
 30
0.0
 10
-2.325488188976378
 20
3.959555118110236
 30
0.0
 10
-2.325488188976378
 20
3.959555118110236
 30
0.0
 10
-2.325488188976378
 20
4.071834645669291
 30
0.0
 10
-2.325488188976378
 20
4.071834645669291
 30
0.0
 10
-2.325488188976378
 20
4.071834645669291
 30
0.0
 10
-2.325488188976378
 20
4.084889763779528
 30
0.0
 10
-2.327874015748032
 20
4.094665354330709
 30
0.0
 10
-2.332653543307087
 20
4.101165354330709
 30
0.0
 10
-2.332653543307087
 20
4.101165354330709
 30
0.0
 10
-2.337429133858268
 20
4.107665354330709
 30
0.0
 10
-2.345208661417323
 20
4.110944881889764
 30
0.0
 10
-2.35609842519685
 20
4.110944881889764
 30
0.0
 10
-2.35609842519685
 20
4.110944881889764
 30
0.0
 10
-2.364318897637796
 20
4.110944881889764
 30
0.0
 10
-2.371929133858268
 20
4.108779527559055
 30
0.0
 10
-2.378929133858268
 20
4.104389763779528
 30
0.0
 10
-2.378929133858268
 20
4.104389763779528
 30
0.0
 10
-2.385929133858268
 20
4.100055118110237
 30
0.0
 10
-2.391043307086614
 20
4.093720472440945
 30
0.0
 10
-2.394153543307087
 20
4.085389763779528
 30
0.0
 10
-2.394153543307087
 20
4.085389763779528
 30
0.0
 10
-2.397318897637796
 20
4.077
 30
0.0
 10
-2.398874015748032
 20
4.064944881889764
 30
0.0
 10
-2.398874015748032
 20
4.049220472440945
 30
0.0
 10
-2.398874015748032
 20
4.049220472440945
 30
0.0
 10
-2.398874015748032
 20
4.049220472440945
 30
0.0
 10
-2.398874015748032
 20
3.959555118110236
 30
0.0
 10
-2.398874015748032
 20
3.959555118110236
 30
0.0
 10
-2.398874015748032
 20
3.959555118110236
 30
0.0
 10
-2.398874015748032
 20
3.959555118110236
 30
0.0
 10
-2.428153543307087
 20
3.959555118110236
 30
0.0
 10
-2.428153543307087
 20
3.959555118110236
 30
0.0
  0
SPLINE
  5
5C
330
1F
100
AcDbEntity
  8
Capa 1
 62
   250
100
AcDbSpline
210
0.0
220
0.0
230
1.0
 70
    11
 71
     3
 72
   116
 73
   112
 74
     0
 42
0.0000000001
 43
0.0000000001
 40
0.0
 40
0.0
 40
0.0
 40
0.0
 40
0.0357142857142857
 40
0.0357142857142857
 40
0.0357142857142857
 40
0.0357142857142857
 40
0.0714285714285714
 40
0.0714285714285714
 40
0.0714285714285714
 40
0.0714285714285714
 40
0.1071428571428571
 40
0.1071428571428571
 40
0.1071428571428571
 40
0.1071428571428571
 40
0.1428571428571429
 40
0.1428571428571429
 40
0.1428571428571429
 40
0.1428571428571429
 40
0.1785714285714286
 40
0.1785714285714286
 40
0.1785714285714286
 40
0.1785714285714286
 40
0.2142857142857143
 40
0.2142857142857143
 40
0.2142857142857143
 40
0.2142857142857143
 40
0.2499999999999999
 40
0.2499999999999999
 40
0.2499999999999999
 40
0.2499999999999999
 40
0.2857142857142856
 40
0.2857142857142856
 40
0.2857142857142856
 40
0.2857142857142856
 40
0.3214285714285713
 40
0.3214285714285713
 40
0.3214285714285713
 40
0.3214285714285713
 40
0.357142857142857
 40
0.357142857142857
 40
0.357142857142857
 40
0.357142857142857
 40
0.3928571428571427
 40
0.3928571428571427
 40
0.3928571428571427
 40
0.3928571428571427
 40
0.4285714285714284
 40
0.4285714285714284
 40
0.4285714285714284
 40
0.4285714285714284
 40
0.4642857142857141
 40
0.4642857142857141
 40
0.4642857142857141
 40
0.4642857142857141
 40
0.4999999999999998
 40
0.4999999999999998
 40
0.4999999999999998
 40
0.4999999999999998
 40
0.5357142857142856
 40
0.5357142857142856
 40
0.5357142857142856
 40
0.5357142857142856
 40
0.5714285714285713
 40
0.5714285714285713
 40
0.5714285714285713
 40
0.5714285714285713
 40
0.607142857142857
 40
0.607142857142857
 40
0.607142857142857
 40
0.607142857142857
 40
0.6428571428571427
 40
0.6428571428571427
 40
0.6428571428571427
 40
0.6428571428571427
 40
0.6785714285714284
 40
0.6785714285714284
 40
0.6785714285714284
 40
0.6785714285714284
 40
0.7142857142857141
 40
0.7142857142857141
 40
0.7142857142857141
 40
0.7142857142857141
 40
0.7499999999999998
 40
0.7499999999999998
 40
0.7499999999999998
 40
0.7499999999999998
 40
0.7857142857142855
 40
0.7857142857142855
 40
0.7857142857142855
 40
0.7857142857142855
 40
0.8214285714285712
 40
0.8214285714285712
 40
0.8214285714285712
 40
0.8214285714285712
 40
0.8571428571428569
 40
0.8571428571428569
 40
0.8571428571428569
 40
0.8571428571428569
 40
0.8928571428571426
 40
0.8928571428571426
 40
0.8928571428571426
 40
0.8928571428571426
 40
0.9285714285714283
 40
0.9285714285714283
 40
0.9285714285714283
 40
0.9285714285714283
 40
0.964285714285714
 40
0.964285714285714
 40
0.964285714285714
 40
0.964285714285714
 40
1.0
 40
1.0
 40
1.0
 40
1.0
 10
-2.150484251968504
 20
3.959555118110236
 30
0.0
 10
-2.150484251968504
 20
3.959555118110236
 30
0.0
 10
-2.150484251968504
 20
4.132389763779528
 30
0.0
 10
-2.150484251968504
 20
4.132389763779528
 30
0.0
 10
-2.150484251968504
 20
4.132389763779528
 30
0.0
 10
-2.150484251968504
 20
4.132389763779528
 30
0.0
 10
-2.124318897637795
 20
4.132389763779528
 30
0.0
 10
-2.124318897637795
 20
4.132389763779528
 30
0.0
 10
-2.124318897637795
 20
4.132389763779528
 30
0.0
 10
-2.124318897637795
 20
4.132389763779528
 30
0.0
 10
-2.124318897637795
 20
4.108165354330708
 30
0.0
 10
-2.124318897637795
 20
4.108165354330708
 30
0.0
 10
-2.124318897637795
 20
4.108165354330708
 30
0.0
 10
-2.118874015748032
 20
4.116610236220472
 30
0.0
 10
-2.111649606299213
 20
4.123444881889764
 30
0.0
 10
-2.102649606299213
 20
4.128555118110237
 30
0.0
 10
-2.102649606299213
 20
4.128555118110237
 30
0.0
 10
-2.093649606299213
 20
4.133724409448819
 30
0.0
 10
-2.083374015748031
 20
4.136334645669291
 30
0.0
 10
-2.071874015748032
 20
4.136334645669291
 30
0.0
 10
-2.071874015748032
 20
4.136334645669291
 30
0.0
 10
-2.059094488188976
 20
4.136334645669291
 30
0.0
 10
-2.048594488188976
 20
4.133665354330709
 30
0.0
 10
-2.040429133858268
 20
4.128334645669291
 30
0.0
 10
-2.040429133858268
 20
4.128334645669291
 30
0.0
 10
-2.032204724409449
 20
4.123
 30
0.0
 10
-2.026429133858268
 20
4.115610236220473
 30
0.0
 10
-2.023094488188976
 20
4.106055118110237
 30
0.0
 10
-2.023094488188976
 20
4.106055118110237
 30
0.0
 10
-2.009374015748032
 20
4.126224409448819
 30
0.0
 10
-1.991594488188976
 20
4.136334645669291
 30
0.0
 10
-1.969704724409449
 20
4.136334645669291
 30
0.0
 10
-1.969704724409449
 20
4.136334645669291
 30
0.0
 10
-1.95253937007874
 20
4.136334645669291
 30
0.0
 10
-1.939374015748032
 20
4.131555118110237
 30
0.0
 10
-1.930149606299213
 20
4.122055118110237
 30
0.0
 10
-1.930149606299213
 20
4.122055118110237
 30
0.0
 10
-1.920929133858268
 20
4.112555118110237
 30
0.0
 10
-1.916314960629921
 20
4.097944881889764
 30
0.0
 10
-1.916314960629921
 20
4.078220472440945
 30
0.0
 10
-1.916314960629921
 20
4.078220472440945
 30
0.0
 10
-1.916314960629921
 20
4.078220472440945
 30
0.0
 10
-1.916314960629921
 20
3.959555118110236
 30
0.0
 10
-1.916314960629921
 20
3.959555118110236
 30
0.0
 10
-1.916314960629921
 20
3.959555118110236
 30
0.0
 10
-1.916314960629921
 20
3.959555118110236
 30
0.0
 10
-1.945429133858268
 20
3.959555118110236
 30
0.0
 10
-1.945429133858268
 20
3.959555118110236
 30
0.0
 10
-1.945429133858268
 20
3.959555118110236
 30
0.0
 10
-1.945429133858268
 20
3.959555118110236
 30
0.0
 10
-1.945429133858268
 20
4.068444881889764
 30
0.0
 10
-1.945429133858268
 20
4.068444881889764
 30
0.0
 10
-1.945429133858268
 20
4.068444881889764
 30
0.0
 10
-1.945429133858268
 20
4.080165354330709
 30
0.0
 10
-1.946374015748032
 20
4.088610236220473
 30
0.0
 10
-1.948259842519685
 20
4.093779527559056
 30
0.0
 10
-1.948259842519685
 20
4.093779527559056
 30
0.0
 10
-1.950204724409449
 20
4.098889763779527
 30
0.0
 10
-1.953649606299213
 20
4.103055118110237
 30
0.0
 10
-1.958594488188977
 20
4.106220472440946
 30
0.0
 10
-1.958594488188977
 20
4.106220472440946
 30
0.0
 10
-1.963594488188976
 20
4.109334645669292
 30
0.0
 10
-1.969484251968504
 20
4.110944881889764
 30
0.0
 10
-1.976204724409449
 20
4.110944881889764
 30
0.0
 10
-1.976204724409449
 20
4.110944881889764
 30
0.0
 10
-1.988374015748032
 20
4.110944881889764
 30
0.0
 10
-1.998429133858268
 20
4.106889763779527
 30
0.0
 10
-2.006484251968504
 20
4.098779527559056
 30
0.0
 10
-2.006484251968504
 20
4.098779527559056
 30
0.0
 10
-2.014484251968504
 20
4.090720472440945
 30
0.0
 10
-2.01853937007874
 20
4.077779527559056
 30
0.0
 10
-2.01853937007874
 20
4.060000000000001
 30
0.0
 10
-2.01853937007874
 20
4.060000000000001
 30
0.0
 10
-2.01853937007874
 20
4.060000000000001
 30
0.0
 10
-2.01853937007874
 20
3.959555118110236
 30
0.0
 10
-2.01853937007874
 20
3.959555118110236
 30
0.0
 10
-2.01853937007874
 20
3.959555118110236
 30
0.0
 10
-2.01853937007874
 20
3.959555118110236
 30
0.0
 10
-2.047818897637796
 20
3.959555118110236
 30
0.0
 10
-2.047818897637796
 20
3.959555118110236
 30
0.0
 10
-2.047818897637796
 20
3.959555118110236
 30
0.0
 10
-2.047818897637796
 20
3.959555118110236
 30
0.0
 10
-2.047818897637796
 20
4.071834645669291
 30
0.0
 10
-2.047818897637796
 20
4.071834645669291
 30
0.0
 10
-2.047818897637796
 20
4.071834645669291
 30
0.0
 10
-2.047818897637796
 20
4.084889763779528
 30
0.0
 10
-2.050204724409449
 20
4.094665354330709
 30
0.0
 10
-2.054984251968504
 20
4.101165354330709
 30
0.0
 10
-2.054984251968504
 20
4.101165354330709
 30
0.0
 10
-2.059759842519685
 20
4.107665354330709
 30
0.0
 10
-2.06753937007874
 20
4.110944881889764
 30
0.0
 10
-2.078429133858268
 20
4.110944881889764
 30
0.0
 10
-2.078429133858268
 20
4.110944881889764
 30
0.0
 10
-2.086649606299213
 20
4.110944881889764
 30
0.0
 10
-2.094259842519685
 20
4.108779527559055
 30
0.0
 10
-2.101259842519685
 20
4.104389763779528
 30
0.0
 10
-2.101259842519685
 20
4.104389763779528
 30
0.0
 10
-2.108259842519685
 20
4.100055118110237
 30
0.0
 10
-2.113374015748032
 20
4.093720472440945
 30
0.0
 10
-2.116484251968504
 20
4.085389763779528
 30
0.0
 10
-2.116484251968504
 20
4.085389763779528
 30
0.0
 10
-2.119649606299213
 20
4.077
 30
0.0
 10
-2.121204724409449
 20
4.064944881889764
 30
0.0
 10
-2.121204724409449
 20
4.049220472440945
 30
0.0
 10
-2.121204724409449
 20
4.049220472440945
 30
0.0
 10
-2.121204724409449
 20
4.049220472440945
 30
0.0
 10
-2.121204724409449
 20
3.959555118110236
 30
0.0
 10
-2.121204724409449
 20
3.959555118110236
 30
0.0
 10
-2.121204724409449
 20
3.959555118110236
 30
0.0
 10
-2.121204724409449
 20
3.959555118110236
 30
0.0
 10
-2.150484251968504
 20
3.959555118110236
 30
0.0
 10
-2.150484251968504
 20
3.959555118110236
 30
0.0
  0
SPLINE
  5
5D
330
1F
100
AcDbEntity
  8
Capa 1
 62
   250
370
     5
100
AcDbSpline
210
0.0
220
0.0
230
1.0
 70
    24
 71
     3
 72
     8
 73
     4
 74
     0
 42
0.0000000001
 43
0.0000000001
 40
0.0
 40
0.0
 40
0.0
 40
0.0
 40
1.0
 40
1.0
 40
1.0
 40
1.0
 10
5.905511811023622
 20
2.285031496062992
 30
0.0
 10
5.905511811023622
 20
2.285031496062992
 30
0.0
 10
5.905511811023622
 20
4.300259842519686
 30
0.0
 10
5.905511811023622
 20
4.300259842519686
 30
0.0
  0
SPLINE
  5
5E
330
1F
100
AcDbEntity
  8
Capa 1
 62
   250
370
     5
100
AcDbSpline
210
0.0
220
0.0
230
1.0
 70
    24
 71
     3
 72
     8
 73
     4
 74
     0
 42
0.0000000001
 43
0.0000000001
 40
0.0
 40
0.0
 40
0.0
 40
0.0
 40
1.0
 40
1.0
 40
1.0
 40
1.0
 10
0.000003937007874
 20
2.285031496062992
 30
0.0
 10
0.000003937007874
 20
2.285031496062992
 30
0.0
 10
0.000003937007874
 20
4.300259842519686
 30
0.0
 10
0.000003937007874
 20
4.300259842519686
 30
0.0
  0
SPLINE
  5
5F
330
1F
100
AcDbEntity
  8
Capa 1
 62
   250
370
     5
100
AcDbSpline
210
0.0
220
0.0
230
1.0
 70
    24
 71
     3
 72
     8
 73
     4
 74
     0
 42
0.0000000001
 43
0.0000000001
 40
0.0
 40
0.0
 40
0.0
 40
0.0
 40
1.0
 40
1.0
 40
1.0
 40
1.0
 10
5.905511811023622
 20
4.100259842519685
 30
0.0
 10
5.905511811023622
 20
4.100259842519685
 30
0.0
 10
4.639196850393701
 20
4.100259842519685
 30
0.0
 10
4.639196850393701
 20
4.100259842519685
 30
0.0
  0
SPLINE
  5
60
330
1F
100
AcDbEntity
  8
Capa 1
 62
   250
370
     5
100
AcDbSpline
210
0.0
220
0.0
230
1.0
 70
    24
 71
     3
 72
     8
 73
     4
 74
     0
 42
0.0000000001
 43
0.0000000001
 40
0.0
 40
0.0
 40
0.0
 40
0.0
 40
1.0
 40
1.0
 40
1.0
 40
1.0
 10
2.493188976377953
 20
4.100259842519685
 30
0.0
 10
2.493188976377953
 20
4.100259842519685
 30
0.0
 10
0.000003937007874
 20
4.100259842519685
 30
0.0
 10
0.000003937007874
 20
4.100259842519685
 30
0.0
  0
SPLINE
  5
61
330
1F
100
AcDbEntity
  8
Capa 1
 62
   250
100
AcDbSpline
210
0.0
220
0.0
230
1.0
 70
    11
 71
     3
 72
    40
 73
    36
 74
     0
 42
0.0000000001
 43
0.0000000001
 40
0.0
 40
0.0
 40
0.0
 40
0.0
 40
0.1111111111111111
 40
0.1111111111111111
 40
0.1111111111111111
 40
0.1111111111111111
 40
0.2222222222222222
 40
0.2222222222222222
 40
0.2222222222222222
 40
0.2222222222222222
 40
0.3333333333333333
 40
0.3333333333333333
 40
0.3333333333333333
 40
0.3333333333333333
 40
0.4444444444444444
 40
0.4444444444444444
 40
0.4444444444444444
 40
0.4444444444444444
 40
0.5555555555555556
 40
0.5555555555555556
 40
0.5555555555555556
 40
0.5555555555555556
 40
0.6666666666666667
 40
0.6666666666666667
 40
0.6666666666666667
 40
0.6666666666666667
 40
0.7777777777777779
 40
0.7777777777777779
 40
0.7777777777777779
 40
0.7777777777777779
 40
0.8888888888888891
 40
0.8888888888888891
 40
0.8888888888888891
 40
0.8888888888888891
 40
1.0
 40
1.0
 40
1.0
 40
1.0
 10
2.867354330708662
 20
3.982484251968504
 30
0.0
 10
2.867354330708662
 20
3.982484251968504
 30
0.0
 10
2.838078740157481
 20
3.982484251968504
 30
0.0
 10
2.838078740157481
 20
3.982484251968504
 30
0.0
 10
2.838078740157481
 20
3.982484251968504
 30
0.0
 10
2.838078740157481
 20
3.982484251968504
 30
0.0
 10
2.838078740157481
 20
4.169153543307087
 30
0.0
 10
2.838078740157481
 20
4.169153543307087
 30
0.0
 10
2.838078740157481
 20
4.169153543307087
 30
0.0
 10
2.831023622047244
 20
4.162429133858268
 30
0.0
 10
2.821799212598426
 20
4.155708661417323
 30
0.0
 10
2.810354330708662
 20
4.148984251968504
 30
0.0
 10
2.810354330708662
 20
4.148984251968504
 30
0.0
 10
2.798854330708662
 20
4.14226377952756
 30
0.0
 10
2.78857874015748
 20
4.137208661417323
 30
0.0
 10
2.779468503937008
 20
4.133874015748032
 30
0.0
 10
2.779468503937008
 20
4.133874015748032
 30
0.0
 10
2.779468503937008
 20
4.133874015748032
 30
0.0
 10
2.779468503937008
 20
4.162153543307086
 30
0.0
 10
2.779468503937008
 20
4.162153543307086
 30
0.0
 10
2.779468503937008
 20
4.162153543307086
 30
0.0
 10
2.795854330708662
 20
4.169874015748031
 30
0.0
 10
2.810188976377953
 20
4.179208661417323
 30
0.0
 10
2.822468503937008
 20
4.190153543307087
 30
0.0
 10
2.822468503937008
 20
4.190153543307087
 30
0.0
 10
2.834688976377953
 20
4.201153543307087
 30
0.0
 10
2.843413385826772
 20
4.211763779527559
 30
0.0
 10
2.848523622047244
 20
4.222094488188977
 30
0.0
 10
2.848523622047244
 20
4.222094488188977
 30
0.0
 10
2.848523622047244
 20
4.222094488188977
 30
0.0
 10
2.867354330708662
 20
4.222094488188977
 30
0.0
 10
2.867354330708662
 20
4.222094488188977
 30
0.0
 10
2.867354330708662
 20
4.222094488188977
 30
0.0
 10
2.867354330708662
 20
4.222094488188977
 30
0.0
 10
2.867354330708662
 20
3.982484251968504
 30
0.0
 10
2.867354330708662
 20
3.982484251968504
 30
0.0
  0
SPLINE
  5
62
330
1F
100
AcDbEntity
  8
Capa 1
 62
   250
100
AcDbSpline
210
0.0
220
0.0
230
1.0
 70
    11
 71
     3
 72
    92
 73
    88
 74
     0
 42
0.0000000001
 43
0.0000000001
 40
0.0
 40
0.0
 40
0.0
 40
0.0
 40
0.0454545454545455
 40
0.0454545454545455
 40
0.0454545454545455
 40
0.0454545454545455
 40
0.0909090909090909
 40
0.0909090909090909
 40
0.0909090909090909
 40
0.0909090909090909
 40
0.1363636363636364
 40
0.1363636363636364
 40
0.1363636363636364
 40
0.1363636363636364
 40
0.1818181818181818
 40
0.1818181818181818
 40
0.1818181818181818
 40
0.1818181818181818
 40
0.2272727272727273
 40
0.2272727272727273
 40
0.2272727272727273
 40
0.2272727272727273
 40
0.2727272727272728
 40
0.2727272727272728
 40
0.2727272727272728
 40
0.2727272727272728
 40
0.3181818181818182
 40
0.3181818181818182
 40
0.3181818181818182
 40
0.3181818181818182
 40
0.3636363636363637
 40
0.3636363636363637
 40
0.3636363636363637
 40
0.3636363636363637
 40
0.4090909090909092
 40
0.4090909090909092
 40
0.4090909090909092
 40
0.4090909090909092
 40
0.4545454545454546
 40
0.4545454545454546
 40
0.4545454545454546
 40
0.4545454545454546
 40
0.5000000000000001
 40
0.5000000000000001
 40
0.5000000000000001
 40
0.5000000000000001
 40
0.5454545454545455
 40
0.5454545454545455
 40
0.5454545454545455
 40
0.5454545454545455
 40
0.5909090909090909
 40
0.5909090909090909
 40
0.5909090909090909
 40
0.5909090909090909
 40
0.6363636363636364
 40
0.6363636363636364
 40
0.6363636363636364
 40
0.6363636363636364
 40
0.6818181818181818
 40
0.6818181818181818
 40
0.6818181818181818
 40
0.6818181818181818
 40
0.7272727272727272
 40
0.7272727272727272
 40
0.7272727272727272
 40
0.7272727272727272
 40
0.7727272727272726
 40
0.7727272727272726
 40
0.7727272727272726
 40
0.7727272727272726
 40
0.818181818181818
 40
0.818181818181818
 40
0.818181818181818
 40
0.818181818181818
 40
0.8636363636363634
 40
0.8636363636363634
 40
0.8636363636363634
 40
0.8636363636363634
 40
0.9090909090909088
 40
0.9090909090909088
 40
0.9090909090909088
 40
0.9090909090909088
 40
0.9545454545454543
 40
0.9545454545454543
 40
0.9545454545454543
 40
0.9545454545454543
 40
1.0
 40
1.0
 40
1.0
 40
1.0
 10
2.942413385826772
 20
4.044984251968504
 30
0.0
 10
2.942413385826772
 20
4.044984251968504
 30
0.0
 10
2.973188976377953
 20
4.047594488188977
 30
0.0
 10
2.973188976377953
 20
4.047594488188977
 30
0.0
 10
2.973188976377953
 20
4.047594488188977
 30
0.0
 10
2.975468503937008
 20
4.032594488188977
 30
0.0
 10
2.980744094488189
 20
4.021374015748032
 30
0.0
 10
2.989023622047244
 20
4.013818897637796
 30
0.0
 10
2.989023622047244
 20
4.013818897637796
 30
0.0
 10
2.997358267716535
 20
4.00626377952756
 30
0.0
 10
3.007358267716536
 20
4.002484251968504
 30
0.0
 10
3.019078740157481
 20
4.002484251968504
 30
0.0
 10
3.019078740157481
 20
4.002484251968504
 30
0.0
 10
3.033188976377953
 20
4.002484251968504
 30
0.0
 10
3.045133858267717
 20
4.007818897637796
 30
0.0
 10
3.054858267716536
 20
4.018429133858268
 30
0.0
 10
3.054858267716536
 20
4.018429133858268
 30
0.0
 10
3.064633858267717
 20
4.029094488188976
 30
0.0
 10
3.069523622047244
 20
4.043208661417323
 30
0.0
 10
3.069523622047244
 20
4.06076377952756
 30
0.0
 10
3.069523622047244
 20
4.06076377952756
 30
0.0
 10
3.069523622047244
 20
4.077484251968504
 30
0.0
 10
3.064858267716536
 20
4.090649606299213
 30
0.0
 10
3.055468503937008
 20
4.100318897637796
 30
0.0
 10
3.055468503937008
 20
4.100318897637796
 30
0.0
 10
3.04607874015748
 20
4.109984251968504
 30
0.0
 10
3.033803149606299
 20
4.114818897637796
 30
0.0
 10
3.01857874015748
 20
4.114818897637796
 30
0.0
 10
3.01857874015748
 20
4.114818897637796
 30
0.0
 10
3.009133858267717
 20
4.114818897637796
 30
0.0
 10
3.000633858267717
 20
4.112649606299213
 30
0.0
 10
2.993023622047244
 20
4.108374015748032
 30
0.0
 10
2.993023622047244
 20
4.108374015748032
 30
0.0
 10
2.985413385826772
 20
4.104094488188976
 30
0.0
 10
2.979468503937008
 20
4.098539370078741
 30
0.0
 10
2.975133858267717
 20
4.091708661417323
 30
0.0
 10
2.975133858267717
 20
4.091708661417323
 30
0.0
 10
2.975133858267717
 20
4.091708661417323
 30
0.0
 10
2.947633858267717
 20
4.095263779527559
 30
0.0
 10
2.947633858267717
 20
4.095263779527559
 30
0.0
 10
2.947633858267717
 20
4.095263779527559
 30
0.0
 10
2.947633858267717
 20
4.095263779527559
 30
0.0
 10
2.970744094488189
 20
4.217818897637796
 30
0.0
 10
2.970744094488189
 20
4.217818897637796
 30
0.0
 10
2.970744094488189
 20
4.217818897637796
 30
0.0
 10
2.970744094488189
 20
4.217818897637796
 30
0.0
 10
3.089413385826772
 20
4.217818897637796
 30
0.0
 10
3.089413385826772
 20
4.217818897637796
 30
0.0
 10
3.089413385826772
 20
4.217818897637796
 30
0.0
 10
3.089413385826772
 20
4.217818897637796
 30
0.0
 10
3.089413385826772
 20
4.189818897637795
 30
0.0
 10
3.089413385826772
 20
4.189818897637795
 30
0.0
 10
3.089413385826772
 20
4.189818897637795
 30
0.0
 10
3.089413385826772
 20
4.189818897637795
 30
0.0
 10
2.994188976377953
 20
4.189818897637795
 30
0.0
 10
2.994188976377953
 20
4.189818897637795
 30
0.0
 10
2.994188976377953
 20
4.189818897637795
 30
0.0
 10
2.994188976377953
 20
4.189818897637795
 30
0.0
 10
2.981299212598426
 20
4.125708661417323
 30
0.0
 10
2.981299212598426
 20
4.125708661417323
 30
0.0
 10
2.981299212598426
 20
4.125708661417323
 30
0.0
 10
2.995633858267717
 20
4.135708661417323
 30
0.0
 10
3.010688976377953
 20
4.140708661417323
 30
0.0
 10
3.026413385826772
 20
4.140708661417323
 30
0.0
 10
3.026413385826772
 20
4.140708661417323
 30
0.0
 10
3.047244094488189
 20
4.140708661417323
 30
0.0
 10
3.064803149606299
 20
4.133484251968504
 30
0.0
 10
3.079133858267717
 20
4.11903937007874
 30
0.0
 10
3.079133858267717
 20
4.11903937007874
 30
0.0
 10
3.093468503937008
 20
4.104594488188977
 30
0.0
 10
3.100633858267717
 20
4.086039370078741
 30
0.0
 10
3.100633858267717
 20
4.063374015748032
 30
0.0
 10
3.100633858267717
 20
4.063374015748032
 30
0.0
 10
3.100633858267717
 20
4.041763779527559
 30
0.0
 10
3.094303149606299
 20
4.023094488188977
 30
0.0
 10
3.081744094488189
 20
4.007374015748032
 30
0.0
 10
3.081744094488189
 20
4.007374015748032
 30
0.0
 10
3.066413385826772
 20
3.988094488188977
 30
0.0
 10
3.045523622047244
 20
3.978429133858268
 30
0.0
 10
3.019078740157481
 20
3.978429133858268
 30
0.0
 10
3.019078740157481
 20
3.978429133858268
 30
0.0
 10
2.997358267716535
 20
3.978429133858268
 30
0.0
 10
2.979633858267717
 20
3.984484251968504
 30
0.0
 10
2.965913385826772
 20
3.996649606299213
 30
0.0
 10
2.965913385826772
 20
3.996649606299213
 30
0.0
 10
2.952188976377953
 20
4.008818897637796
 30
0.0
 10
2.944358267716535
 20
4.024929133858268
 30
0.0
 10
2.942413385826772
 20
4.044984251968504
 30
0.0
  0
SPLINE
  5
63
330
1F
100
AcDbEntity
  8
Capa 1
 62
   250
100
AcDbSpline
210
0.0
220
0.0
230
1.0
 70
    11
 71
     3
 72
    52
 73
    48
 74
     0
 42
0.0000000001
 43
0.0000000001
 40
0.0
 40
0.0
 40
0.0
 40
0.0
 40
0.0833333333333333
 40
0.0833333333333333
 40
0.0833333333333333
 40
0.0833333333333333
 40
0.1666666666666667
 40
0.1666666666666667
 40
0.1666666666666667
 40
0.1666666666666667
 40
0.25
 40
0.25
 40
0.25
 40
0.25
 40
0.3333333333333333
 40
0.3333333333333333
 40
0.3333333333333333
 40
0.3333333333333333
 40
0.4166666666666666
 40
0.4166666666666666
 40
0.4166666666666666
 40
0.4166666666666666
 40
0.4999999999999999
 40
0.4999999999999999
 40
0.4999999999999999
 40
0.4999999999999999
 40
0.5833333333333333
 40
0.5833333333333333
 40
0.5833333333333333
 40
0.5833333333333333
 40
0.6666666666666666
 40
0.6666666666666666
 40
0.6666666666666666
 40
0.6666666666666666
 40
0.75
 40
0.75
 40
0.75
 40
0.75
 40
0.8333333333333334
 40
0.8333333333333334
 40
0.8333333333333334
 40
0.8333333333333334
 40
0.9166666666666667
 40
0.9166666666666667
 40
0.9166666666666667
 40
0.9166666666666667
 40
1.0
 40
1.0
 40
1.0
 40
1.0
 10
3.1278031496063
 20
4.100149606299213
 30
0.0
 10
3.1278031496063
 20
4.128374015748031
 30
0.0
 10
3.130688976377953
 20
4.151094488188977
 30
0.0
 10
3.136523622047244
 20
4.168263779527559
 30
0.0
 10
3.136523622047244
 20
4.168263779527559
 30
0.0
 10
3.142303149606299
 20
4.185484251968505
 30
0.0
 10
3.150968503937008
 20
4.198763779527559
 30
0.0
 10
3.162413385826772
 20
4.208094488188976
 30
0.0
 10
3.162413385826772
 20
4.208094488188976
 30
0.0
 10
3.173858267716536
 20
4.217429133858268
 30
0.0
 10
3.188248031496063
 20
4.222094488188977
 30
0.0
 10
3.20557874015748
 20
4.222094488188977
 30
0.0
 10
3.20557874015748
 20
4.222094488188977
 30
0.0
 10
3.218413385826772
 20
4.222094488188977
 30
0.0
 10
3.229633858267717
 20
4.219484251968504
 30
0.0
 10
3.239303149606299
 20
4.214318897637796
 30
0.0
 10
3.239303149606299
 20
4.214318897637796
 30
0.0
 10
3.248968503937008
 20
4.209208661417323
 30
0.0
 10
3.256913385826772
 20
4.20176377952756
 30
0.0
 10
3.263248031496063
 20
4.19203937007874
 30
0.0
 10
3.263248031496063
 20
4.19203937007874
 30
0.0
 10
3.269523622047244
 20
4.182318897637796
 30
0.0
 10
3.274468503937008
 20
4.170484251968504
 30
0.0
 10
3.278023622047244
 20
4.156539370078741
 30
0.0
 10
3.278023622047244
 20
4.156539370078741
 30
0.0
 10
3.281637795275591
 20
4.142594488188976
 30
0.0
 10
3.283413385826772
 20
4.123818897637795
 30
0.0
 10
3.283413385826772
 20
4.100149606299213
 30
0.0
 10
3.283413385826772
 20
4.100149606299213
 30
0.0
 10
3.283413385826772
 20
4.072149606299213
 30
0.0
 10
3.280523622047244
 20
4.049594488188976
 30
0.0
 10
3.274803149606299
 20
4.032374015748031
 30
0.0
 10
3.274803149606299
 20
4.032374015748031
 30
0.0
 10
3.269023622047244
 20
4.015149606299213
 30
0.0
 10
3.260413385826772
 20
4.001874015748031
 30
0.0
 10
3.248968503937008
 20
3.992484251968504
 30
0.0
 10
3.248968503937008
 20
3.992484251968504
 30
0.0
 10
3.237523622047244
 20
3.983094488188977
 30
0.0
 10
3.22307874015748
 20
3.978429133858268
 30
0.0
 10
3.20557874015748
 20
3.978429133858268
 30
0.0
 10
3.20557874015748
 20
3.978429133858268
 30
0.0
 10
3.182578740157481
 20
3.978429133858268
 30
0.0
 10
3.164523622047244
 20
3.986649606299213
 30
0.0
 10
3.151413385826772
 20
4.003149606299213
 30
0.0
 10
3.151413385826772
 20
4.003149606299213
 30
0.0
 10
3.135688976377953
 20
4.022984251968504
 30
0.0
 10
3.1278031496063
 20
4.055374015748032
 30
0.0
 10
3.1278031496063
 20
4.100149606299213
 30
0.0
  0
SPLINE
  5
64
330
1F
100
AcDbEntity
  8
Capa 1
 62
   250
100
AcDbSpline
210
0.0
220
0.0
230
1.0
 70
    11
 71
     3
 72
    36
 73
    32
 74
     0
 42
0.0000000001
 43
0.0000000001
 40
0.0
 40
0.0
 40
0.0
 40
0.0
 40
0.125
 40
0.125
 40
0.125
 40
0.125
 40
0.25
 40
0.25
 40
0.25
 40
0.25
 40
0.375
 40
0.375
 40
0.375
 40
0.375
 40
0.5
 40
0.5
 40
0.5
 40
0.5
 40
0.625
 40
0.625
 40
0.625
 40
0.625
 40
0.75
 40
0.75
 40
0.75
 40
0.75
 40
0.875
 40
0.875
 40
0.875
 40
0.875
 40
1.0
 40
1.0
 40
1.0
 40
1.0
 10
3.157913385826772
 20
4.100149606299213
 30
0.0
 10
3.157913385826772
 20
4.060984251968504
 30
0.0
 10
3.162523622047244
 20
4.034929133858268
 30
0.0
 10
3.171692913385827
 20
4.021929133858268
 30
0.0
 10
3.171692913385827
 20
4.021929133858268
 30
0.0
 10
3.180858267716535
 20
4.008984251968504
 30
0.0
 10
3.192133858267717
 20
4.002484251968504
 30
0.0
 10
3.20557874015748
 20
4.002484251968504
 30
0.0
 10
3.20557874015748
 20
4.002484251968504
 30
0.0
 10
3.21907874015748
 20
4.002484251968504
 30
0.0
 10
3.230358267716535
 20
4.009039370078741
 30
0.0
 10
3.239523622047244
 20
4.022039370078741
 30
0.0
 10
3.239523622047244
 20
4.022039370078741
 30
0.0
 10
3.248692913385827
 20
4.03503937007874
 30
0.0
 10
3.253303149606299
 20
4.061094488188976
 30
0.0
 10
3.253303149606299
 20
4.100149606299213
 30
0.0
 10
3.253303149606299
 20
4.100149606299213
 30
0.0
 10
3.253303149606299
 20
4.139429133858268
 30
0.0
 10
3.248692913385827
 20
4.16553937007874
 30
0.0
 10
3.239523622047244
 20
4.178429133858268
 30
0.0
 10
3.239523622047244
 20
4.178429133858268
 30
0.0
 10
3.230358267716535
 20
4.191374015748032
 30
0.0
 10
3.218968503937008
 20
4.197818897637795
 30
0.0
 10
3.205303149606299
 20
4.197818897637795
 30
0.0
 10
3.205303149606299
 20
4.197818897637795
 30
0.0
 10
3.1918031496063
 20
4.197818897637795
 30
0.0
 10
3.181078740157481
 20
4.192094488188976
 30
0.0
 10
3.173023622047244
 20
4.180708661417323
 30
0.0
 10
3.173023622047244
 20
4.180708661417323
 30
0.0
 10
3.162968503937008
 20
4.166208661417323
 30
0.0
 10
3.157913385826772
 20
4.139318897637796
 30
0.0
 10
3.157913385826772
 20
4.100149606299213
 30
0.0
  0
SPLINE
  5
65
330
1F
100
AcDbEntity
  8
Capa 1
 62
   250
100
AcDbSpline
210
0.0
220
0.0
230
1.0
 70
    11
 71
     3
 72
    20
 73
    16
 74
     0
 42
0.0000000001
 43
0.0000000001
 40
0.0
 40
0.0
 40
0.0
 40
0.0
 40
0.25
 40
0.25
 40
0.25
 40
0.25
 40
0.5
 40
0.5
 40
0.5
 40
0.5
 40
0.75
 40
0.75
 40
0.75
 40
0.75
 40
1.0
 40
1.0
 40
1.0
 40
1.0
 10
3.329637795275591
 20
3.982484251968504
 30
0.0
 10
3.329637795275591
 20
3.982484251968504
 30
0.0
 10
3.329637795275591
 20
4.015874015748032
 30
0.0
 10
3.329637795275591
 20
4.015874015748032
 30
0.0
 10
3.329637795275591
 20
4.015874015748032
 30
0.0
 10
3.329637795275591
 20
4.015874015748032
 30
0.0
 10
3.363023622047244
 20
4.015874015748032
 30
0.0
 10
3.363023622047244
 20
4.015874015748032
 30
0.0
 10
3.363023622047244
 20
4.015874015748032
 30
0.0
 10
3.363023622047244
 20
4.015874015748032
 30
0.0
 10
3.363023622047244
 20
3.982484251968504
 30
0.0
 10
3.363023622047244
 20
3.982484251968504
 30
0.0
 10
3.363023622047244
 20
3.982484251968504
 30
0.0
 10
3.363023622047244
 20
3.982484251968504
 30
0.0
 10
3.329637795275591
 20
3.982484251968504
 30
0.0
 10
3.329637795275591
 20
3.982484251968504
 30
0.0
  0
SPLINE
  5
66
330
1F
100
AcDbEntity
  8
Capa 1
 62
   250
100
AcDbSpline
210
0.0
220
0.0
230
1.0
 70
    11
 71
     3
 72
    52
 73
    48
 74
     0
 42
0.0000000001
 43
0.0000000001
 40
0.0
 40
0.0
 40
0.0
 40
0.0
 40
0.0833333333333333
 40
0.0833333333333333
 40
0.0833333333333333
 40
0.0833333333333333
 40
0.1666666666666667
 40
0.1666666666666667
 40
0.1666666666666667
 40
0.1666666666666667
 40
0.25
 40
0.25
 40
0.25
 40
0.25
 40
0.3333333333333333
 40
0.3333333333333333
 40
0.3333333333333333
 40
0.3333333333333333
 40
0.4166666666666666
 40
0.4166666666666666
 40
0.4166666666666666
 40
0.4166666666666666
 40
0.4999999999999999
 40
0.4999999999999999
 40
0.4999999999999999
 40
0.4999999999999999
 40
0.5833333333333333
 40
0.5833333333333333
 40
0.5833333333333333
 40
0.5833333333333333
 40
0.6666666666666666
 40
0.6666666666666666
 40
0.6666666666666666
 40
0.6666666666666666
 40
0.75
 40
0.75
 40
0.75
 40
0.75
 40
0.8333333333333334
 40
0.8333333333333334
 40
0.8333333333333334
 40
0.8333333333333334
 40
0.9166666666666667
 40
0.9166666666666667
 40
0.9166666666666667
 40
0.9166666666666667
 40
1.0
 40
1.0
 40
1.0
 40
1.0
 10
3.4058031496063
 20
4.100149606299213
 30
0.0
 10
3.4058031496063
 20
4.128374015748031
 30
0.0
 10
3.408688976377953
 20
4.151094488188977
 30
0.0
 10
3.414523622047244
 20
4.168263779527559
 30
0.0
 10
3.414523622047244
 20
4.168263779527559
 30
0.0
 10
3.420303149606299
 20
4.185484251968505
 30
0.0
 10
3.428968503937008
 20
4.198763779527559
 30
0.0
 10
3.440413385826772
 20
4.208094488188976
 30
0.0
 10
3.440413385826772
 20
4.208094488188976
 30
0.0
 10
3.451858267716536
 20
4.217429133858268
 30
0.0
 10
3.466248031496063
 20
4.222094488188977
 30
0.0
 10
3.48357874015748
 20
4.222094488188977
 30
0.0
 10
3.48357874015748
 20
4.222094488188977
 30
0.0
 10
3.496413385826772
 20
4.222094488188977
 30
0.0
 10
3.507633858267717
 20
4.219484251968504
 30
0.0
 10
3.517303149606299
 20
4.214318897637796
 30
0.0
 10
3.517303149606299
 20
4.214318897637796
 30
0.0
 10
3.526968503937008
 20
4.209208661417323
 30
0.0
 10
3.534913385826772
 20
4.20176377952756
 30
0.0
 10
3.541248031496063
 20
4.19203937007874
 30
0.0
 10
3.541248031496063
 20
4.19203937007874
 30
0.0
 10
3.547523622047244
 20
4.182318897637796
 30
0.0
 10
3.552468503937008
 20
4.170484251968504
 30
0.0
 10
3.556023622047244
 20
4.156539370078741
 30
0.0
 10
3.556023622047244
 20
4.156539370078741
 30
0.0
 10
3.559637795275591
 20
4.142594488188976
 30
0.0
 10
3.561413385826772
 20
4.123818897637795
 30
0.0
 10
3.561413385826772
 20
4.100149606299213
 30
0.0
 10
3.561413385826772
 20
4.100149606299213
 30
0.0
 10
3.561413385826772
 20
4.072149606299213
 30
0.0
 10
3.558523622047244
 20
4.049594488188976
 30
0.0
 10
3.552803149606299
 20
4.032374015748031
 30
0.0
 10
3.552803149606299
 20
4.032374015748031
 30
0.0
 10
3.547023622047244
 20
4.015149606299213
 30
0.0
 10
3.538413385826772
 20
4.001874015748031
 30
0.0
 10
3.526968503937008
 20
3.992484251968504
 30
0.0
 10
3.526968503937008
 20
3.992484251968504
 30
0.0
 10
3.515523622047244
 20
3.983094488188977
 30
0.0
 10
3.50107874015748
 20
3.978429133858268
 30
0.0
 10
3.48357874015748
 20
3.978429133858268
 30
0.0
 10
3.48357874015748
 20
3.978429133858268
 30
0.0
 10
3.460578740157481
 20
3.978429133858268
 30
0.0
 10
3.442523622047244
 20
3.986649606299213
 30
0.0
 10
3.429413385826772
 20
4.003149606299213
 30
0.0
 10
3.429413385826772
 20
4.003149606299213
 30
0.0
 10
3.413688976377953
 20
4.022984251968504
 30
0.0
 10
3.4058031496063
 20
4.055374015748032
 30
0.0
 10
3.4058031496063
 20
4.100149606299213
 30
0.0
  0
SPLINE
  5
67
330
1F
100
AcDbEntity
  8
Capa 1
 62
   250
100
AcDbSpline
210
0.0
220
0.0
230
1.0
 70
    11
 71
     3
 72
    36
 73
    32
 74
     0
 42
0.0000000001
 43
0.0000000001
 40
0.0
 40
0.0
 40
0.0
 40
0.0
 40
0.125
 40
0.125
 40
0.125
 40
0.125
 40
0.25
 40
0.25
 40
0.25
 40
0.25
 40
0.375
 40
0.375
 40
0.375
 40
0.375
 40
0.5
 40
0.5
 40
0.5
 40
0.5
 40
0.625
 40
0.625
 40
0.625
 40
0.625
 40
0.75
 40
0.75
 40
0.75
 40
0.75
 40
0.875
 40
0.875
 40
0.875
 40
0.875
 40
1.0
 40
1.0
 40
1.0
 40
1.0
 10
3.435913385826772
 20
4.100149606299213
 30
0.0
 10
3.435913385826772
 20
4.060984251968504
 30
0.0
 10
3.440523622047244
 20
4.034929133858268
 30
0.0
 10
3.449692913385827
 20
4.021929133858268
 30
0.0
 10
3.449692913385827
 20
4.021929133858268
 30
0.0
 10
3.458858267716535
 20
4.008984251968504
 30
0.0
 10
3.470133858267717
 20
4.002484251968504
 30
0.0
 10
3.48357874015748
 20
4.002484251968504
 30
0.0
 10
3.48357874015748
 20
4.002484251968504
 30
0.0
 10
3.49707874015748
 20
4.002484251968504
 30
0.0
 10
3.508358267716536
 20
4.009039370078741
 30
0.0
 10
3.517523622047244
 20
4.022039370078741
 30
0.0
 10
3.517523622047244
 20
4.022039370078741
 30
0.0
 10
3.526692913385827
 20
4.03503937007874
 30
0.0
 10
3.531303149606299
 20
4.061094488188976
 30
0.0
 10
3.531303149606299
 20
4.100149606299213
 30
0.0
 10
3.531303149606299
 20
4.100149606299213
 30
0.0
 10
3.531303149606299
 20
4.139429133858268
 30
0.0
 10
3.526692913385827
 20
4.16553937007874
 30
0.0
 10
3.517523622047244
 20
4.178429133858268
 30
0.0
 10
3.517523622047244
 20
4.178429133858268
 30
0.0
 10
3.508358267716536
 20
4.191374015748032
 30
0.0
 10
3.496968503937008
 20
4.197818897637795
 30
0.0
 10
3.483303149606299
 20
4.197818897637795
 30
0.0
 10
3.483303149606299
 20
4.197818897637795
 30
0.0
 10
3.4698031496063
 20
4.197818897637795
 30
0.0
 10
3.459078740157481
 20
4.192094488188976
 30
0.0
 10
3.451023622047244
 20
4.180708661417323
 30
0.0
 10
3.451023622047244
 20
4.180708661417323
 30
0.0
 10
3.440968503937008
 20
4.166208661417323
 30
0.0
 10
3.435913385826772
 20
4.139318897637796
 30
0.0
 10
3.435913385826772
 20
4.100149606299213
 30
0.0
  0
SPLINE
  5
68
330
1F
100
AcDbEntity
  8
Capa 1
 62
   250
100
AcDbSpline
210
0.0
220
0.0
230
1.0
 70
    11
 71
     3
 72
    52
 73
    48
 74
     0
 42
0.0000000001
 43
0.0000000001
 40
0.0
 40
0.0
 40
0.0
 40
0.0
 40
0.0833333333333333
 40
0.0833333333333333
 40
0.0833333333333333
 40
0.0833333333333333
 40
0.1666666666666667
 40
0.1666666666666667
 40
0.1666666666666667
 40
0.1666666666666667
 40
0.25
 40
0.25
 40
0.25
 40
0.25
 40
0.3333333333333333
 40
0.3333333333333333
 40
0.3333333333333333
 40
0.3333333333333333
 40
0.4166666666666666
 40
0.4166666666666666
 40
0.4166666666666666
 40
0.4166666666666666
 40
0.4999999999999999
 40
0.4999999999999999
 40
0.4999999999999999
 40
0.4999999999999999
 40
0.5833333333333333
 40
0.5833333333333333
 40
0.5833333333333333
 40
0.5833333333333333
 40
0.6666666666666666
 40
0.6666666666666666
 40
0.6666666666666666
 40
0.6666666666666666
 40
0.75
 40
0.75
 40
0.75
 40
0.75
 40
0.8333333333333334
 40
0.8333333333333334
 40
0.8333333333333334
 40
0.8333333333333334
 40
0.9166666666666667
 40
0.9166666666666667
 40
0.9166666666666667
 40
0.9166666666666667
 40
1.0
 40
1.0
 40
1.0
 40
1.0
 10
3.591192913385827
 20
4.100149606299213
 30
0.0
 10
3.591192913385827
 20
4.128374015748031
 30
0.0
 10
3.59407874015748
 20
4.151094488188977
 30
0.0
 10
3.599913385826772
 20
4.168263779527559
 30
0.0
 10
3.599913385826772
 20
4.168263779527559
 30
0.0
 10
3.605692913385827
 20
4.185484251968505
 30
0.0
 10
3.614358267716536
 20
4.198763779527559
 30
0.0
 10
3.625803149606299
 20
4.208094488188976
 30
0.0
 10
3.625803149606299
 20
4.208094488188976
 30
0.0
 10
3.637248031496063
 20
4.217429133858268
 30
0.0
 10
3.651637795275591
 20
4.222094488188977
 30
0.0
 10
3.668968503937008
 20
4.222094488188977
 30
0.0
 10
3.668968503937008
 20
4.222094488188977
 30
0.0
 10
3.681803149606299
 20
4.222094488188977
 30
0.0
 10
3.693023622047244
 20
4.219484251968504
 30
0.0
 10
3.702692913385827
 20
4.214318897637796
 30
0.0
 10
3.702692913385827
 20
4.214318897637796
 30
0.0
 10
3.712358267716536
 20
4.209208661417323
 30
0.0
 10
3.720303149606299
 20
4.20176377952756
 30
0.0
 10
3.726637795275591
 20
4.19203937007874
 30
0.0
 10
3.726637795275591
 20
4.19203937007874
 30
0.0
 10
3.732913385826772
 20
4.182318897637796
 30
0.0
 10
3.737858267716536
 20
4.170484251968504
 30
0.0
 10
3.741413385826772
 20
4.156539370078741
 30
0.0
 10
3.741413385826772
 20
4.156539370078741
 30
0.0
 10
3.745027559055118
 20
4.142594488188976
 30
0.0
 10
3.746803149606299
 20
4.123818897637795
 30
0.0
 10
3.746803149606299
 20
4.100149606299213
 30
0.0
 10
3.746803149606299
 20
4.100149606299213
 30
0.0
 10
3.746803149606299
 20
4.072149606299213
 30
0.0
 10
3.743913385826772
 20
4.049594488188976
 30
0.0
 10
3.738192913385827
 20
4.032374015748031
 30
0.0
 10
3.738192913385827
 20
4.032374015748031
 30
0.0
 10
3.732413385826772
 20
4.015149606299213
 30
0.0
 10
3.7238031496063
 20
4.001874015748031
 30
0.0
 10
3.712358267716536
 20
3.992484251968504
 30
0.0
 10
3.712358267716536
 20
3.992484251968504
 30
0.0
 10
3.700913385826772
 20
3.983094488188977
 30
0.0
 10
3.686468503937008
 20
3.978429133858268
 30
0.0
 10
3.668968503937008
 20
3.978429133858268
 30
0.0
 10
3.668968503937008
 20
3.978429133858268
 30
0.0
 10
3.645968503937008
 20
3.978429133858268
 30
0.0
 10
3.627913385826772
 20
3.986649606299213
 30
0.0
 10
3.6148031496063
 20
4.003149606299213
 30
0.0
 10
3.6148031496063
 20
4.003149606299213
 30
0.0
 10
3.599078740157481
 20
4.022984251968504
 30
0.0
 10
3.591192913385827
 20
4.055374015748032
 30
0.0
 10
3.591192913385827
 20
4.100149606299213
 30
0.0
  0
SPLINE
  5
69
330
1F
100
AcDbEntity
  8
Capa 1
 62
   250
100
AcDbSpline
210
0.0
220
0.0
230
1.0
 70
    11
 71
     3
 72
    36
 73
    32
 74
     0
 42
0.0000000001
 43
0.0000000001
 40
0.0
 40
0.0
 40
0.0
 40
0.0
 40
0.125
 40
0.125
 40
0.125
 40
0.125
 40
0.25
 40
0.25
 40
0.25
 40
0.25
 40
0.375
 40
0.375
 40
0.375
 40
0.375
 40
0.5
 40
0.5
 40
0.5
 40
0.5
 40
0.625
 40
0.625
 40
0.625
 40
0.625
 40
0.75
 40
0.75
 40
0.75
 40
0.75
 40
0.875
 40
0.875
 40
0.875
 40
0.875
 40
1.0
 40
1.0
 40
1.0
 40
1.0
 10
3.6213031496063
 20
4.100149606299213
 30
0.0
 10
3.6213031496063
 20
4.060984251968504
 30
0.0
 10
3.625913385826772
 20
4.034929133858268
 30
0.0
 10
3.635082677165355
 20
4.021929133858268
 30
0.0
 10
3.635082677165355
 20
4.021929133858268
 30
0.0
 10
3.644248031496063
 20
4.008984251968504
 30
0.0
 10
3.655523622047244
 20
4.002484251968504
 30
0.0
 10
3.668968503937008
 20
4.002484251968504
 30
0.0
 10
3.668968503937008
 20
4.002484251968504
 30
0.0
 10
3.682468503937008
 20
4.002484251968504
 30
0.0
 10
3.693748031496063
 20
4.009039370078741
 30
0.0
 10
3.702913385826772
 20
4.022039370078741
 30
0.0
 10
3.702913385826772
 20
4.022039370078741
 30
0.0
 10
3.712082677165355
 20
4.03503937007874
 30
0.0
 10
3.716692913385827
 20
4.061094488188976
 30
0.0
 10
3.716692913385827
 20
4.100149606299213
 30
0.0
 10
3.716692913385827
 20
4.100149606299213
 30
0.0
 10
3.716692913385827
 20
4.139429133858268
 30
0.0
 10
3.712082677165355
 20
4.16553937007874
 30
0.0
 10
3.702913385826772
 20
4.178429133858268
 30
0.0
 10
3.702913385826772
 20
4.178429133858268
 30
0.0
 10
3.693748031496063
 20
4.191374015748032
 30
0.0
 10
3.682358267716535
 20
4.197818897637795
 30
0.0
 10
3.668692913385827
 20
4.197818897637795
 30
0.0
 10
3.668692913385827
 20
4.197818897637795
 30
0.0
 10
3.655192913385827
 20
4.197818897637795
 30
0.0
 10
3.644468503937008
 20
4.192094488188976
 30
0.0
 10
3.636413385826772
 20
4.180708661417323
 30
0.0
 10
3.636413385826772
 20
4.180708661417323
 30
0.0
 10
3.626358267716535
 20
4.166208661417323
 30
0.0
 10
3.6213031496063
 20
4.139318897637796
 30
0.0
 10
3.6213031496063
 20
4.100149606299213
 30
0.0
  0
SPLINE
  5
6A
330
1F
100
AcDbEntity
  8
Capa 1
 62
   250
100
AcDbSpline
210
0.0
220
0.0
230
1.0
 70
    11
 71
     3
 72
   116
 73
   112
 74
     0
 42
0.0000000001
 43
0.0000000001
 40
0.0
 40
0.0
 40
0.0
 40
0.0
 40
0.0357142857142857
 40
0.0357142857142857
 40
0.0357142857142857
 40
0.0357142857142857
 40
0.0714285714285714
 40
0.0714285714285714
 40
0.0714285714285714
 40
0.0714285714285714
 40
0.1071428571428571
 40
0.1071428571428571
 40
0.1071428571428571
 40
0.1071428571428571
 40
0.1428571428571429
 40
0.1428571428571429
 40
0.1428571428571429
 40
0.1428571428571429
 40
0.1785714285714286
 40
0.1785714285714286
 40
0.1785714285714286
 40
0.1785714285714286
 40
0.2142857142857143
 40
0.2142857142857143
 40
0.2142857142857143
 40
0.2142857142857143
 40
0.2499999999999999
 40
0.2499999999999999
 40
0.2499999999999999
 40
0.2499999999999999
 40
0.2857142857142856
 40
0.2857142857142856
 40
0.2857142857142856
 40
0.2857142857142856
 40
0.3214285714285713
 40
0.3214285714285713
 40
0.3214285714285713
 40
0.3214285714285713
 40
0.357142857142857
 40
0.357142857142857
 40
0.357142857142857
 40
0.357142857142857
 40
0.3928571428571427
 40
0.3928571428571427
 40
0.3928571428571427
 40
0.3928571428571427
 40
0.4285714285714284
 40
0.4285714285714284
 40
0.4285714285714284
 40
0.4285714285714284
 40
0.4642857142857141
 40
0.4642857142857141
 40
0.4642857142857141
 40
0.4642857142857141
 40
0.4999999999999998
 40
0.4999999999999998
 40
0.4999999999999998
 40
0.4999999999999998
 40
0.5357142857142856
 40
0.5357142857142856
 40
0.5357142857142856
 40
0.5357142857142856
 40
0.5714285714285713
 40
0.5714285714285713
 40
0.5714285714285713
 40
0.5714285714285713
 40
0.607142857142857
 40
0.607142857142857
 40
0.607142857142857
 40
0.607142857142857
 40
0.6428571428571427
 40
0.6428571428571427
 40
0.6428571428571427
 40
0.6428571428571427
 40
0.6785714285714284
 40
0.6785714285714284
 40
0.6785714285714284
 40
0.6785714285714284
 40
0.7142857142857141
 40
0.7142857142857141
 40
0.7142857142857141
 40
0.7142857142857141
 40
0.7499999999999998
 40
0.7499999999999998
 40
0.7499999999999998
 40
0.7499999999999998
 40
0.7857142857142855
 40
0.7857142857142855
 40
0.7857142857142855
 40
0.7857142857142855
 40
0.8214285714285712
 40
0.8214285714285712
 40
0.8214285714285712
 40
0.8214285714285712
 40
0.8571428571428569
 40
0.8571428571428569
 40
0.8571428571428569
 40
0.8571428571428569
 40
0.8928571428571426
 40
0.8928571428571426
 40
0.8928571428571426
 40
0.8928571428571426
 40
0.9285714285714283
 40
0.9285714285714283
 40
0.9285714285714283
 40
0.9285714285714283
 40
0.964285714285714
 40
0.964285714285714
 40
0.964285714285714
 40
0.964285714285714
 40
1.0
 40
1.0
 40
1.0
 40
1.0
 10
3.877358267716536
 20
3.982484251968504
 30
0.0
 10
3.877358267716536
 20
3.982484251968504
 30
0.0
 10
3.877358267716536
 20
4.155318897637796
 30
0.0
 10
3.877358267716536
 20
4.155318897637796
 30
0.0
 10
3.877358267716536
 20
4.155318897637796
 30
0.0
 10
3.877358267716536
 20
4.155318897637796
 30
0.0
 10
3.903523622047244
 20
4.155318897637796
 30
0.0
 10
3.903523622047244
 20
4.155318897637796
 30
0.0
 10
3.903523622047244
 20
4.155318897637796
 30
0.0
 10
3.903523622047244
 20
4.155318897637796
 30
0.0
 10
3.903523622047244
 20
4.131094488188976
 30
0.0
 10
3.903523622047244
 20
4.131094488188976
 30
0.0
 10
3.903523622047244
 20
4.131094488188976
 30
0.0
 10
3.908968503937008
 20
4.13953937007874
 30
0.0
 10
3.916192913385827
 20
4.146374015748032
 30
0.0
 10
3.925192913385827
 20
4.151484251968504
 30
0.0
 10
3.925192913385827
 20
4.151484251968504
 30
0.0
 10
3.934192913385827
 20
4.156653543307087
 30
0.0
 10
3.944468503937008
 20
4.159263779527559
 30
0.0
 10
3.955968503937008
 20
4.159263779527559
 30
0.0
 10
3.955968503937008
 20
4.159263779527559
 30
0.0
 10
3.968748031496063
 20
4.159263779527559
 30
0.0
 10
3.979248031496063
 20
4.156594488188977
 30
0.0
 10
3.987413385826772
 20
4.151263779527559
 30
0.0
 10
3.987413385826772
 20
4.151263779527559
 30
0.0
 10
3.995637795275591
 20
4.145929133858268
 30
0.0
 10
4.001413385826772
 20
4.138539370078741
 30
0.0
 10
4.004748031496063
 20
4.128984251968504
 30
0.0
 10
4.004748031496063
 20
4.128984251968504
 30
0.0
 10
4.018468503937008
 20
4.149153543307087
 30
0.0
 10
4.036248031496063
 20
4.159263779527559
 30
0.0
 10
4.058137795275591
 20
4.159263779527559
 30
0.0
 10
4.058137795275591
 20
4.159263779527559
 30
0.0
 10
4.0753031496063
 20
4.159263779527559
 30
0.0
 10
4.088468503937008
 20
4.154484251968504
 30
0.0
 10
4.097692913385827
 20
4.144984251968504
 30
0.0
 10
4.097692913385827
 20
4.144984251968504
 30
0.0
 10
4.106913385826772
 20
4.135484251968504
 30
0.0
 10
4.111527559055118
 20
4.120874015748032
 30
0.0
 10
4.111527559055118
 20
4.101149606299213
 30
0.0
 10
4.111527559055118
 20
4.101149606299213
 30
0.0
 10
4.111527559055118
 20
4.101149606299213
 30
0.0
 10
4.111527559055118
 20
3.982484251968504
 30
0.0
 10
4.111527559055118
 20
3.982484251968504
 30
0.0
 10
4.111527559055118
 20
3.982484251968504
 30
0.0
 10
4.111527559055118
 20
3.982484251968504
 30
0.0
 10
4.082413385826772
 20
3.982484251968504
 30
0.0
 10
4.082413385826772
 20
3.982484251968504
 30
0.0
 10
4.082413385826772
 20
3.982484251968504
 30
0.0
 10
4.082413385826772
 20
3.982484251968504
 30
0.0
 10
4.082413385826772
 20
4.091374015748031
 30
0.0
 10
4.082413385826772
 20
4.091374015748031
 30
0.0
 10
4.082413385826772
 20
4.091374015748031
 30
0.0
 10
4.082413385826772
 20
4.103094488188977
 30
0.0
 10
4.081468503937008
 20
4.111539370078741
 30
0.0
 10
4.079582677165354
 20
4.116708661417323
 30
0.0
 10
4.079582677165354
 20
4.116708661417323
 30
0.0
 10
4.07763779527559
 20
4.121818897637795
 30
0.0
 10
4.074192913385827
 20
4.125984251968504
 30
0.0
 10
4.069248031496064
 20
4.129149606299213
 30
0.0
 10
4.069248031496064
 20
4.129149606299213
 30
0.0
 10
4.064248031496063
 20
4.132263779527559
 30
0.0
 10
4.058358267716535
 20
4.133874015748032
 30
0.0
 10
4.051637795275591
 20
4.133874015748032
 30
0.0
 10
4.051637795275591
 20
4.133874015748032
 30
0.0
 10
4.039468503937008
 20
4.133874015748032
 30
0.0
 10
4.029413385826772
 20
4.129818897637795
 30
0.0
 10
4.021358267716535
 20
4.121708661417323
 30
0.0
 10
4.021358267716535
 20
4.121708661417323
 30
0.0
 10
4.013358267716535
 20
4.113649606299213
 30
0.0
 10
4.009303149606299
 20
4.100708661417323
 30
0.0
 10
4.009303149606299
 20
4.082929133858268
 30
0.0
 10
4.009303149606299
 20
4.082929133858268
 30
0.0
 10
4.009303149606299
 20
4.082929133858268
 30
0.0
 10
4.009303149606299
 20
3.982484251968504
 30
0.0
 10
4.009303149606299
 20
3.982484251968504
 30
0.0
 10
4.009303149606299
 20
3.982484251968504
 30
0.0
 10
4.009303149606299
 20
3.982484251968504
 30
0.0
 10
3.980023622047244
 20
3.982484251968504
 30
0.0
 10
3.980023622047244
 20
3.982484251968504
 30
0.0
 10
3.980023622047244
 20
3.982484251968504
 30
0.0
 10
3.980023622047244
 20
3.982484251968504
 30
0.0
 10
3.980023622047244
 20
4.094763779527559
 30
0.0
 10
3.980023622047244
 20
4.094763779527559
 30
0.0
 10
3.980023622047244
 20
4.094763779527559
 30
0.0
 10
3.980023622047244
 20
4.107818897637795
 30
0.0
 10
3.977637795275591
 20
4.117594488188977
 30
0.0
 10
3.972858267716536
 20
4.124094488188977
 30
0.0
 10
3.972858267716536
 20
4.124094488188977
 30
0.0
 10
3.968082677165354
 20
4.130594488188977
 30
0.0
 10
3.9603031496063
 20
4.133874015748032
 30
0.0
 10
3.949413385826772
 20
4.133874015748032
 30
0.0
 10
3.949413385826772
 20
4.133874015748032
 30
0.0
 10
3.941192913385827
 20
4.133874015748032
 30
0.0
 10
3.933582677165354
 20
4.131708661417323
 30
0.0
 10
3.926582677165355
 20
4.127318897637795
 30
0.0
 10
3.926582677165355
 20
4.127318897637795
 30
0.0
 10
3.919582677165355
 20
4.122984251968505
 30
0.0
 10
3.914468503937008
 20
4.116649606299212
 30
0.0
 10
3.911358267716536
 20
4.108318897637796
 30
0.0
 10
3.911358267716536
 20
4.108318897637796
 30
0.0
 10
3.908192913385827
 20
4.099929133858268
 30
0.0
 10
3.906637795275591
 20
4.087874015748032
 30
0.0
 10
3.906637795275591
 20
4.072149606299213
 30
0.0
 10
3.906637795275591
 20
4.072149606299213
 30
0.0
 10
3.906637795275591
 20
4.072149606299213
 30
0.0
 10
3.906637795275591
 20
3.982484251968504
 30
0.0
 10
3.906637795275591
 20
3.982484251968504
 30
0.0
 10
3.906637795275591
 20
3.982484251968504
 30
0.0
 10
3.906637795275591
 20
3.982484251968504
 30
0.0
 10
3.877358267716536
 20
3.982484251968504
 30
0.0
 10
3.877358267716536
 20
3.982484251968504
 30
0.0
  0
SPLINE
  5
6B
330
1F
100
AcDbEntity
  8
Capa 1
 62
   250
100
AcDbSpline
210
0.0
220
0.0
230
1.0
 70
    11
 71
     3
 72
   116
 73
   112
 74
     0
 42
0.0000000001
 43
0.0000000001
 40
0.0
 40
0.0
 40
0.0
 40
0.0
 40
0.0357142857142857
 40
0.0357142857142857
 40
0.0357142857142857
 40
0.0357142857142857
 40
0.0714285714285714
 40
0.0714285714285714
 40
0.0714285714285714
 40
0.0714285714285714
 40
0.1071428571428571
 40
0.1071428571428571
 40
0.1071428571428571
 40
0.1071428571428571
 40
0.1428571428571429
 40
0.1428571428571429
 40
0.1428571428571429
 40
0.1428571428571429
 40
0.1785714285714286
 40
0.1785714285714286
 40
0.1785714285714286
 40
0.1785714285714286
 40
0.2142857142857143
 40
0.2142857142857143
 40
0.2142857142857143
 40
0.2142857142857143
 40
0.2499999999999999
 40
0.2499999999999999
 40
0.2499999999999999
 40
0.2499999999999999
 40
0.2857142857142856
 40
0.2857142857142856
 40
0.2857142857142856
 40
0.2857142857142856
 40
0.3214285714285713
 40
0.3214285714285713
 40
0.3214285714285713
 40
0.3214285714285713
 40
0.357142857142857
 40
0.357142857142857
 40
0.357142857142857
 40
0.357142857142857
 40
0.3928571428571427
 40
0.3928571428571427
 40
0.3928571428571427
 40
0.3928571428571427
 40
0.4285714285714284
 40
0.4285714285714284
 40
0.4285714285714284
 40
0.4285714285714284
 40
0.4642857142857141
 40
0.4642857142857141
 40
0.4642857142857141
 40
0.4642857142857141
 40
0.4999999999999998
 40
0.4999999999999998
 40
0.4999999999999998
 40
0.4999999999999998
 40
0.5357142857142856
 40
0.5357142857142856
 40
0.5357142857142856
 40
0.5357142857142856
 40
0.5714285714285713
 40
0.5714285714285713
 40
0.5714285714285713
 40
0.5714285714285713
 40
0.607142857142857
 40
0.607142857142857
 40
0.607142857142857
 40
0.607142857142857
 40
0.6428571428571427
 40
0.6428571428571427
 40
0.6428571428571427
 40
0.6428571428571427
 40
0.6785714285714284
 40
0.6785714285714284
 40
0.6785714285714284
 40
0.6785714285714284
 40
0.7142857142857141
 40
0.7142857142857141
 40
0.7142857142857141
 40
0.7142857142857141
 40
0.7499999999999998
 40
0.7499999999999998
 40
0.7499999999999998
 40
0.7499999999999998
 40
0.7857142857142855
 40
0.7857142857142855
 40
0.7857142857142855
 40
0.7857142857142855
 40
0.8214285714285712
 40
0.8214285714285712
 40
0.8214285714285712
 40
0.8214285714285712
 40
0.8571428571428569
 40
0.8571428571428569
 40
0.8571428571428569
 40
0.8571428571428569
 40
0.8928571428571426
 40
0.8928571428571426
 40
0.8928571428571426
 40
0.8928571428571426
 40
0.9285714285714283
 40
0.9285714285714283
 40
0.9285714285714283
 40
0.9285714285714283
 40
0.964285714285714
 40
0.964285714285714
 40
0.964285714285714
 40
0.964285714285714
 40
1.0
 40
1.0
 40
1.0
 40
1.0
 10
4.155027559055118
 20
3.982484251968504
 30
0.0
 10
4.155027559055118
 20
3.982484251968504
 30
0.0
 10
4.155027559055118
 20
4.155318897637796
 30
0.0
 10
4.155027559055118
 20
4.155318897637796
 30
0.0
 10
4.155027559055118
 20
4.155318897637796
 30
0.0
 10
4.155027559055118
 20
4.155318897637796
 30
0.0
 10
4.181192913385827
 20
4.155318897637796
 30
0.0
 10
4.181192913385827
 20
4.155318897637796
 30
0.0
 10
4.181192913385827
 20
4.155318897637796
 30
0.0
 10
4.181192913385827
 20
4.155318897637796
 30
0.0
 10
4.181192913385827
 20
4.131094488188976
 30
0.0
 10
4.181192913385827
 20
4.131094488188976
 30
0.0
 10
4.181192913385827
 20
4.131094488188976
 30
0.0
 10
4.18663779527559
 20
4.13953937007874
 30
0.0
 10
4.193862204724409
 20
4.146374015748032
 30
0.0
 10
4.20286220472441
 20
4.151484251968504
 30
0.0
 10
4.20286220472441
 20
4.151484251968504
 30
0.0
 10
4.21186220472441
 20
4.156653543307087
 30
0.0
 10
4.22213779527559
 20
4.159263779527559
 30
0.0
 10
4.233637795275591
 20
4.159263779527559
 30
0.0
 10
4.233637795275591
 20
4.159263779527559
 30
0.0
 10
4.246417322834646
 20
4.159263779527559
 30
0.0
 10
4.256917322834646
 20
4.156594488188977
 30
0.0
 10
4.265082677165355
 20
4.151263779527559
 30
0.0
 10
4.265082677165355
 20
4.151263779527559
 30
0.0
 10
4.273307086614174
 20
4.145929133858268
 30
0.0
 10
4.279082677165355
 20
4.138539370078741
 30
0.0
 10
4.282417322834646
 20
4.128984251968504
 30
0.0
 10
4.282417322834646
 20
4.128984251968504
 30
0.0
 10
4.296137795275591
 20
4.149153543307087
 30
0.0
 10
4.313917322834646
 20
4.159263779527559
 30
0.0
 10
4.335807086614174
 20
4.159263779527559
 30
0.0
 10
4.335807086614174
 20
4.159263779527559
 30
0.0
 10
4.352972440944882
 20
4.159263779527559
 30
0.0
 10
4.36613779527559
 20
4.154484251968504
 30
0.0
 10
4.37536220472441
 20
4.144984251968504
 30
0.0
 10
4.37536220472441
 20
4.144984251968504
 30
0.0
 10
4.384582677165355
 20
4.135484251968504
 30
0.0
 10
4.389196850393701
 20
4.120874015748032
 30
0.0
 10
4.389196850393701
 20
4.101149606299213
 30
0.0
 10
4.389196850393701
 20
4.101149606299213
 30
0.0
 10
4.389196850393701
 20
4.101149606299213
 30
0.0
 10
4.389196850393701
 20
3.982484251968504
 30
0.0
 10
4.389196850393701
 20
3.982484251968504
 30
0.0
 10
4.389196850393701
 20
3.982484251968504
 30
0.0
 10
4.389196850393701
 20
3.982484251968504
 30
0.0
 10
4.360082677165354
 20
3.982484251968504
 30
0.0
 10
4.360082677165354
 20
3.982484251968504
 30
0.0
 10
4.360082677165354
 20
3.982484251968504
 30
0.0
 10
4.360082677165354
 20
3.982484251968504
 30
0.0
 10
4.360082677165354
 20
4.091374015748031
 30
0.0
 10
4.360082677165354
 20
4.091374015748031
 30
0.0
 10
4.360082677165354
 20
4.091374015748031
 30
0.0
 10
4.360082677165354
 20
4.103094488188977
 30
0.0
 10
4.359137795275591
 20
4.111539370078741
 30
0.0
 10
4.357251968503937
 20
4.116708661417323
 30
0.0
 10
4.357251968503937
 20
4.116708661417323
 30
0.0
 10
4.355307086614173
 20
4.121818897637795
 30
0.0
 10
4.35186220472441
 20
4.125984251968504
 30
0.0
 10
4.346917322834646
 20
4.129149606299213
 30
0.0
 10
4.346917322834646
 20
4.129149606299213
 30
0.0
 10
4.341917322834646
 20
4.132263779527559
 30
0.0
 10
4.336027559055118
 20
4.133874015748032
 30
0.0
 10
4.329307086614174
 20
4.133874015748032
 30
0.0
 10
4.329307086614174
 20
4.133874015748032
 30
0.0
 10
4.317137795275591
 20
4.133874015748032
 30
0.0
 10
4.307082677165354
 20
4.129818897637795
 30
0.0
 10
4.299027559055118
 20
4.121708661417323
 30
0.0
 10
4.299027559055118
 20
4.121708661417323
 30
0.0
 10
4.291027559055118
 20
4.113649606299213
 30
0.0
 10
4.286972440944882
 20
4.100708661417323
 30
0.0
 10
4.286972440944882
 20
4.082929133858268
 30
0.0
 10
4.286972440944882
 20
4.082929133858268
 30
0.0
 10
4.286972440944882
 20
4.082929133858268
 30
0.0
 10
4.286972440944882
 20
3.982484251968504
 30
0.0
 10
4.286972440944882
 20
3.982484251968504
 30
0.0
 10
4.286972440944882
 20
3.982484251968504
 30
0.0
 10
4.286972440944882
 20
3.982484251968504
 30
0.0
 10
4.257692913385827
 20
3.982484251968504
 30
0.0
 10
4.257692913385827
 20
3.982484251968504
 30
0.0
 10
4.257692913385827
 20
3.982484251968504
 30
0.0
 10
4.257692913385827
 20
3.982484251968504
 30
0.0
 10
4.257692913385827
 20
4.094763779527559
 30
0.0
 10
4.257692913385827
 20
4.094763779527559
 30
0.0
 10
4.257692913385827
 20
4.094763779527559
 30
0.0
 10
4.257692913385827
 20
4.107818897637795
 30
0.0
 10
4.255307086614174
 20
4.117594488188977
 30
0.0
 10
4.250527559055119
 20
4.124094488188977
 30
0.0
 10
4.250527559055119
 20
4.124094488188977
 30
0.0
 10
4.245751968503937
 20
4.130594488188977
 30
0.0
 10
4.237972440944883
 20
4.133874015748032
 30
0.0
 10
4.227082677165354
 20
4.133874015748032
 30
0.0
 10
4.227082677165354
 20
4.133874015748032
 30
0.0
 10
4.21886220472441
 20
4.133874015748032
 30
0.0
 10
4.211251968503937
 20
4.131708661417323
 30
0.0
 10
4.204251968503937
 20
4.127318897637795
 30
0.0
 10
4.204251968503937
 20
4.127318897637795
 30
0.0
 10
4.197251968503937
 20
4.122984251968505
 30
0.0
 10
4.192137795275591
 20
4.116649606299212
 30
0.0
 10
4.189027559055118
 20
4.108318897637796
 30
0.0
 10
4.189027559055118
 20
4.108318897637796
 30
0.0
 10
4.185862204724409
 20
4.099929133858268
 30
0.0
 10
4.184307086614173
 20
4.087874015748032
 30
0.0
 10
4.184307086614173
 20
4.072149606299213
 30
0.0
 10
4.184307086614173
 20
4.072149606299213
 30
0.0
 10
4.184307086614173
 20
4.072149606299213
 30
0.0
 10
4.184307086614173
 20
3.982484251968504
 30
0.0
 10
4.184307086614173
 20
3.982484251968504
 30
0.0
 10
4.184307086614173
 20
3.982484251968504
 30
0.0
 10
4.184307086614173
 20
3.982484251968504
 30
0.0
 10
4.155027559055118
 20
3.982484251968504
 30
0.0
 10
4.155027559055118
 20
3.982484251968504
 30
0.0
  0
SPLINE
  5
6C
330
1F
100
AcDbEntity
  8
Capa 1
 62
   250
370
     5
100
AcDbSpline
210
0.0
220
0.0
230
1.0
 70
    24
 71
     3
 72
     8
 73
     4
 74
     0
 42
0.0000000001
 43
0.0000000001
 40
0.0
 40
0.0
 40
0.0
 40
0.0
 40
1.0
 40
1.0
 40
1.0
 40
1.0
 10
-7.421255905511812
 20
1.819685039370079
 30
0.0
 10
-7.421255905511812
 20
1.819685039370079
 30
0.0
 10
-7.421255905511812
 20
4.277165354330709
 30
0.0
 10
-7.421255905511812
 20
4.277165354330709
 30
0.0
  0
SPLINE
  5
6D
330
1F
100
AcDbEntity
  8
Capa 1
 62
   250
370
     5
100
AcDbSpline
210
0.0
220
0.0
230
1.0
 70
    24
 71
     3
 72
     8
 73
     4
 74
     0
 42
0.0000000001
 43
0.0000000001
 40
0.0
 40
0.0
 40
0.0
 40
0.0
 40
1.0
 40
1.0
 40
1.0
 40
1.0
 10
-5.905507874015748
 20
2.285031496062992
 30
0.0
 10
-5.905507874015748
 20
2.285031496062992
 30
0.0
 10
-5.905507874015748
 20
4.277165354330709
 30
0.0
 10
-5.905507874015748
 20
4.277165354330709
 30
0.0
  0
SPLINE
  5
6E
330
1F
100
AcDbEntity
  8
Capa 1
 62
   250
370
     5
100
AcDbSpline
210
0.0
220
0.0
230
1.0
 70
    24
 71
     3
 72
     8
 73
     4
 74
     0
 42
0.0000000001
 43
0.0000000001
 40
0.0
 40
0.0
 40
0.0
 40
0.0
 40
1.0
 40
1.0
 40
1.0
 40
1.0
 10
-7.421255905511812
 20
4.077165354330709
 30
0.0
 10
-7.421255905511812
 20
4.077165354330709
 30
0.0
 10
-5.905507874015748
 20
4.077165354330709
 30
0.0
 10
-5.905507874015748
 20
4.077165354330709
 30
0.0
  0
SPLINE
  5
6F
330
1F
100
AcDbEntity
  8
Capa 1
 62
   250
100
AcDbSpline
210
0.0
220
0.0
230
1.0
 70
    11
 71
     3
 72
   124
 73
   120
 74
     0
 42
0.0000000001
 43
0.0000000001
 40
0.0
 40
0.0
 40
0.0
 40
0.0
 40
0.0333333333333333
 40
0.0333333333333333
 40
0.0333333333333333
 40
0.0333333333333333
 40
0.0666666666666667
 40
0.0666666666666667
 40
0.0666666666666667
 40
0.0666666666666667
 40
0.1
 40
0.1
 40
0.1
 40
0.1
 40
0.1333333333333333
 40
0.1333333333333333
 40
0.1333333333333333
 40
0.1333333333333333
 40
0.1666666666666667
 40
0.1666666666666667
 40
0.1666666666666667
 40
0.1666666666666667
 40
0.2
 40
0.2
 40
0.2
 40
0.2
 40
0.2333333333333333
 40
0.2333333333333333
 40
0.2333333333333333
 40
0.2333333333333333
 40
0.2666666666666667
 40
0.2666666666666667
 40
0.2666666666666667
 40
0.2666666666666667
 40
0.3
 40
0.3
 40
0.3
 40
0.3
 40
0.3333333333333333
 40
0.3333333333333333
 40
0.3333333333333333
 40
0.3333333333333333
 40
0.3666666666666666
 40
0.3666666666666666
 40
0.3666666666666666
 40
0.3666666666666666
 40
0.4
 40
0.4
 40
0.4
 40
0.4
 40
0.4333333333333333
 40
0.4333333333333333
 40
0.4333333333333333
 40
0.4333333333333333
 40
0.4666666666666666
 40
0.4666666666666666
 40
0.4666666666666666
 40
0.4666666666666666
 40
0.4999999999999999
 40
0.4999999999999999
 40
0.4999999999999999
 40
0.4999999999999999
 40
0.5333333333333333
 40
0.5333333333333333
 40
0.5333333333333333
 40
0.5333333333333333
 40
0.5666666666666667
 40
0.5666666666666667
 40
0.5666666666666667
 40
0.5666666666666667
 40
0.6
 40
0.6
 40
0.6
 40
0.6
 40
0.6333333333333333
 40
0.6333333333333333
 40
0.6333333333333333
 40
0.6333333333333333
 40
0.6666666666666666
 40
0.6666666666666666
 40
0.6666666666666666
 40
0.6666666666666666
 40
0.7
 40
0.7
 40
0.7
 40
0.7
 40
0.7333333333333333
 40
0.7333333333333333
 40
0.7333333333333333
 40
0.7333333333333333
 40
0.7666666666666666
 40
0.7666666666666666
 40
0.7666666666666666
 40
0.7666666666666666
 40
0.7999999999999999
 40
0.7999999999999999
 40
0.7999999999999999
 40
0.7999999999999999
 40
0.8333333333333333
 40
0.8333333333333333
 40
0.8333333333333333
 40
0.8333333333333333
 40
0.8666666666666666
 40
0.8666666666666666
 40
0.8666666666666666
 40
0.8666666666666666
 40
0.8999999999999999
 40
0.8999999999999999
 40
0.8999999999999999
 40
0.8999999999999999
 40
0.9333333333333332
 40
0.9333333333333332
 40
0.9333333333333332
 40
0.9333333333333332
 40
0.9666666666666666
 40
0.9666666666666666
 40
0.9666666666666666
 40
0.9666666666666666
 40
1.0
 40
1.0
 40
1.0
 40
1.0
 10
-9.117874015748033
 20
4.022472440944882
 30
0.0
 10
-9.117874015748033
 20
4.022472440944882
 30
0.0
 10
-9.088594488188976
 20
4.02636220472441
 30
0.0
 10
-9.088594488188976
 20
4.02636220472441
 30
0.0
 10
-9.088594488188976
 20
4.02636220472441
 30
0.0
 10
-9.085208661417322
 20
4.009751968503937
 30
0.0
 10
-9.079484251968504
 20
3.997807086614174
 30
0.0
 10
-9.071429133858269
 20
3.990472440944882
 30
0.0
 10
-9.071429133858269
 20
3.990472440944882
 30
0.0
 10
-9.063318897637796
 20
3.983137795275591
 30
0.0
 10
-9.053484251968504
 20
3.979472440944882
 30
0.0
 10
-9.041874015748032
 20
3.979472440944882
 30
0.0
 10
-9.041874015748032
 20
3.979472440944882
 30
0.0
 10
-9.028094488188977
 20
3.979472440944882
 30
0.0
 10
-9.016429133858269
 20
3.984251968503937
 30
0.0
 10
-9.006929133858268
 20
3.993807086614174
 30
0.0
 10
-9.006929133858268
 20
3.993807086614174
 30
0.0
 10
-8.997484251968505
 20
4.00336220472441
 30
0.0
 10
-8.992708661417323
 20
4.015196850393701
 30
0.0
 10
-8.992708661417323
 20
4.029307086614174
 30
0.0
 10
-8.992708661417323
 20
4.029307086614174
 30
0.0
 10
-8.992708661417323
 20
4.042751968503938
 30
0.0
 10
-8.997094488188976
 20
4.05386220472441
 30
0.0
 10
-9.005874015748033
 20
4.062582677165355
 30
0.0
 10
-9.005874015748033
 20
4.062582677165355
 30
0.0
 10
-9.014708661417323
 20
4.071307086614174
 30
0.0
 10
-9.025874015748032
 20
4.075696850393701
 30
0.0
 10
-9.039429133858269
 20
4.075696850393701
 30
0.0
 10
-9.039429133858269
 20
4.075696850393701
 30
0.0
 10
-9.044984251968504
 20
4.075696850393701
 30
0.0
 10
-9.051874015748032
 20
4.074582677165354
 30
0.0
 10
-9.060094488188977
 20
4.072417322834646
 30
0.0
 10
-9.060094488188977
 20
4.072417322834646
 30
0.0
 10
-9.060094488188977
 20
4.072417322834646
 30
0.0
 10
-9.056818897637795
 20
4.098137795275591
 30
0.0
 10
-9.056818897637795
 20
4.098137795275591
 30
0.0
 10
-9.056818897637795
 20
4.098137795275591
 30
0.0
 10
-9.054874015748032
 20
4.097917322834646
 30
0.0
 10
-9.053318897637796
 20
4.097807086614173
 30
0.0
 10
-9.052094488188978
 20
4.097807086614173
 30
0.0
 10
-9.052094488188978
 20
4.097807086614173
 30
0.0
 10
-9.039649606299212
 20
4.097807086614173
 30
0.0
 10
-9.028429133858268
 20
4.101082677165355
 30
0.0
 10
-9.018429133858268
 20
4.107582677165355
 30
0.0
 10
-9.018429133858268
 20
4.107582677165355
 30
0.0
 10
-9.008429133858268
 20
4.114082677165355
 30
0.0
 10
-9.003429133858267
 20
4.12413779527559
 30
0.0
 10
-9.003429133858267
 20
4.137696850393701
 30
0.0
 10
-9.003429133858267
 20
4.137696850393701
 30
0.0
 10
-9.003429133858267
 20
4.148417322834646
 30
0.0
 10
-9.007094488188976
 20
4.15736220472441
 30
0.0
 10
-9.014374015748032
 20
4.16436220472441
 30
0.0
 10
-9.014374015748032
 20
4.16436220472441
 30
0.0
 10
-9.021649606299214
 20
4.171417322834646
 30
0.0
 10
-9.031039370078741
 20
4.174972440944882
 30
0.0
 10
-9.042539370078741
 20
4.174972440944882
 30
0.0
 10
-9.042539370078741
 20
4.174972440944882
 30
0.0
 10
-9.053929133858269
 20
4.174972440944882
 30
0.0
 10
-9.063429133858268
 20
4.171362204724409
 30
0.0
 10
-9.070984251968504
 20
4.164251968503937
 30
0.0
 10
-9.070984251968504
 20
4.164251968503937
 30
0.0
 10
-9.078594488188976
 20
4.157082677165355
 30
0.0
 10
-9.083484251968505
 20
4.146307086614174
 30
0.0
 10
-9.085653543307087
 20
4.131972440944882
 30
0.0
 10
-9.085653543307087
 20
4.131972440944882
 30
0.0
 10
-9.085653543307087
 20
4.131972440944882
 30
0.0
 10
-9.114929133858269
 20
4.137196850393701
 30
0.0
 10
-9.114929133858269
 20
4.137196850393701
 30
0.0
 10
-9.114929133858269
 20
4.137196850393701
 30
0.0
 10
-9.111374015748032
 20
4.156862204724409
 30
0.0
 10
-9.103208661417323
 20
4.172082677165355
 30
0.0
 10
-9.090539370078741
 20
4.18286220472441
 30
0.0
 10
-9.090539370078741
 20
4.18286220472441
 30
0.0
 10
-9.077818897637796
 20
4.193641732283465
 30
0.0
 10
-9.062039370078741
 20
4.199082677165355
 30
0.0
 10
-9.043149606299213
 20
4.199082677165355
 30
0.0
 10
-9.043149606299213
 20
4.199082677165355
 30
0.0
 10
-9.030149606299213
 20
4.199082677165355
 30
0.0
 10
-9.018149606299213
 20
4.196251968503937
 30
0.0
 10
-9.007208661417323
 20
4.190696850393701
 30
0.0
 10
-9.007208661417323
 20
4.190696850393701
 30
0.0
 10
-8.99626377952756
 20
4.185082677165354
 30
0.0
 10
-8.987874015748032
 20
4.177472440944882
 30
0.0
 10
-8.982039370078741
 20
4.167807086614173
 30
0.0
 10
-8.982039370078741
 20
4.167807086614173
 30
0.0
 10
-8.97626377952756
 20
4.158141732283465
 30
0.0
 10
-8.973318897637796
 20
4.147917322834646
 30
0.0
 10
-8.973318897637796
 20
4.137027559055118
 30
0.0
 10
-8.973318897637796
 20
4.137027559055118
 30
0.0
 10
-8.973318897637796
 20
4.126751968503937
 30
0.0
 10
-8.976094488188977
 20
4.11736220472441
 30
0.0
 10
-8.981649606299213
 20
4.108862204724409
 30
0.0
 10
-8.981649606299213
 20
4.108862204724409
 30
0.0
 10
-8.987208661417323
 20
4.100417322834645
 30
0.0
 10
-8.995374015748032
 20
4.093696850393701
 30
0.0
 10
-9.006208661417324
 20
4.088696850393701
 30
0.0
 10
-9.006208661417324
 20
4.088696850393701
 30
0.0
 10
-8.992094488188977
 20
4.085472440944882
 30
0.0
 10
-8.981149606299214
 20
4.078696850393701
 30
0.0
 10
-8.973318897637796
 20
4.068417322834645
 30
0.0
 10
-8.973318897637796
 20
4.068417322834645
 30
0.0
 10
-8.965539370078741
 20
4.058196850393701
 30
0.0
 10
-8.961649606299213
 20
4.04536220472441
 30
0.0
 10
-8.961649606299213
 20
4.029972440944882
 30
0.0
 10
-8.961649606299213
 20
4.029972440944882
 30
0.0
 10
-8.961649606299213
 20
4.009137795275591
 30
0.0
 10
-8.969208661417323
 20
3.991472440944882
 30
0.0
 10
-8.984429133858269
 20
3.976972440944882
 30
0.0
 10
-8.984429133858269
 20
3.976972440944882
 30
0.0
 10
-8.999594488188977
 20
3.962472440944882
 30
0.0
 10
-9.018818897637795
 20
3.955251968503937
 30
0.0
 10
-9.04203937007874
 20
3.955251968503937
 30
0.0
 10
-9.04203937007874
 20
3.955251968503937
 30
0.0
 10
-9.062984251968505
 20
3.955251968503937
 30
0.0
 10
-9.080374015748031
 20
3.961472440944882
 30
0.0
 10
-9.094208661417323
 20
3.973972440944882
 30
0.0
 10
-9.094208661417323
 20
3.973972440944882
 30
0.0
 10
-9.108039370078741
 20
3.986417322834646
 30
0.0
 10
-9.115929133858268
 20
4.002582677165354
 30
0.0
 10
-9.117874015748033
 20
4.022472440944882
 30
0.0
  0
SPLINE
  5
70
330
1F
100
AcDbEntity
  8
Capa 1
 62
   250
100
AcDbSpline
210
0.0
220
0.0
230
1.0
 70
    11
 71
     3
 72
    68
 73
    64
 74
     0
 42
0.0000000001
 43
0.0000000001
 40
0.0
 40
0.0
 40
0.0
 40
0.0
 40
0.0625
 40
0.0625
 40
0.0625
 40
0.0625
 40
0.125
 40
0.125
 40
0.125
 40
0.125
 40
0.1875
 40
0.1875
 40
0.1875
 40
0.1875
 40
0.25
 40
0.25
 40
0.25
 40
0.25
 40
0.3125
 40
0.3125
 40
0.3125
 40
0.3125
 40
0.375
 40
0.375
 40
0.375
 40
0.375
 40
0.4375
 40
0.4375
 40
0.4375
 40
0.4375
 40
0.5
 40
0.5
 40
0.5
 40
0.5
 40
0.5625
 40
0.5625
 40
0.5625
 40
0.5625
 40
0.625
 40
0.625
 40
0.625
 40
0.625
 40
0.6875
 40
0.6875
 40
0.6875
 40
0.6875
 40
0.75
 40
0.75
 40
0.75
 40
0.75
 40
0.8125
 40
0.8125
 40
0.8125
 40
0.8125
 40
0.875
 40
0.875
 40
0.875
 40
0.875
 40
0.9375
 40
0.9375
 40
0.9375
 40
0.9375
 40
1.0
 40
1.0
 40
1.0
 40
1.0
 10
-8.887539370078741
 20
4.08886220472441
 30
0.0
 10
-8.89970472440945
 20
4.093307086614173
 30
0.0
 10
-8.90870472440945
 20
4.099637795275591
 30
0.0
 10
-8.914594488188977
 20
4.107917322834646
 30
0.0
 10
-8.914594488188977
 20
4.107917322834646
 30
0.0
 10
-8.920429133858269
 20
4.11613779527559
 30
0.0
 10
-8.923374015748031
 20
4.126027559055118
 30
0.0
 10
-8.923374015748031
 20
4.137527559055118
 30
0.0
 10
-8.923374015748031
 20
4.137527559055118
 30
0.0
 10
-8.923374015748031
 20
4.154917322834645
 30
0.0
 10
-8.917149606299214
 20
4.169472440944882
 30
0.0
 10
-8.904649606299213
 20
4.181307086614173
 30
0.0
 10
-8.904649606299213
 20
4.181307086614173
 30
0.0
 10
-8.892149606299213
 20
4.193141732283465
 30
0.0
 10
-8.875594488188977
 20
4.199082677165355
 30
0.0
 10
-8.854874015748031
 20
4.199082677165355
 30
0.0
 10
-8.854874015748031
 20
4.199082677165355
 30
0.0
 10
-8.83403937007874
 20
4.199082677165355
 30
0.0
 10
-8.817259842519686
 20
4.193027559055119
 30
0.0
 10
-8.804539370078741
 20
4.180917322834646
 30
0.0
 10
-8.804539370078741
 20
4.180917322834646
 30
0.0
 10
-8.791874015748032
 20
4.168807086614174
 30
0.0
 10
-8.785539370078741
 20
4.154082677165355
 30
0.0
 10
-8.785539370078741
 20
4.136696850393701
 30
0.0
 10
-8.785539370078741
 20
4.136696850393701
 30
0.0
 10
-8.785539370078741
 20
4.125637795275591
 30
0.0
 10
-8.788429133858267
 20
4.116027559055119
 30
0.0
 10
-8.794204724409449
 20
4.107807086614174
 30
0.0
 10
-8.794204724409449
 20
4.107807086614174
 30
0.0
 10
-8.800039370078741
 20
4.099637795275591
 30
0.0
 10
-8.808818897637796
 20
4.093307086614173
 30
0.0
 10
-8.820649606299213
 20
4.08886220472441
 30
0.0
 10
-8.820649606299213
 20
4.08886220472441
 30
0.0
 10
-8.806039370078741
 20
4.084082677165354
 30
0.0
 10
-8.794874015748032
 20
4.076417322834645
 30
0.0
 10
-8.787204724409449
 20
4.065751968503937
 30
0.0
 10
-8.787204724409449
 20
4.065751968503937
 30
0.0
 10
-8.779594488188977
 20
4.055137795275591
 30
0.0
 10
-8.775759842519685
 20
4.042417322834646
 30
0.0
 10
-8.775759842519685
 20
4.027696850393701
 30
0.0
 10
-8.775759842519685
 20
4.027696850393701
 30
0.0
 10
-8.775759842519685
 20
4.007251968503937
 30
0.0
 10
-8.782984251968504
 20
3.990137795275591
 30
0.0
 10
-8.797374015748032
 20
3.976251968503937
 30
0.0
 10
-8.797374015748032
 20
3.976251968503937
 30
0.0
 10
-8.811818897637796
 20
3.96236220472441
 30
0.0
 10
-8.830818897637796
 20
3.955417322834646
 30
0.0
 10
-8.854374015748032
 20
3.955417322834646
 30
0.0
 10
-8.854374015748032
 20
3.955417322834646
 30
0.0
 10
-8.877929133858268
 20
3.955417322834646
 30
0.0
 10
-8.896874015748033
 20
3.96236220472441
 30
0.0
 10
-8.911318897637795
 20
3.976307086614173
 30
0.0
 10
-8.911318897637795
 20
3.976307086614173
 30
0.0
 10
-8.925763779527559
 20
3.990251968503937
 30
0.0
 10
-8.932984251968504
 20
4.007637795275591
 30
0.0
 10
-8.932984251968504
 20
4.028472440944882
 30
0.0
 10
-8.932984251968504
 20
4.028472440944882
 30
0.0
 10
-8.932984251968504
 20
4.043972440944882
 30
0.0
 10
-8.929039370078741
 20
4.056972440944882
 30
0.0
 10
-8.921149606299213
 20
4.067472440944882
 30
0.0
 10
-8.921149606299213
 20
4.067472440944882
 30
0.0
 10
-8.913318897637796
 20
4.077917322834646
 30
0.0
 10
-8.902094488188977
 20
4.085082677165355
 30
0.0
 10
-8.887539370078741
 20
4.08886220472441
 30
0.0
  0
SPLINE
  5
71
330
1F
100
AcDbEntity
  8
Capa 1
 62
   250
100
AcDbSpline
210
0.0
220
0.0
230
1.0
 70
    11
 71
     3
 72
    36
 73
    32
 74
     0
 42
0.0000000001
 43
0.0000000001
 40
0.0
 40
0.0
 40
0.0
 40
0.0
 40
0.125
 40
0.125
 40
0.125
 40
0.125
 40
0.25
 40
0.25
 40
0.25
 40
0.25
 40
0.375
 40
0.375
 40
0.375
 40
0.375
 40
0.5
 40
0.5
 40
0.5
 40
0.5
 40
0.625
 40
0.625
 40
0.625
 40
0.625
 40
0.75
 40
0.75
 40
0.75
 40
0.75
 40
0.875
 40
0.875
 40
0.875
 40
0.875
 40
1.0
 40
1.0
 40
1.0
 40
1.0
 10
-8.893429133858268
 20
4.138527559055119
 30
0.0
 10
-8.893429133858268
 20
4.127251968503937
 30
0.0
 10
-8.889759842519686
 20
4.118027559055118
 30
0.0
 10
-8.882539370078741
 20
4.11086220472441
 30
0.0
 10
-8.882539370078741
 20
4.11086220472441
 30
0.0
 10
-8.875259842519686
 20
4.103696850393701
 30
0.0
 10
-8.865818897637796
 20
4.100082677165355
 30
0.0
 10
-8.854204724409449
 20
4.100082677165355
 30
0.0
 10
-8.854204724409449
 20
4.100082677165355
 30
0.0
 10
-8.842929133858268
 20
4.100082677165355
 30
0.0
 10
-8.833649606299213
 20
4.103637795275591
 30
0.0
 10
-8.826429133858268
 20
4.110751968503937
 30
0.0
 10
-8.826429133858268
 20
4.110751968503937
 30
0.0
 10
-8.819204724409449
 20
4.11786220472441
 30
0.0
 10
-8.815649606299212
 20
4.126582677165355
 30
0.0
 10
-8.815649606299212
 20
4.13686220472441
 30
0.0
 10
-8.815649606299212
 20
4.13686220472441
 30
0.0
 10
-8.815649606299212
 20
4.147641732283465
 30
0.0
 10
-8.819318897637796
 20
4.156641732283465
 30
0.0
 10
-8.826759842519685
 20
4.163972440944882
 30
0.0
 10
-8.826759842519685
 20
4.163972440944882
 30
0.0
 10
-8.83420472440945
 20
4.171307086614173
 30
0.0
 10
-8.843429133858269
 20
4.174972440944882
 30
0.0
 10
-8.85453937007874
 20
4.174972440944882
 30
0.0
 10
-8.85453937007874
 20
4.174972440944882
 30
0.0
 10
-8.865704724409449
 20
4.174972440944882
 30
0.0
 10
-8.874984251968504
 20
4.171362204724409
 30
0.0
 10
-8.882374015748033
 20
4.164251968503937
 30
0.0
 10
-8.882374015748033
 20
4.164251968503937
 30
0.0
 10
-8.889759842519686
 20
4.157082677165355
 30
0.0
 10
-8.893429133858268
 20
4.148472440944882
 30
0.0
 10
-8.893429133858268
 20
4.138527559055119
 30
0.0
  0
SPLINE
  5
72
330
1F
100
AcDbEntity
  8
Capa 1
 62
   250
100
AcDbSpline
210
0.0
220
0.0
230
1.0
 70
    11
 71
     3
 72
    40
 73
    36
 74
     0
 42
0.0000000001
 43
0.0000000001
 40
0.0
 40
0.0
 40
0.0
 40
0.0
 40
0.1111111111111111
 40
0.1111111111111111
 40
0.1111111111111111
 40
0.1111111111111111
 40
0.2222222222222222
 40
0.2222222222222222
 40
0.2222222222222222
 40
0.2222222222222222
 40
0.3333333333333333
 40
0.3333333333333333
 40
0.3333333333333333
 40
0.3333333333333333
 40
0.4444444444444444
 40
0.4444444444444444
 40
0.4444444444444444
 40
0.4444444444444444
 40
0.5555555555555556
 40
0.5555555555555556
 40
0.5555555555555556
 40
0.5555555555555556
 40
0.6666666666666667
 40
0.6666666666666667
 40
0.6666666666666667
 40
0.6666666666666667
 40
0.7777777777777779
 40
0.7777777777777779
 40
0.7777777777777779
 40
0.7777777777777779
 40
0.8888888888888891
 40
0.8888888888888891
 40
0.8888888888888891
 40
0.8888888888888891
 40
1.0
 40
1.0
 40
1.0
 40
1.0
 10
-8.902874015748031
 20
4.028307086614174
 30
0.0
 10
-8.902874015748031
 20
4.019972440944882
 30
0.0
 10
-8.900874015748032
 20
4.01186220472441
 30
0.0
 10
-8.896929133858269
 20
4.004082677165354
 30
0.0
 10
-8.896929133858269
 20
4.004082677165354
 30
0.0
 10
-8.892984251968505
 20
3.996251968503937
 30
0.0
 10
-8.887094488188977
 20
3.990192913385827
 30
0.0
 10
-8.879259842519685
 20
3.985917322834646
 30
0.0
 10
-8.879259842519685
 20
3.985917322834646
 30
0.0
 10
-8.871429133858268
 20
3.981637795275591
 30
0.0
 10
-8.86303937007874
 20
3.979472440944882
 30
0.0
 10
-8.854039370078741
 20
3.979472440944882
 30
0.0
 10
-8.854039370078741
 20
3.979472440944882
 30
0.0
 10
-8.84003937007874
 20
3.979472440944882
 30
0.0
 10
-8.828484251968504
 20
3.983972440944882
 30
0.0
 10
-8.819374015748032
 20
3.993027559055118
 30
0.0
 10
-8.819374015748032
 20
3.993027559055118
 30
0.0
 10
-8.810259842519685
 20
4.002027559055119
 30
0.0
 10
-8.805704724409448
 20
4.013472440944882
 30
0.0
 10
-8.805704724409448
 20
4.02736220472441
 30
0.0
 10
-8.805704724409448
 20
4.02736220472441
 30
0.0
 10
-8.805704724409448
 20
4.041472440944882
 30
0.0
 10
-8.810374015748032
 20
4.053137795275591
 30
0.0
 10
-8.819759842519686
 20
4.062362204724409
 30
0.0
 10
-8.819759842519686
 20
4.062362204724409
 30
0.0
 10
-8.829149606299213
 20
4.071582677165354
 30
0.0
 10
-8.840929133858268
 20
4.076196850393701
 30
0.0
 10
-8.855039370078741
 20
4.076196850393701
 30
0.0
 10
-8.855039370078741
 20
4.076196850393701
 30
0.0
 10
-8.868818897637796
 20
4.076196850393701
 30
0.0
 10
-8.880204724409449
 20
4.071637795275591
 30
0.0
 10
-8.889259842519685
 20
4.062527559055118
 30
0.0
 10
-8.889259842519685
 20
4.062527559055118
 30
0.0
 10
-8.898318897637795
 20
4.05336220472441
 30
0.0
 10
-8.902874015748031
 20
4.041972440944882
 30
0.0
 10
-8.902874015748031
 20
4.028307086614174
 30
0.0
  0
SPLINE
  5
73
330
1F
100
AcDbEntity
  8
Capa 1
 62
   250
100
AcDbSpline
210
0.0
220
0.0
230
1.0
 70
    11
 71
     3
 72
    20
 73
    16
 74
     0
 42
0.0000000001
 43
0.0000000001
 40
0.0
 40
0.0
 40
0.0
 40
0.0
 40
0.25
 40
0.25
 40
0.25
 40
0.25
 40
0.5
 40
0.5
 40
0.5
 40
0.5
 40
0.75
 40
0.75
 40
0.75
 40
0.75
 40
1.0
 40
1.0
 40
1.0
 40
1.0
 10
-8.730814960629921
 20
3.959472440944882
 30
0.0
 10
-8.730814960629921
 20
3.959472440944882
 30
0.0
 10
-8.730814960629921
 20
3.99286220472441
 30
0.0
 10
-8.730814960629921
 20
3.99286220472441
 30
0.0
 10
-8.730814960629921
 20
3.99286220472441
 30
0.0
 10
-8.730814960629921
 20
3.99286220472441
 30
0.0
 10
-8.697429133858268
 20
3.99286220472441
 30
0.0
 10
-8.697429133858268
 20
3.99286220472441
 30
0.0
 10
-8.697429133858268
 20
3.99286220472441
 30
0.0
 10
-8.697429133858268
 20
3.99286220472441
 30
0.0
 10
-8.697429133858268
 20
3.959472440944882
 30
0.0
 10
-8.697429133858268
 20
3.959472440944882
 30
0.0
 10
-8.697429133858268
 20
3.959472440944882
 30
0.0
 10
-8.697429133858268
 20
3.959472440944882
 30
0.0
 10
-8.730814960629921
 20
3.959472440944882
 30
0.0
 10
-8.730814960629921
 20
3.959472440944882
 30
0.0
  0
SPLINE
  5
74
330
1F
100
AcDbEntity
  8
Capa 1
 62
   250
100
AcDbSpline
210
0.0
220
0.0
230
1.0
 70
    11
 71
     3
 72
    92
 73
    88
 74
     0
 42
0.0000000001
 43
0.0000000001
 40
0.0
 40
0.0
 40
0.0
 40
0.0
 40
0.0454545454545455
 40
0.0454545454545455
 40
0.0454545454545455
 40
0.0454545454545455
 40
0.0909090909090909
 40
0.0909090909090909
 40
0.0909090909090909
 40
0.0909090909090909
 40
0.1363636363636364
 40
0.1363636363636364
 40
0.1363636363636364
 40
0.1363636363636364
 40
0.1818181818181818
 40
0.1818181818181818
 40
0.1818181818181818
 40
0.1818181818181818
 40
0.2272727272727273
 40
0.2272727272727273
 40
0.2272727272727273
 40
0.2272727272727273
 40
0.2727272727272728
 40
0.2727272727272728
 40
0.2727272727272728
 40
0.2727272727272728
 40
0.3181818181818182
 40
0.3181818181818182
 40
0.3181818181818182
 40
0.3181818181818182
 40
0.3636363636363637
 40
0.3636363636363637
 40
0.3636363636363637
 40
0.3636363636363637
 40
0.4090909090909092
 40
0.4090909090909092
 40
0.4090909090909092
 40
0.4090909090909092
 40
0.4545454545454546
 40
0.4545454545454546
 40
0.4545454545454546
 40
0.4545454545454546
 40
0.5000000000000001
 40
0.5000000000000001
 40
0.5000000000000001
 40
0.5000000000000001
 40
0.5454545454545455
 40
0.5454545454545455
 40
0.5454545454545455
 40
0.5454545454545455
 40
0.5909090909090909
 40
0.5909090909090909
 40
0.5909090909090909
 40
0.5909090909090909
 40
0.6363636363636364
 40
0.6363636363636364
 40
0.6363636363636364
 40
0.6363636363636364
 40
0.6818181818181818
 40
0.6818181818181818
 40
0.6818181818181818
 40
0.6818181818181818
 40
0.7272727272727272
 40
0.7272727272727272
 40
0.7272727272727272
 40
0.7272727272727272
 40
0.7727272727272726
 40
0.7727272727272726
 40
0.7727272727272726
 40
0.7727272727272726
 40
0.818181818181818
 40
0.818181818181818
 40
0.818181818181818
 40
0.818181818181818
 40
0.8636363636363634
 40
0.8636363636363634
 40
0.8636363636363634
 40
0.8636363636363634
 40
0.9090909090909088
 40
0.9090909090909088
 40
0.9090909090909088
 40
0.9090909090909088
 40
0.9545454545454543
 40
0.9545454545454543
 40
0.9545454545454543
 40
0.9545454545454543
 40
1.0
 40
1.0
 40
1.0
 40
1.0
 10
-8.654649606299213
 20
4.021972440944882
 30
0.0
 10
-8.654649606299213
 20
4.021972440944882
 30
0.0
 10
-8.623874015748031
 20
4.024582677165355
 30
0.0
 10
-8.623874015748031
 20
4.024582677165355
 30
0.0
 10
-8.623874015748031
 20
4.024582677165355
 30
0.0
 10
-8.621594488188977
 20
4.009582677165355
 30
0.0
 10
-8.616318897637795
 20
3.99836220472441
 30
0.0
 10
-8.608039370078741
 20
3.990807086614173
 30
0.0
 10
-8.608039370078741
 20
3.990807086614173
 30
0.0
 10
-8.599704724409449
 20
3.983251968503937
 30
0.0
 10
-8.589704724409449
 20
3.979472440944882
 30
0.0
 10
-8.577984251968504
 20
3.979472440944882
 30
0.0
 10
-8.577984251968504
 20
3.979472440944882
 30
0.0
 10
-8.563874015748032
 20
3.979472440944882
 30
0.0
 10
-8.551929133858268
 20
3.984807086614174
 30
0.0
 10
-8.54220472440945
 20
3.995417322834646
 30
0.0
 10
-8.54220472440945
 20
3.995417322834646
 30
0.0
 10
-8.532429133858267
 20
4.006082677165354
 30
0.0
 10
-8.52753937007874
 20
4.020196850393701
 30
0.0
 10
-8.52753937007874
 20
4.037751968503938
 30
0.0
 10
-8.52753937007874
 20
4.037751968503938
 30
0.0
 10
-8.52753937007874
 20
4.054472440944882
 30
0.0
 10
-8.53220472440945
 20
4.067637795275591
 30
0.0
 10
-8.541594488188977
 20
4.077307086614173
 30
0.0
 10
-8.541594488188977
 20
4.077307086614173
 30
0.0
 10
-8.550984251968504
 20
4.086972440944882
 30
0.0
 10
-8.563259842519685
 20
4.091807086614174
 30
0.0
 10
-8.578484251968504
 20
4.091807086614174
 30
0.0
 10
-8.578484251968504
 20
4.091807086614174
 30
0.0
 10
-8.587929133858268
 20
4.091807086614174
 30
0.0
 10
-8.596429133858267
 20
4.089637795275591
 30
0.0
 10
-8.604039370078741
 20
4.08536220472441
 30
0.0
 10
-8.604039370078741
 20
4.08536220472441
 30
0.0
 10
-8.611649606299213
 20
4.081082677165354
 30
0.0
 10
-8.617594488188976
 20
4.075527559055118
 30
0.0
 10
-8.621929133858268
 20
4.068696850393701
 30
0.0
 10
-8.621929133858268
 20
4.068696850393701
 30
0.0
 10
-8.621929133858268
 20
4.068696850393701
 30
0.0
 10
-8.649429133858268
 20
4.072251968503937
 30
0.0
 10
-8.649429133858268
 20
4.072251968503937
 30
0.0
 10
-8.649429133858268
 20
4.072251968503937
 30
0.0
 10
-8.649429133858268
 20
4.072251968503937
 30
0.0
 10
-8.626318897637797
 20
4.194807086614174
 30
0.0
 10
-8.626318897637797
 20
4.194807086614174
 30
0.0
 10
-8.626318897637797
 20
4.194807086614174
 30
0.0
 10
-8.626318897637797
 20
4.194807086614174
 30
0.0
 10
-8.507649606299212
 20
4.194807086614174
 30
0.0
 10
-8.507649606299212
 20
4.194807086614174
 30
0.0
 10
-8.507649606299212
 20
4.194807086614174
 30
0.0
 10
-8.507649606299212
 20
4.194807086614174
 30
0.0
 10
-8.507649606299212
 20
4.166807086614173
 30
0.0
 10
-8.507649606299212
 20
4.166807086614173
 30
0.0
 10
-8.507649606299212
 20
4.166807086614173
 30
0.0
 10
-8.507649606299212
 20
4.166807086614173
 30
0.0
 10
-8.602874015748032
 20
4.166807086614173
 30
0.0
 10
-8.602874015748032
 20
4.166807086614173
 30
0.0
 10
-8.602874015748032
 20
4.166807086614173
 30
0.0
 10
-8.602874015748032
 20
4.166807086614173
 30
0.0
 10
-8.61576377952756
 20
4.102696850393701
 30
0.0
 10
-8.61576377952756
 20
4.102696850393701
 30
0.0
 10
-8.61576377952756
 20
4.102696850393701
 30
0.0
 10
-8.601429133858268
 20
4.112696850393701
 30
0.0
 10
-8.586374015748032
 20
4.117696850393701
 30
0.0
 10
-8.570649606299213
 20
4.117696850393701
 30
0.0
 10
-8.570649606299213
 20
4.117696850393701
 30
0.0
 10
-8.549818897637795
 20
4.117696850393701
 30
0.0
 10
-8.532259842519686
 20
4.110472440944882
 30
0.0
 10
-8.517929133858267
 20
4.096027559055118
 30
0.0
 10
-8.517929133858267
 20
4.096027559055118
 30
0.0
 10
-8.503594488188977
 20
4.081582677165354
 30
0.0
 10
-8.496429133858268
 20
4.063027559055119
 30
0.0
 10
-8.496429133858268
 20
4.04036220472441
 30
0.0
 10
-8.496429133858268
 20
4.04036220472441
 30
0.0
 10
-8.496429133858268
 20
4.018751968503938
 30
0.0
 10
-8.502759842519685
 20
4.000082677165355
 30
0.0
 10
-8.515318897637796
 20
3.984362204724409
 30
0.0
 10
-8.515318897637796
 20
3.984362204724409
 30
0.0
 10
-8.530649606299212
 20
3.965082677165355
 30
0.0
 10
-8.551539370078741
 20
3.955417322834646
 30
0.0
 10
-8.577984251968504
 20
3.955417322834646
 30
0.0
 10
-8.577984251968504
 20
3.955417322834646
 30
0.0
 10
-8.599704724409449
 20
3.955417322834646
 30
0.0
 10
-8.617429133858268
 20
3.961472440944882
 30
0.0
 10
-8.631149606299212
 20
3.973637795275591
 30
0.0
 10
-8.631149606299212
 20
3.973637795275591
 30
0.0
 10
-8.644874015748032
 20
3.985807086614174
 30
0.0
 10
-8.65270472440945
 20
4.001917322834646
 30
0.0
 10
-8.654649606299213
 20
4.021972440944882
 30
0.0
  0
SPLINE
  5
75
330
1F
100
AcDbEntity
  8
Capa 1
 62
   250
100
AcDbSpline
210
0.0
220
0.0
230
1.0
 70
    11
 71
     3
 72
    52
 73
    48
 74
     0
 42
0.0000000001
 43
0.0000000001
 40
0.0
 40
0.0
 40
0.0
 40
0.0
 40
0.0833333333333333
 40
0.0833333333333333
 40
0.0833333333333333
 40
0.0833333333333333
 40
0.1666666666666667
 40
0.1666666666666667
 40
0.1666666666666667
 40
0.1666666666666667
 40
0.25
 40
0.25
 40
0.25
 40
0.25
 40
0.3333333333333333
 40
0.3333333333333333
 40
0.3333333333333333
 40
0.3333333333333333
 40
0.4166666666666666
 40
0.4166666666666666
 40
0.4166666666666666
 40
0.4166666666666666
 40
0.4999999999999999
 40
0.4999999999999999
 40
0.4999999999999999
 40
0.4999999999999999
 40
0.5833333333333333
 40
0.5833333333333333
 40
0.5833333333333333
 40
0.5833333333333333
 40
0.6666666666666666
 40
0.6666666666666666
 40
0.6666666666666666
 40
0.6666666666666666
 40
0.75
 40
0.75
 40
0.75
 40
0.75
 40
0.8333333333333334
 40
0.8333333333333334
 40
0.8333333333333334
 40
0.8333333333333334
 40
0.9166666666666667
 40
0.9166666666666667
 40
0.9166666666666667
 40
0.9166666666666667
 40
1.0
 40
1.0
 40
1.0
 40
1.0
 10
-8.469259842519685
 20
4.077137795275591
 30
0.0
 10
-8.469259842519685
 20
4.105362204724409
 30
0.0
 10
-8.466374015748032
 20
4.128082677165355
 30
0.0
 10
-8.46053937007874
 20
4.145251968503938
 30
0.0
 10
-8.46053937007874
 20
4.145251968503938
 30
0.0
 10
-8.454759842519685
 20
4.162472440944882
 30
0.0
 10
-8.446094488188976
 20
4.175751968503938
 30
0.0
 10
-8.434649606299214
 20
4.185082677165354
 30
0.0
 10
-8.434649606299214
 20
4.185082677165354
 30
0.0
 10
-8.42320472440945
 20
4.194417322834646
 30
0.0
 10
-8.408814960629922
 20
4.199082677165355
 30
0.0
 10
-8.391484251968505
 20
4.199082677165355
 30
0.0
 10
-8.391484251968505
 20
4.199082677165355
 30
0.0
 10
-8.378649606299213
 20
4.199082677165355
 30
0.0
 10
-8.367429133858268
 20
4.196472440944882
 30
0.0
 10
-8.357759842519686
 20
4.191307086614174
 30
0.0
 10
-8.357759842519686
 20
4.191307086614174
 30
0.0
 10
-8.348094488188977
 20
4.186196850393701
 30
0.0
 10
-8.340149606299214
 20
4.178751968503938
 30
0.0
 10
-8.333814960629921
 20
4.169027559055119
 30
0.0
 10
-8.333814960629921
 20
4.169027559055119
 30
0.0
 10
-8.327539370078741
 20
4.159307086614174
 30
0.0
 10
-8.322594488188976
 20
4.147472440944882
 30
0.0
 10
-8.319039370078741
 20
4.133527559055119
 30
0.0
 10
-8.319039370078741
 20
4.133527559055119
 30
0.0
 10
-8.315425196850393
 20
4.119582677165354
 30
0.0
 10
-8.313649606299213
 20
4.100807086614173
 30
0.0
 10
-8.313649606299213
 20
4.077137795275591
 30
0.0
 10
-8.313649606299213
 20
4.077137795275591
 30
0.0
 10
-8.313649606299213
 20
4.049137795275591
 30
0.0
 10
-8.31653937007874
 20
4.026582677165354
 30
0.0
 10
-8.322259842519685
 20
4.009362204724409
 30
0.0
 10
-8.322259842519685
 20
4.009362204724409
 30
0.0
 10
-8.32803937007874
 20
3.992137795275591
 30
0.0
 10
-8.336649606299213
 20
3.97886220472441
 30
0.0
 10
-8.348094488188977
 20
3.969472440944882
 30
0.0
 10
-8.348094488188977
 20
3.969472440944882
 30
0.0
 10
-8.359539370078741
 20
3.960082677165354
 30
0.0
 10
-8.373984251968505
 20
3.955417322834646
 30
0.0
 10
-8.391484251968505
 20
3.955417322834646
 30
0.0
 10
-8.391484251968505
 20
3.955417322834646
 30
0.0
 10
-8.414484251968505
 20
3.955417322834646
 30
0.0
 10
-8.432539370078741
 20
3.963637795275591
 30
0.0
 10
-8.445649606299213
 20
3.980137795275591
 30
0.0
 10
-8.445649606299213
 20
3.980137795275591
 30
0.0
 10
-8.461374015748032
 20
3.999972440944882
 30
0.0
 10
-8.469259842519685
 20
4.03236220472441
 30
0.0
 10
-8.469259842519685
 20
4.077137795275591
 30
0.0
  0
SPLINE
  5
76
330
1F
100
AcDbEntity
  8
Capa 1
 62
   250
100
AcDbSpline
210
0.0
220
0.0
230
1.0
 70
    11
 71
     3
 72
    36
 73
    32
 74
     0
 42
0.0000000001
 43
0.0000000001
 40
0.0
 40
0.0
 40
0.0
 40
0.0
 40
0.125
 40
0.125
 40
0.125
 40
0.125
 40
0.25
 40
0.25
 40
0.25
 40
0.25
 40
0.375
 40
0.375
 40
0.375
 40
0.375
 40
0.5
 40
0.5
 40
0.5
 40
0.5
 40
0.625
 40
0.625
 40
0.625
 40
0.625
 40
0.75
 40
0.75
 40
0.75
 40
0.75
 40
0.875
 40
0.875
 40
0.875
 40
0.875
 40
1.0
 40
1.0
 40
1.0
 40
1.0
 10
-8.439149606299212
 20
4.077137795275591
 30
0.0
 10
-8.439149606299212
 20
4.037972440944882
 30
0.0
 10
-8.43453937007874
 20
4.011917322834646
 30
0.0
 10
-8.425370078740158
 20
3.998917322834646
 30
0.0
 10
-8.425370078740158
 20
3.998917322834646
 30
0.0
 10
-8.416204724409448
 20
3.985972440944882
 30
0.0
 10
-8.404929133858268
 20
3.979472440944882
 30
0.0
 10
-8.391484251968505
 20
3.979472440944882
 30
0.0
 10
-8.391484251968505
 20
3.979472440944882
 30
0.0
 10
-8.377984251968504
 20
3.979472440944882
 30
0.0
 10
-8.366704724409448
 20
3.986027559055118
 30
0.0
 10
-8.35753937007874
 20
3.999027559055118
 30
0.0
 10
-8.35753937007874
 20
3.999027559055118
 30
0.0
 10
-8.348370078740159
 20
4.012027559055118
 30
0.0
 10
-8.343759842519685
 20
4.038082677165354
 30
0.0
 10
-8.343759842519685
 20
4.077137795275591
 30
0.0
 10
-8.343759842519685
 20
4.077137795275591
 30
0.0
 10
-8.343759842519685
 20
4.116417322834646
 30
0.0
 10
-8.348370078740159
 20
4.142527559055118
 30
0.0
 10
-8.35753937007874
 20
4.155417322834646
 30
0.0
 10
-8.35753937007874
 20
4.155417322834646
 30
0.0
 10
-8.366704724409448
 20
4.16836220472441
 30
0.0
 10
-8.378094488188976
 20
4.174807086614173
 30
0.0
 10
-8.391759842519685
 20
4.174807086614173
 30
0.0
 10
-8.391759842519685
 20
4.174807086614173
 30
0.0
 10
-8.405259842519685
 20
4.174807086614173
 30
0.0
 10
-8.415984251968505
 20
4.169082677165354
 30
0.0
 10
-8.42403937007874
 20
4.157696850393701
 30
0.0
 10
-8.42403937007874
 20
4.157696850393701
 30
0.0
 10
-8.434094488188977
 20
4.143196850393701
 30
0.0
 10
-8.439149606299212
 20
4.116307086614174
 30
0.0
 10
-8.439149606299212
 20
4.077137795275591
 30
0.0
  0
SPLINE
  5
77
330
1F
100
AcDbEntity
  8
Capa 1
 62
   250
100
AcDbSpline
210
0.0
220
0.0
230
1.0
 70
    11
 71
     3
 72
   116
 73
   112
 74
     0
 42
0.0000000001
 43
0.0000000001
 40
0.0
 40
0.0
 40
0.0
 40
0.0
 40
0.0357142857142857
 40
0.0357142857142857
 40
0.0357142857142857
 40
0.0357142857142857
 40
0.0714285714285714
 40
0.0714285714285714
 40
0.0714285714285714
 40
0.0714285714285714
 40
0.1071428571428571
 40
0.1071428571428571
 40
0.1071428571428571
 40
0.1071428571428571
 40
0.1428571428571429
 40
0.1428571428571429
 40
0.1428571428571429
 40
0.1428571428571429
 40
0.1785714285714286
 40
0.1785714285714286
 40
0.1785714285714286
 40
0.1785714285714286
 40
0.2142857142857143
 40
0.2142857142857143
 40
0.2142857142857143
 40
0.2142857142857143
 40
0.2499999999999999
 40
0.2499999999999999
 40
0.2499999999999999
 40
0.2499999999999999
 40
0.2857142857142856
 40
0.2857142857142856
 40
0.2857142857142856
 40
0.2857142857142856
 40
0.3214285714285713
 40
0.3214285714285713
 40
0.3214285714285713
 40
0.3214285714285713
 40
0.357142857142857
 40
0.357142857142857
 40
0.357142857142857
 40
0.357142857142857
 40
0.3928571428571427
 40
0.3928571428571427
 40
0.3928571428571427
 40
0.3928571428571427
 40
0.4285714285714284
 40
0.4285714285714284
 40
0.4285714285714284
 40
0.4285714285714284
 40
0.4642857142857141
 40
0.4642857142857141
 40
0.4642857142857141
 40
0.4642857142857141
 40
0.4999999999999998
 40
0.4999999999999998
 40
0.4999999999999998
 40
0.4999999999999998
 40
0.5357142857142856
 40
0.5357142857142856
 40
0.5357142857142856
 40
0.5357142857142856
 40
0.5714285714285713
 40
0.5714285714285713
 40
0.5714285714285713
 40
0.5714285714285713
 40
0.607142857142857
 40
0.607142857142857
 40
0.607142857142857
 40
0.607142857142857
 40
0.6428571428571427
 40
0.6428571428571427
 40
0.6428571428571427
 40
0.6428571428571427
 40
0.6785714285714284
 40
0.6785714285714284
 40
0.6785714285714284
 40
0.6785714285714284
 40
0.7142857142857141
 40
0.7142857142857141
 40
0.7142857142857141
 40
0.7142857142857141
 40
0.7499999999999998
 40
0.7499999999999998
 40
0.7499999999999998
 40
0.7499999999999998
 40
0.7857142857142855
 40
0.7857142857142855
 40
0.7857142857142855
 40
0.7857142857142855
 40
0.8214285714285712
 40
0.8214285714285712
 40
0.8214285714285712
 40
0.8214285714285712
 40
0.8571428571428569
 40
0.8571428571428569
 40
0.8571428571428569
 40
0.8571428571428569
 40
0.8928571428571426
 40
0.8928571428571426
 40
0.8928571428571426
 40
0.8928571428571426
 40
0.9285714285714283
 40
0.9285714285714283
 40
0.9285714285714283
 40
0.9285714285714283
 40
0.964285714285714
 40
0.964285714285714
 40
0.964285714285714
 40
0.964285714285714
 40
1.0
 40
1.0
 40
1.0
 40
1.0
 10
-8.183094488188976
 20
3.959472440944882
 30
0.0
 10
-8.183094488188976
 20
3.959472440944882
 30
0.0
 10
-8.183094488188976
 20
4.132307086614174
 30
0.0
 10
-8.183094488188976
 20
4.132307086614174
 30
0.0
 10
-8.183094488188976
 20
4.132307086614174
 30
0.0
 10
-8.183094488188976
 20
4.132307086614174
 30
0.0
 10
-8.156929133858268
 20
4.132307086614174
 30
0.0
 10
-8.156929133858268
 20
4.132307086614174
 30
0.0
 10
-8.156929133858268
 20
4.132307086614174
 30
0.0
 10
-8.156929133858268
 20
4.132307086614174
 30
0.0
 10
-8.156929133858268
 20
4.108082677165355
 30
0.0
 10
-8.156929133858268
 20
4.108082677165355
 30
0.0
 10
-8.156929133858268
 20
4.108082677165355
 30
0.0
 10
-8.151484251968505
 20
4.116527559055118
 30
0.0
 10
-8.144259842519686
 20
4.123362204724409
 30
0.0
 10
-8.135259842519686
 20
4.128472440944882
 30
0.0
 10
-8.135259842519686
 20
4.128472440944882
 30
0.0
 10
-8.126259842519685
 20
4.133641732283465
 30
0.0
 10
-8.115984251968504
 20
4.136251968503937
 30
0.0
 10
-8.104484251968504
 20
4.136251968503937
 30
0.0
 10
-8.104484251968504
 20
4.136251968503937
 30
0.0
 10
-8.09170472440945
 20
4.136251968503937
 30
0.0
 10
-8.081204724409449
 20
4.133582677165355
 30
0.0
 10
-8.073039370078741
 20
4.128251968503937
 30
0.0
 10
-8.073039370078741
 20
4.128251968503937
 30
0.0
 10
-8.064814960629922
 20
4.122917322834645
 30
0.0
 10
-8.059039370078741
 20
4.115527559055118
 30
0.0
 10
-8.055704724409448
 20
4.105972440944882
 30
0.0
 10
-8.055704724409448
 20
4.105972440944882
 30
0.0
 10
-8.041984251968504
 20
4.126141732283465
 30
0.0
 10
-8.024204724409449
 20
4.136251968503937
 30
0.0
 10
-8.002314960629922
 20
4.136251968503937
 30
0.0
 10
-8.002314960629922
 20
4.136251968503937
 30
0.0
 10
-7.985149606299213
 20
4.136251968503937
 30
0.0
 10
-7.971984251968504
 20
4.131472440944882
 30
0.0
 10
-7.962759842519685
 20
4.121972440944882
 30
0.0
 10
-7.962759842519685
 20
4.121972440944882
 30
0.0
 10
-7.95353937007874
 20
4.112472440944882
 30
0.0
 10
-7.948925196850394
 20
4.09786220472441
 30
0.0
 10
-7.948925196850394
 20
4.078137795275591
 30
0.0
 10
-7.948925196850394
 20
4.078137795275591
 30
0.0
 10
-7.948925196850394
 20
4.078137795275591
 30
0.0
 10
-7.948925196850394
 20
3.959472440944882
 30
0.0
 10
-7.948925196850394
 20
3.959472440944882
 30
0.0
 10
-7.948925196850394
 20
3.959472440944882
 30
0.0
 10
-7.948925196850394
 20
3.959472440944882
 30
0.0
 10
-7.978039370078741
 20
3.959472440944882
 30
0.0
 10
-7.978039370078741
 20
3.959472440944882
 30
0.0
 10
-7.978039370078741
 20
3.959472440944882
 30
0.0
 10
-7.978039370078741
 20
3.959472440944882
 30
0.0
 10
-7.978039370078741
 20
4.06836220472441
 30
0.0
 10
-7.978039370078741
 20
4.06836220472441
 30
0.0
 10
-7.978039370078741
 20
4.06836220472441
 30
0.0
 10
-7.978039370078741
 20
4.080082677165355
 30
0.0
 10
-7.978984251968504
 20
4.088527559055119
 30
0.0
 10
-7.980870078740158
 20
4.093696850393701
 30
0.0
 10
-7.980870078740158
 20
4.093696850393701
 30
0.0
 10
-7.982814960629922
 20
4.098807086614174
 30
0.0
 10
-7.986259842519686
 20
4.102972440944882
 30
0.0
 10
-7.99120472440945
 20
4.106137795275591
 30
0.0
 10
-7.99120472440945
 20
4.106137795275591
 30
0.0
 10
-7.996204724409449
 20
4.109251968503937
 30
0.0
 10
-8.002094488188977
 20
4.11086220472441
 30
0.0
 10
-8.008814960629922
 20
4.11086220472441
 30
0.0
 10
-8.008814960629922
 20
4.11086220472441
 30
0.0
 10
-8.020984251968505
 20
4.11086220472441
 30
0.0
 10
-8.031039370078741
 20
4.106807086614174
 30
0.0
 10
-8.039094488188976
 20
4.098696850393701
 30
0.0
 10
-8.039094488188976
 20
4.098696850393701
 30
0.0
 10
-8.047094488188977
 20
4.09063779527559
 30
0.0
 10
-8.051149606299212
 20
4.077696850393701
 30
0.0
 10
-8.051149606299212
 20
4.059917322834646
 30
0.0
 10
-8.051149606299212
 20
4.059917322834646
 30
0.0
 10
-8.051149606299212
 20
4.059917322834646
 30
0.0
 10
-8.051149606299212
 20
3.959472440944882
 30
0.0
 10
-8.051149606299212
 20
3.959472440944882
 30
0.0
 10
-8.051149606299212
 20
3.959472440944882
 30
0.0
 10
-8.051149606299212
 20
3.959472440944882
 30
0.0
 10
-8.080429133858267
 20
3.959472440944882
 30
0.0
 10
-8.080429133858267
 20
3.959472440944882
 30
0.0
 10
-8.080429133858267
 20
3.959472440944882
 30
0.0
 10
-8.080429133858267
 20
3.959472440944882
 30
0.0
 10
-8.080429133858267
 20
4.071751968503937
 30
0.0
 10
-8.080429133858267
 20
4.071751968503937
 30
0.0
 10
-8.080429133858267
 20
4.071751968503937
 30
0.0
 10
-8.080429133858267
 20
4.084807086614173
 30
0.0
 10
-8.082814960629921
 20
4.094582677165355
 30
0.0
 10
-8.087594488188977
 20
4.101082677165355
 30
0.0
 10
-8.087594488188977
 20
4.101082677165355
 30
0.0
 10
-8.092370078740158
 20
4.107582677165355
 30
0.0
 10
-8.100149606299214
 20
4.11086220472441
 30
0.0
 10
-8.111039370078741
 20
4.11086220472441
 30
0.0
 10
-8.111039370078741
 20
4.11086220472441
 30
0.0
 10
-8.119259842519686
 20
4.11086220472441
 30
0.0
 10
-8.126870078740158
 20
4.108696850393701
 30
0.0
 10
-8.133870078740157
 20
4.104307086614173
 30
0.0
 10
-8.133870078740157
 20
4.104307086614173
 30
0.0
 10
-8.140870078740157
 20
4.099972440944882
 30
0.0
 10
-8.145984251968505
 20
4.093637795275591
 30
0.0
 10
-8.149094488188977
 20
4.085307086614173
 30
0.0
 10
-8.149094488188977
 20
4.085307086614173
 30
0.0
 10
-8.152259842519685
 20
4.076917322834646
 30
0.0
 10
-8.153814960629921
 20
4.06486220472441
 30
0.0
 10
-8.153814960629921
 20
4.049137795275591
 30
0.0
 10
-8.153814960629921
 20
4.049137795275591
 30
0.0
 10
-8.153814960629921
 20
4.049137795275591
 30
0.0
 10
-8.153814960629921
 20
3.959472440944882
 30
0.0
 10
-8.153814960629921
 20
3.959472440944882
 30
0.0
 10
-8.153814960629921
 20
3.959472440944882
 30
0.0
 10
-8.153814960629921
 20
3.959472440944882
 30
0.0
 10
-8.183094488188976
 20
3.959472440944882
 30
0.0
 10
-8.183094488188976
 20
3.959472440944882
 30
0.0
  0
SPLINE
  5
78
330
1F
100
AcDbEntity
  8
Capa 1
 62
   250
100
AcDbSpline
210
0.0
220
0.0
230
1.0
 70
    11
 71
     3
 72
   116
 73
   112
 74
     0
 42
0.0000000001
 43
0.0000000001
 40
0.0
 40
0.0
 40
0.0
 40
0.0
 40
0.0357142857142857
 40
0.0357142857142857
 40
0.0357142857142857
 40
0.0357142857142857
 40
0.0714285714285714
 40
0.0714285714285714
 40
0.0714285714285714
 40
0.0714285714285714
 40
0.1071428571428571
 40
0.1071428571428571
 40
0.1071428571428571
 40
0.1071428571428571
 40
0.1428571428571429
 40
0.1428571428571429
 40
0.1428571428571429
 40
0.1428571428571429
 40
0.1785714285714286
 40
0.1785714285714286
 40
0.1785714285714286
 40
0.1785714285714286
 40
0.2142857142857143
 40
0.2142857142857143
 40
0.2142857142857143
 40
0.2142857142857143
 40
0.2499999999999999
 40
0.2499999999999999
 40
0.2499999999999999
 40
0.2499999999999999
 40
0.2857142857142856
 40
0.2857142857142856
 40
0.2857142857142856
 40
0.2857142857142856
 40
0.3214285714285713
 40
0.3214285714285713
 40
0.3214285714285713
 40
0.3214285714285713
 40
0.357142857142857
 40
0.357142857142857
 40
0.357142857142857
 40
0.357142857142857
 40
0.3928571428571427
 40
0.3928571428571427
 40
0.3928571428571427
 40
0.3928571428571427
 40
0.4285714285714284
 40
0.4285714285714284
 40
0.4285714285714284
 40
0.4285714285714284
 40
0.4642857142857141
 40
0.4642857142857141
 40
0.4642857142857141
 40
0.4642857142857141
 40
0.4999999999999998
 40
0.4999999999999998
 40
0.4999999999999998
 40
0.4999999999999998
 40
0.5357142857142856
 40
0.5357142857142856
 40
0.5357142857142856
 40
0.5357142857142856
 40
0.5714285714285713
 40
0.5714285714285713
 40
0.5714285714285713
 40
0.5714285714285713
 40
0.607142857142857
 40
0.607142857142857
 40
0.607142857142857
 40
0.607142857142857
 40
0.6428571428571427
 40
0.6428571428571427
 40
0.6428571428571427
 40
0.6428571428571427
 40
0.6785714285714284
 40
0.6785714285714284
 40
0.6785714285714284
 40
0.6785714285714284
 40
0.7142857142857141
 40
0.7142857142857141
 40
0.7142857142857141
 40
0.7142857142857141
 40
0.7499999999999998
 40
0.7499999999999998
 40
0.7499999999999998
 40
0.7499999999999998
 40
0.7857142857142855
 40
0.7857142857142855
 40
0.7857142857142855
 40
0.7857142857142855
 40
0.8214285714285712
 40
0.8214285714285712
 40
0.8214285714285712
 40
0.8214285714285712
 40
0.8571428571428569
 40
0.8571428571428569
 40
0.8571428571428569
 40
0.8571428571428569
 40
0.8928571428571426
 40
0.8928571428571426
 40
0.8928571428571426
 40
0.8928571428571426
 40
0.9285714285714283
 40
0.9285714285714283
 40
0.9285714285714283
 40
0.9285714285714283
 40
0.964285714285714
 40
0.964285714285714
 40
0.964285714285714
 40
0.964285714285714
 40
1.0
 40
1.0
 40
1.0
 40
1.0
 10
-7.905425196850394
 20
3.959472440944882
 30
0.0
 10
-7.905425196850394
 20
3.959472440944882
 30
0.0
 10
-7.905425196850394
 20
4.132307086614174
 30
0.0
 10
-7.905425196850394
 20
4.132307086614174
 30
0.0
 10
-7.905425196850394
 20
4.132307086614174
 30
0.0
 10
-7.905425196850394
 20
4.132307086614174
 30
0.0
 10
-7.879259842519685
 20
4.132307086614174
 30
0.0
 10
-7.879259842519685
 20
4.132307086614174
 30
0.0
 10
-7.879259842519685
 20
4.132307086614174
 30
0.0
 10
-7.879259842519685
 20
4.132307086614174
 30
0.0
 10
-7.879259842519685
 20
4.108082677165355
 30
0.0
 10
-7.879259842519685
 20
4.108082677165355
 30
0.0
 10
-7.879259842519685
 20
4.108082677165355
 30
0.0
 10
-7.873814960629922
 20
4.116527559055118
 30
0.0
 10
-7.866590551181103
 20
4.123362204724409
 30
0.0
 10
-7.857590551181103
 20
4.128472440944882
 30
0.0
 10
-7.857590551181103
 20
4.128472440944882
 30
0.0
 10
-7.848590551181102
 20
4.133641732283465
 30
0.0
 10
-7.838314960629922
 20
4.136251968503937
 30
0.0
 10
-7.826814960629922
 20
4.136251968503937
 30
0.0
 10
-7.826814960629922
 20
4.136251968503937
 30
0.0
 10
-7.814035433070867
 20
4.136251968503937
 30
0.0
 10
-7.803535433070866
 20
4.133582677165355
 30
0.0
 10
-7.795370078740158
 20
4.128251968503937
 30
0.0
 10
-7.795370078740158
 20
4.128251968503937
 30
0.0
 10
-7.787145669291339
 20
4.122917322834645
 30
0.0
 10
-7.781370078740157
 20
4.115527559055118
 30
0.0
 10
-7.778035433070866
 20
4.105972440944882
 30
0.0
 10
-7.778035433070866
 20
4.105972440944882
 30
0.0
 10
-7.764314960629922
 20
4.126141732283465
 30
0.0
 10
-7.746535433070866
 20
4.136251968503937
 30
0.0
 10
-7.724645669291339
 20
4.136251968503937
 30
0.0
 10
-7.724645669291339
 20
4.136251968503937
 30
0.0
 10
-7.70748031496063
 20
4.136251968503937
 30
0.0
 10
-7.694314960629922
 20
4.131472440944882
 30
0.0
 10
-7.685090551181102
 20
4.121972440944882
 30
0.0
 10
-7.685090551181102
 20
4.121972440944882
 30
0.0
 10
-7.675870078740158
 20
4.112472440944882
 30
0.0
 10
-7.671255905511812
 20
4.09786220472441
 30
0.0
 10
-7.671255905511812
 20
4.078137795275591
 30
0.0
 10
-7.671255905511812
 20
4.078137795275591
 30
0.0
 10
-7.671255905511812
 20
4.078137795275591
 30
0.0
 10
-7.671255905511812
 20
3.959472440944882
 30
0.0
 10
-7.671255905511812
 20
3.959472440944882
 30
0.0
 10
-7.671255905511812
 20
3.959472440944882
 30
0.0
 10
-7.671255905511812
 20
3.959472440944882
 30
0.0
 10
-7.700370078740158
 20
3.959472440944882
 30
0.0
 10
-7.700370078740158
 20
3.959472440944882
 30
0.0
 10
-7.700370078740158
 20
3.959472440944882
 30
0.0
 10
-7.700370078740158
 20
3.959472440944882
 30
0.0
 10
-7.700370078740158
 20
4.06836220472441
 30
0.0
 10
-7.700370078740158
 20
4.06836220472441
 30
0.0
 10
-7.700370078740158
 20
4.06836220472441
 30
0.0
 10
-7.700370078740158
 20
4.080082677165355
 30
0.0
 10
-7.701314960629921
 20
4.088527559055119
 30
0.0
 10
-7.703200787401575
 20
4.093696850393701
 30
0.0
 10
-7.703200787401575
 20
4.093696850393701
 30
0.0
 10
-7.705145669291339
 20
4.098807086614174
 30
0.0
 10
-7.708590551181103
 20
4.102972440944882
 30
0.0
 10
-7.713535433070867
 20
4.106137795275591
 30
0.0
 10
-7.713535433070867
 20
4.106137795275591
 30
0.0
 10
-7.718535433070866
 20
4.109251968503937
 30
0.0
 10
-7.724425196850394
 20
4.11086220472441
 30
0.0
 10
-7.731145669291339
 20
4.11086220472441
 30
0.0
 10
-7.731145669291339
 20
4.11086220472441
 30
0.0
 10
-7.743314960629921
 20
4.11086220472441
 30
0.0
 10
-7.753370078740158
 20
4.106807086614174
 30
0.0
 10
-7.761425196850394
 20
4.098696850393701
 30
0.0
 10
-7.761425196850394
 20
4.098696850393701
 30
0.0
 10
-7.769425196850394
 20
4.09063779527559
 30
0.0
 10
-7.77348031496063
 20
4.077696850393701
 30
0.0
 10
-7.77348031496063
 20
4.059917322834646
 30
0.0
 10
-7.77348031496063
 20
4.059917322834646
 30
0.0
 10
-7.77348031496063
 20
4.059917322834646
 30
0.0
 10
-7.77348031496063
 20
3.959472440944882
 30
0.0
 10
-7.77348031496063
 20
3.959472440944882
 30
0.0
 10
-7.77348031496063
 20
3.959472440944882
 30
0.0
 10
-7.77348031496063
 20
3.959472440944882
 30
0.0
 10
-7.802759842519685
 20
3.959472440944882
 30
0.0
 10
-7.802759842519685
 20
3.959472440944882
 30
0.0
 10
-7.802759842519685
 20
3.959472440944882
 30
0.0
 10
-7.802759842519685
 20
3.959472440944882
 30
0.0
 10
-7.802759842519685
 20
4.071751968503937
 30
0.0
 10
-7.802759842519685
 20
4.071751968503937
 30
0.0
 10
-7.802759842519685
 20
4.071751968503937
 30
0.0
 10
-7.802759842519685
 20
4.084807086614173
 30
0.0
 10
-7.805145669291339
 20
4.094582677165355
 30
0.0
 10
-7.809925196850394
 20
4.101082677165355
 30
0.0
 10
-7.809925196850394
 20
4.101082677165355
 30
0.0
 10
-7.814700787401575
 20
4.107582677165355
 30
0.0
 10
-7.822480314960631
 20
4.11086220472441
 30
0.0
 10
-7.833370078740158
 20
4.11086220472441
 30
0.0
 10
-7.833370078740158
 20
4.11086220472441
 30
0.0
 10
-7.841590551181103
 20
4.11086220472441
 30
0.0
 10
-7.849200787401575
 20
4.108696850393701
 30
0.0
 10
-7.856200787401575
 20
4.104307086614173
 30
0.0
 10
-7.856200787401575
 20
4.104307086614173
 30
0.0
 10
-7.863200787401575
 20
4.099972440944882
 30
0.0
 10
-7.868314960629921
 20
4.093637795275591
 30
0.0
 10
-7.871425196850394
 20
4.085307086614173
 30
0.0
 10
-7.871425196850394
 20
4.085307086614173
 30
0.0
 10
-7.874590551181103
 20
4.076917322834646
 30
0.0
 10
-7.876145669291339
 20
4.06486220472441
 30
0.0
 10
-7.876145669291339
 20
4.049137795275591
 30
0.0
 10
-7.876145669291339
 20
4.049137795275591
 30
0.0
 10
-7.876145669291339
 20
4.049137795275591
 30
0.0
 10
-7.876145669291339
 20
3.959472440944882
 30
0.0
 10
-7.876145669291339
 20
3.959472440944882
 30
0.0
 10
-7.876145669291339
 20
3.959472440944882
 30
0.0
 10
-7.876145669291339
 20
3.959472440944882
 30
0.0
 10
-7.905425196850394
 20
3.959472440944882
 30
0.0
 10
-7.905425196850394
 20
3.959472440944882
 30
0.0
  0
SPLINE
  5
79
330
1F
100
AcDbEntity
  8
Capa 1
 62
   250
370
     5
100
AcDbSpline
210
0.0
220
0.0
230
1.0
 70
    24
 71
     3
 72
     8
 73
     4
 74
     0
 42
0.0000000001
 43
0.0000000001
 40
0.0
 40
0.0
 40
0.0
 40
0.0
 40
1.0
 40
1.0
 40
1.0
 40
1.0
 10
6.005511811023622
 20
2.185031496062992
 30
0.0
 10
6.005511811023622
 20
2.185031496062992
 30
0.0
 10
8.900389763779527
 20
2.185031496062992
 30
0.0
 10
8.900389763779527
 20
2.185031496062992
 30
0.0
  0
SPLINE
  5
7A
330
1F
100
AcDbEntity
  8
Capa 1
 62
   250
370
     5
100
AcDbSpline
210
0.0
220
0.0
230
1.0
 70
    24
 71
     3
 72
     8
 73
     4
 74
     0
 42
0.0000000001
 43
0.0000000001
 40
0.0
 40
0.0
 40
0.0
 40
0.0
 40
1.0
 40
1.0
 40
1.0
 40
1.0
 10
6.084251968503938
 20
-2.185043307086614
 30
0.0
 10
6.084251968503938
 20
-2.185043307086614
 30
0.0
 10
8.900389763779527
 20
-2.185043307086614
 30
0.0
 10
8.900389763779527
 20
-2.185043307086614
 30
0.0
  0
SPLINE
  5
7B
330
1F
100
AcDbEntity
  8
Capa 1
 62
   250
370
     5
100
AcDbSpline
210
0.0
220
0.0
230
1.0
 70
    24
 71
     3
 72
     8
 73
     4
 74
     0
 42
0.0000000001
 43
0.0000000001
 40
0.0
 40
0.0
 40
0.0
 40
0.0
 40
1.0
 40
1.0
 40
1.0
 40
1.0
 10
8.700389763779528
 20
2.185031496062992
 30
0.0
 10
8.700389763779528
 20
2.185031496062992
 30
0.0
 10
8.700389763779528
 20
1.071972440944882
 30
0.0
 10
8.700389763779528
 20
1.071972440944882
 30
0.0
  0
SPLINE
  5
7C
330
1F
100
AcDbEntity
  8
Capa 1
 62
   250
370
     5
100
AcDbSpline
210
0.0
220
0.0
230
1.0
 70
    24
 71
     3
 72
     8
 73
     4
 74
     0
 42
0.0000000001
 43
0.0000000001
 40
0.0
 40
0.0
 40
0.0
 40
0.0
 40
1.0
 40
1.0
 40
1.0
 40
1.0
 10
8.700389763779528
 20
-1.024594488188976
 30
0.0
 10
8.700389763779528
 20
-1.024594488188976
 30
0.0
 10
8.700389763779528
 20
-2.185043307086614
 30
0.0
 10
8.700389763779528
 20
-2.185043307086614
 30
0.0
  0
SPLINE
  5
7D
330
1F
100
AcDbEntity
  8
Capa 1
 62
   250
100
AcDbSpline
210
0.0
220
0.0
230
1.0
 70
    11
 71
     3
 72
    40
 73
    36
 74
     0
 42
0.0000000001
 43
0.0000000001
 40
0.0
 40
0.0
 40
0.0
 40
0.0
 40
0.1111111111111111
 40
0.1111111111111111
 40
0.1111111111111111
 40
0.1111111111111111
 40
0.2222222222222222
 40
0.2222222222222222
 40
0.2222222222222222
 40
0.2222222222222222
 40
0.3333333333333333
 40
0.3333333333333333
 40
0.3333333333333333
 40
0.3333333333333333
 40
0.4444444444444444
 40
0.4444444444444444
 40
0.4444444444444444
 40
0.4444444444444444
 40
0.5555555555555556
 40
0.5555555555555556
 40
0.5555555555555556
 40
0.5555555555555556
 40
0.6666666666666667
 40
0.6666666666666667
 40
0.6666666666666667
 40
0.6666666666666667
 40
0.7777777777777779
 40
0.7777777777777779
 40
0.7777777777777779
 40
0.7777777777777779
 40
0.8888888888888891
 40
0.8888888888888891
 40
0.8888888888888891
 40
0.8888888888888891
 40
1.0
 40
1.0
 40
1.0
 40
1.0
 10
8.818169291338583
 20
-0.6504291338582677
 30
0.0
 10
8.818169291338583
 20
-0.6504291338582677
 30
0.0
 10
8.818169291338583
 20
-0.6797047244094489
 30
0.0
 10
8.818169291338583
 20
-0.6797047244094489
 30
0.0
 10
8.818169291338583
 20
-0.6797047244094489
 30
0.0
 10
8.818169291338583
 20
-0.6797047244094489
 30
0.0
 10
8.631500000000001
 20
-0.6797047244094489
 30
0.0
 10
8.631500000000001
 20
-0.6797047244094489
 30
0.0
 10
8.631500000000001
 20
-0.6797047244094489
 30
0.0
 10
8.638224409448819
 20
-0.686759842519685
 30
0.0
 10
8.644944881889764
 20
-0.695984251968504
 30
0.0
 10
8.651669291338584
 20
-0.7074291338582678
 30
0.0
 10
8.651669291338584
 20
-0.7074291338582678
 30
0.0
 10
8.658389763779528
 20
-0.7189291338582677
 30
0.0
 10
8.663444881889765
 20
-0.7292047244094488
 30
0.0
 10
8.666779527559056
 20
-0.7383149606299213
 30
0.0
 10
8.666779527559056
 20
-0.7383149606299213
 30
0.0
 10
8.666779527559056
 20
-0.7383149606299213
 30
0.0
 10
8.638500000000001
 20
-0.7383149606299213
 30
0.0
 10
8.638500000000001
 20
-0.7383149606299213
 30
0.0
 10
8.638500000000001
 20
-0.7383149606299213
 30
0.0
 10
8.630779527559055
 20
-0.7219291338582677
 30
0.0
 10
8.621444881889763
 20
-0.7075944881889764
 30
0.0
 10
8.6105
 20
-0.6953149606299213
 30
0.0
 10
8.6105
 20
-0.6953149606299213
 30
0.0
 10
8.599500000000001
 20
-0.6830944881889765
 30
0.0
 10
8.588889763779529
 20
-0.6743700787401575
 30
0.0
 10
8.578614173228347
 20
-0.6692598425196851
 30
0.0
 10
8.578614173228347
 20
-0.6692598425196851
 30
0.0
 10
8.578614173228347
 20
-0.6692598425196851
 30
0.0
 10
8.578614173228347
 20
-0.6504291338582677
 30
0.0
 10
8.578614173228347
 20
-0.6504291338582677
 30
0.0
 10
8.578614173228347
 20
-0.6504291338582677
 30
0.0
 10
8.578614173228347
 20
-0.6504291338582677
 30
0.0
 10
8.818169291338583
 20
-0.6504291338582677
 30
0.0
 10
8.818169291338583
 20
-0.6504291338582677
 30
0.0
  0
SPLINE
  5
7E
330
1F
100
AcDbEntity
  8
Capa 1
 62
   250
100
AcDbSpline
210
0.0
220
0.0
230
1.0
 70
    11
 71
     3
 72
    40
 73
    36
 74
     0
 42
0.0000000001
 43
0.0000000001
 40
0.0
 40
0.0
 40
0.0
 40
0.0
 40
0.1111111111111111
 40
0.1111111111111111
 40
0.1111111111111111
 40
0.1111111111111111
 40
0.2222222222222222
 40
0.2222222222222222
 40
0.2222222222222222
 40
0.2222222222222222
 40
0.3333333333333333
 40
0.3333333333333333
 40
0.3333333333333333
 40
0.3333333333333333
 40
0.4444444444444444
 40
0.4444444444444444
 40
0.4444444444444444
 40
0.4444444444444444
 40
0.5555555555555556
 40
0.5555555555555556
 40
0.5555555555555556
 40
0.5555555555555556
 40
0.6666666666666667
 40
0.6666666666666667
 40
0.6666666666666667
 40
0.6666666666666667
 40
0.7777777777777779
 40
0.7777777777777779
 40
0.7777777777777779
 40
0.7777777777777779
 40
0.8888888888888891
 40
0.8888888888888891
 40
0.8888888888888891
 40
0.8888888888888891
 40
1.0
 40
1.0
 40
1.0
 40
1.0
 10
8.818169291338583
 20
-0.4897598425196851
 30
0.0
 10
8.818169291338583
 20
-0.4897598425196851
 30
0.0
 10
8.818169291338583
 20
-0.5190354330708662
 30
0.0
 10
8.818169291338583
 20
-0.5190354330708662
 30
0.0
 10
8.818169291338583
 20
-0.5190354330708662
 30
0.0
 10
8.818169291338583
 20
-0.5190354330708662
 30
0.0
 10
8.631500000000001
 20
-0.5190354330708662
 30
0.0
 10
8.631500000000001
 20
-0.5190354330708662
 30
0.0
 10
8.631500000000001
 20
-0.5190354330708662
 30
0.0
 10
8.638224409448819
 20
-0.5260905511811024
 30
0.0
 10
8.644944881889764
 20
-0.5353149606299212
 30
0.0
 10
8.651669291338584
 20
-0.546759842519685
 30
0.0
 10
8.651669291338584
 20
-0.546759842519685
 30
0.0
 10
8.658389763779528
 20
-0.5582598425196851
 30
0.0
 10
8.663444881889765
 20
-0.5685354330708662
 30
0.0
 10
8.666779527559056
 20
-0.5776456692913387
 30
0.0
 10
8.666779527559056
 20
-0.5776456692913387
 30
0.0
 10
8.666779527559056
 20
-0.5776456692913387
 30
0.0
 10
8.638500000000001
 20
-0.5776456692913387
 30
0.0
 10
8.638500000000001
 20
-0.5776456692913387
 30
0.0
 10
8.638500000000001
 20
-0.5776456692913387
 30
0.0
 10
8.630779527559055
 20
-0.5612598425196851
 30
0.0
 10
8.621444881889763
 20
-0.5469251968503938
 30
0.0
 10
8.6105
 20
-0.5346456692913386
 30
0.0
 10
8.6105
 20
-0.5346456692913386
 30
0.0
 10
8.599500000000001
 20
-0.5224251968503937
 30
0.0
 10
8.588889763779529
 20
-0.5137007874015749
 30
0.0
 10
8.578614173228347
 20
-0.5085905511811024
 30
0.0
 10
8.578614173228347
 20
-0.5085905511811024
 30
0.0
 10
8.578614173228347
 20
-0.5085905511811024
 30
0.0
 10
8.578614173228347
 20
-0.4897598425196851
 30
0.0
 10
8.578614173228347
 20
-0.4897598425196851
 30
0.0
 10
8.578614173228347
 20
-0.4897598425196851
 30
0.0
 10
8.578614173228347
 20
-0.4897598425196851
 30
0.0
 10
8.818169291338583
 20
-0.4897598425196851
 30
0.0
 10
8.818169291338583
 20
-0.4897598425196851
 30
0.0
  0
SPLINE
  5
7F
330
1F
100
AcDbEntity
  8
Capa 1
 62
   250
100
AcDbSpline
210
0.0
220
0.0
230
1.0
 70
    11
 71
     3
 72
    40
 73
    36
 74
     0
 42
0.0000000001
 43
0.0000000001
 40
0.0
 40
0.0
 40
0.0
 40
0.0
 40
0.1111111111111111
 40
0.1111111111111111
 40
0.1111111111111111
 40
0.1111111111111111
 40
0.2222222222222222
 40
0.2222222222222222
 40
0.2222222222222222
 40
0.2222222222222222
 40
0.3333333333333333
 40
0.3333333333333333
 40
0.3333333333333333
 40
0.3333333333333333
 40
0.4444444444444444
 40
0.4444444444444444
 40
0.4444444444444444
 40
0.4444444444444444
 40
0.5555555555555556
 40
0.5555555555555556
 40
0.5555555555555556
 40
0.5555555555555556
 40
0.6666666666666667
 40
0.6666666666666667
 40
0.6666666666666667
 40
0.6666666666666667
 40
0.7777777777777779
 40
0.7777777777777779
 40
0.7777777777777779
 40
0.7777777777777779
 40
0.8888888888888891
 40
0.8888888888888891
 40
0.8888888888888891
 40
0.8888888888888891
 40
1.0
 40
1.0
 40
1.0
 40
1.0
 10
8.818169291338583
 20
-0.3290905511811024
 30
0.0
 10
8.818169291338583
 20
-0.3290905511811024
 30
0.0
 10
8.818169291338583
 20
-0.3583661417322835
 30
0.0
 10
8.818169291338583
 20
-0.3583661417322835
 30
0.0
 10
8.818169291338583
 20
-0.3583661417322835
 30
0.0
 10
8.818169291338583
 20
-0.3583661417322835
 30
0.0
 10
8.631500000000001
 20
-0.3583661417322835
 30
0.0
 10
8.631500000000001
 20
-0.3583661417322835
 30
0.0
 10
8.631500000000001
 20
-0.3583661417322835
 30
0.0
 10
8.638224409448819
 20
-0.3654212598425197
 30
0.0
 10
8.644944881889764
 20
-0.3746456692913386
 30
0.0
 10
8.651669291338584
 20
-0.3860905511811024
 30
0.0
 10
8.651669291338584
 20
-0.3860905511811024
 30
0.0
 10
8.658389763779528
 20
-0.3975905511811024
 30
0.0
 10
8.663444881889765
 20
-0.4078661417322835
 30
0.0
 10
8.666779527559056
 20
-0.4169763779527559
 30
0.0
 10
8.666779527559056
 20
-0.4169763779527559
 30
0.0
 10
8.666779527559056
 20
-0.4169763779527559
 30
0.0
 10
8.638500000000001
 20
-0.4169763779527559
 30
0.0
 10
8.638500000000001
 20
-0.4169763779527559
 30
0.0
 10
8.638500000000001
 20
-0.4169763779527559
 30
0.0
 10
8.630779527559055
 20
-0.4005905511811024
 30
0.0
 10
8.621444881889763
 20
-0.3862559055118111
 30
0.0
 10
8.6105
 20
-0.3739763779527559
 30
0.0
 10
8.6105
 20
-0.3739763779527559
 30
0.0
 10
8.599500000000001
 20
-0.361755905511811
 30
0.0
 10
8.588889763779529
 20
-0.3530314960629921
 30
0.0
 10
8.578614173228347
 20
-0.3479212598425197
 30
0.0
 10
8.578614173228347
 20
-0.3479212598425197
 30
0.0
 10
8.578614173228347
 20
-0.3479212598425197
 30
0.0
 10
8.578614173228347
 20
-0.3290905511811024
 30
0.0
 10
8.578614173228347
 20
-0.3290905511811024
 30
0.0
 10
8.578614173228347
 20
-0.3290905511811024
 30
0.0
 10
8.578614173228347
 20
-0.3290905511811024
 30
0.0
 10
8.818169291338583
 20
-0.3290905511811024
 30
0.0
 10
8.818169291338583
 20
-0.3290905511811024
 30
0.0
  0
SPLINE
  5
80
330
1F
100
AcDbEntity
  8
Capa 1
 62
   250
100
AcDbSpline
210
0.0
220
0.0
230
1.0
 70
    11
 71
     3
 72
    20
 73
    16
 74
     0
 42
0.0000000001
 43
0.0000000001
 40
0.0
 40
0.0
 40
0.0
 40
0.0
 40
0.25
 40
0.25
 40
0.25
 40
0.25
 40
0.5
 40
0.5
 40
0.5
 40
0.5
 40
0.75
 40
0.75
 40
0.75
 40
0.75
 40
1.0
 40
1.0
 40
1.0
 40
1.0
 10
8.818169291338583
 20
-0.2375866141732284
 30
0.0
 10
8.818169291338583
 20
-0.2375866141732284
 30
0.0
 10
8.784779527559056
 20
-0.2375866141732284
 30
0.0
 10
8.784779527559056
 20
-0.2375866141732284
 30
0.0
 10
8.784779527559056
 20
-0.2375866141732284
 30
0.0
 10
8.784779527559056
 20
-0.2375866141732284
 30
0.0
 10
8.784779527559056
 20
-0.2042007874015748
 30
0.0
 10
8.784779527559056
 20
-0.2042007874015748
 30
0.0
 10
8.784779527559056
 20
-0.2042007874015748
 30
0.0
 10
8.784779527559056
 20
-0.2042007874015748
 30
0.0
 10
8.818169291338583
 20
-0.2042007874015748
 30
0.0
 10
8.818169291338583
 20
-0.2042007874015748
 30
0.0
 10
8.818169291338583
 20
-0.2042007874015748
 30
0.0
 10
8.818169291338583
 20
-0.2042007874015748
 30
0.0
 10
8.818169291338583
 20
-0.2375866141732284
 30
0.0
 10
8.818169291338583
 20
-0.2375866141732284
 30
0.0
  0
SPLINE
  5
81
330
1F
100
AcDbEntity
  8
Capa 1
 62
   250
100
AcDbSpline
210
0.0
220
0.0
230
1.0
 70
    11
 71
     3
 72
    52
 73
    48
 74
     0
 42
0.0000000001
 43
0.0000000001
 40
0.0
 40
0.0
 40
0.0
 40
0.0
 40
0.0833333333333333
 40
0.0833333333333333
 40
0.0833333333333333
 40
0.0833333333333333
 40
0.1666666666666667
 40
0.1666666666666667
 40
0.1666666666666667
 40
0.1666666666666667
 40
0.25
 40
0.25
 40
0.25
 40
0.25
 40
0.3333333333333333
 40
0.3333333333333333
 40
0.3333333333333333
 40
0.3333333333333333
 40
0.4166666666666666
 40
0.4166666666666666
 40
0.4166666666666666
 40
0.4166666666666666
 40
0.4999999999999999
 40
0.4999999999999999
 40
0.4999999999999999
 40
0.4999999999999999
 40
0.5833333333333333
 40
0.5833333333333333
 40
0.5833333333333333
 40
0.5833333333333333
 40
0.6666666666666666
 40
0.6666666666666666
 40
0.6666666666666666
 40
0.6666666666666666
 40
0.75
 40
0.75
 40
0.75
 40
0.75
 40
0.8333333333333334
 40
0.8333333333333334
 40
0.8333333333333334
 40
0.8333333333333334
 40
0.9166666666666667
 40
0.9166666666666667
 40
0.9166666666666667
 40
0.9166666666666667
 40
1.0
 40
1.0
 40
1.0
 40
1.0
 10
8.700503937007875
 20
-0.1614212598425197
 30
0.0
 10
8.672279527559056
 20
-0.1614212598425197
 30
0.0
 10
8.649559055118111
 20
-0.1585354330708662
 30
0.0
 10
8.632389763779528
 20
-0.1527007874015748
 30
0.0
 10
8.632389763779528
 20
-0.1527007874015748
 30
0.0
 10
8.615169291338583
 20
-0.1469212598425197
 30
0.0
 10
8.601889763779528
 20
-0.138255905511811
 30
0.0
 10
8.592559055118111
 20
-0.1268110236220472
 30
0.0
 10
8.592559055118111
 20
-0.1268110236220472
 30
0.0
 10
8.583224409448819
 20
-0.1153661417322835
 30
0.0
 10
8.578614173228347
 20
-0.1009763779527559
 30
0.0
 10
8.578614173228347
 20
-0.0836456692913386
 30
0.0
 10
8.578614173228347
 20
-0.0836456692913386
 30
0.0
 10
8.578614173228347
 20
-0.0708110236220472
 30
0.0
 10
8.581169291338583
 20
-0.0595905511811024
 30
0.0
 10
8.586334645669291
 20
-0.0499212598425197
 30
0.0
 10
8.586334645669291
 20
-0.0499212598425197
 30
0.0
 10
8.591444881889764
 20
-0.040255905511811
 30
0.0
 10
8.598889763779528
 20
-0.0323110236220472
 30
0.0
 10
8.608614173228347
 20
-0.0259763779527559
 30
0.0
 10
8.608614173228347
 20
-0.0259763779527559
 30
0.0
 10
8.618334645669291
 20
-0.0197007874015748
 30
0.0
 10
8.630169291338582
 20
-0.014755905511811
 30
0.0
 10
8.644114173228347
 20
-0.0112007874015748
 30
0.0
 10
8.644114173228347
 20
-0.0112007874015748
 30
0.0
 10
8.658059055118111
 20
-0.0075866141732283
 30
0.0
 10
8.676834645669292
 20
-0.0058110236220472
 30
0.0
 10
8.700503937007875
 20
-0.0058110236220472
 30
0.0
 10
8.700503937007875
 20
-0.0058110236220472
 30
0.0
 10
8.728503937007874
 20
-0.0058110236220472
 30
0.0
 10
8.751059055118111
 20
-0.0087007874015748
 30
0.0
 10
8.768279527559056
 20
-0.0144212598425197
 30
0.0
 10
8.768279527559056
 20
-0.0144212598425197
 30
0.0
 10
8.785503937007874
 20
-0.0202007874015748
 30
0.0
 10
8.798779527559056
 20
-0.0288110236220472
 30
0.0
 10
8.808169291338583
 20
-0.040255905511811
 30
0.0
 10
8.808169291338583
 20
-0.040255905511811
 30
0.0
 10
8.81755905511811
 20
-0.0517007874015748
 30
0.0
 10
8.82222440944882
 20
-0.0661456692913386
 30
0.0
 10
8.82222440944882
 20
-0.0836456692913386
 30
0.0
 10
8.82222440944882
 20
-0.0836456692913386
 30
0.0
 10
8.82222440944882
 20
-0.1066456692913386
 30
0.0
 10
8.814003937007874
 20
-0.1247007874015748
 30
0.0
 10
8.797503937007875
 20
-0.1378110236220473
 30
0.0
 10
8.797503937007875
 20
-0.1378110236220473
 30
0.0
 10
8.777669291338583
 20
-0.1535354330708662
 30
0.0
 10
8.745279527559056
 20
-0.1614212598425197
 30
0.0
 10
8.700503937007875
 20
-0.1614212598425197
 30
0.0
  0
SPLINE
  5
82
330
1F
100
AcDbEntity
  8
Capa 1
 62
   250
100
AcDbSpline
210
0.0
220
0.0
230
1.0
 70
    11
 71
     3
 72
    36
 73
    32
 74
     0
 42
0.0000000001
 43
0.0000000001
 40
0.0
 40
0.0
 40
0.0
 40
0.0
 40
0.125
 40
0.125
 40
0.125
 40
0.125
 40
0.25
 40
0.25
 40
0.25
 40
0.25
 40
0.375
 40
0.375
 40
0.375
 40
0.375
 40
0.5
 40
0.5
 40
0.5
 40
0.5
 40
0.625
 40
0.625
 40
0.625
 40
0.625
 40
0.75
 40
0.75
 40
0.75
 40
0.75
 40
0.875
 40
0.875
 40
0.875
 40
0.875
 40
1.0
 40
1.0
 40
1.0
 40
1.0
 10
8.700503937007875
 20
-0.1313110236220473
 30
0.0
 10
8.739669291338583
 20
-0.1313110236220473
 30
0.0
 10
8.765724409448819
 20
-0.1267007874015748
 30
0.0
 10
8.778724409448818
 20
-0.1175314960629921
 30
0.0
 10
8.778724409448818
 20
-0.1175314960629921
 30
0.0
 10
8.791669291338582
 20
-0.1083661417322835
 30
0.0
 10
8.798169291338583
 20
-0.0970905511811024
 30
0.0
 10
8.798169291338583
 20
-0.0836456692913386
 30
0.0
 10
8.798169291338583
 20
-0.0836456692913386
 30
0.0
 10
8.798169291338583
 20
-0.0701456692913386
 30
0.0
 10
8.791614173228346
 20
-0.0588661417322835
 30
0.0
 10
8.778614173228347
 20
-0.0497007874015748
 30
0.0
 10
8.778614173228347
 20
-0.0497007874015748
 30
0.0
 10
8.765614173228347
 20
-0.0405314960629921
 30
0.0
 10
8.739559055118111
 20
-0.0359212598425197
 30
0.0
 10
8.700503937007875
 20
-0.0359212598425197
 30
0.0
 10
8.700503937007875
 20
-0.0359212598425197
 30
0.0
 10
8.661224409448819
 20
-0.0359212598425197
 30
0.0
 10
8.635114173228347
 20
-0.0405314960629921
 30
0.0
 10
8.622224409448819
 20
-0.0497007874015748
 30
0.0
 10
8.622224409448819
 20
-0.0497007874015748
 30
0.0
 10
8.609279527559055
 20
-0.0588661417322835
 30
0.0
 10
8.602834645669292
 20
-0.070255905511811
 30
0.0
 10
8.602834645669292
 20
-0.0839212598425197
 30
0.0
 10
8.602834645669292
 20
-0.0839212598425197
 30
0.0
 10
8.602834645669292
 20
-0.0974212598425197
 30
0.0
 10
8.608559055118111
 20
-0.1081456692913386
 30
0.0
 10
8.619944881889763
 20
-0.1162007874015748
 30
0.0
 10
8.619944881889763
 20
-0.1162007874015748
 30
0.0
 10
8.634444881889763
 20
-0.126255905511811
 30
0.0
 10
8.661334645669292
 20
-0.1313110236220473
 30
0.0
 10
8.700503937007875
 20
-0.1313110236220473
 30
0.0
  0
SPLINE
  5
83
330
1F
100
AcDbEntity
  8
Capa 1
 62
   250
100
AcDbSpline
210
0.0
220
0.0
230
1.0
 70
    11
 71
     3
 72
    52
 73
    48
 74
     0
 42
0.0000000001
 43
0.0000000001
 40
0.0
 40
0.0
 40
0.0
 40
0.0
 40
0.0833333333333333
 40
0.0833333333333333
 40
0.0833333333333333
 40
0.0833333333333333
 40
0.1666666666666667
 40
0.1666666666666667
 40
0.1666666666666667
 40
0.1666666666666667
 40
0.25
 40
0.25
 40
0.25
 40
0.25
 40
0.3333333333333333
 40
0.3333333333333333
 40
0.3333333333333333
 40
0.3333333333333333
 40
0.4166666666666666
 40
0.4166666666666666
 40
0.4166666666666666
 40
0.4166666666666666
 40
0.4999999999999999
 40
0.4999999999999999
 40
0.4999999999999999
 40
0.4999999999999999
 40
0.5833333333333333
 40
0.5833333333333333
 40
0.5833333333333333
 40
0.5833333333333333
 40
0.6666666666666666
 40
0.6666666666666666
 40
0.6666666666666666
 40
0.6666666666666666
 40
0.75
 40
0.75
 40
0.75
 40
0.75
 40
0.8333333333333334
 40
0.8333333333333334
 40
0.8333333333333334
 40
0.8333333333333334
 40
0.9166666666666667
 40
0.9166666666666667
 40
0.9166666666666667
 40
0.9166666666666667
 40
1.0
 40
1.0
 40
1.0
 40
1.0
 10
8.700503937007875
 20
0.0239685039370079
 30
0.0
 10
8.672279527559056
 20
0.0239685039370079
 30
0.0
 10
8.649559055118111
 20
0.0268543307086614
 30
0.0
 10
8.632389763779528
 20
0.0326889763779528
 30
0.0
 10
8.632389763779528
 20
0.0326889763779528
 30
0.0
 10
8.615169291338583
 20
0.0384685039370079
 30
0.0
 10
8.601889763779528
 20
0.0471338582677165
 30
0.0
 10
8.592559055118111
 20
0.0585787401574803
 30
0.0
 10
8.592559055118111
 20
0.0585787401574803
 30
0.0
 10
8.583224409448819
 20
0.0700236220472441
 30
0.0
 10
8.578614173228347
 20
0.0844133858267717
 30
0.0
 10
8.578614173228347
 20
0.101744094488189
 30
0.0
 10
8.578614173228347
 20
0.101744094488189
 30
0.0
 10
8.578614173228347
 20
0.1145787401574803
 30
0.0
 10
8.581169291338583
 20
0.1257992125984252
 30
0.0
 10
8.586334645669291
 20
0.1354685039370079
 30
0.0
 10
8.586334645669291
 20
0.1354685039370079
 30
0.0
 10
8.591444881889764
 20
0.1451338582677166
 30
0.0
 10
8.598889763779528
 20
0.1530787401574803
 30
0.0
 10
8.608614173228347
 20
0.1594133858267717
 30
0.0
 10
8.608614173228347
 20
0.1594133858267717
 30
0.0
 10
8.618334645669291
 20
0.1656889763779528
 30
0.0
 10
8.630169291338582
 20
0.1706338582677165
 30
0.0
 10
8.644114173228347
 20
0.1741889763779528
 30
0.0
 10
8.644114173228347
 20
0.1741889763779528
 30
0.0
 10
8.658059055118111
 20
0.1778031496062992
 30
0.0
 10
8.676834645669292
 20
0.1795787401574803
 30
0.0
 10
8.700503937007875
 20
0.1795787401574803
 30
0.0
 10
8.700503937007875
 20
0.1795787401574803
 30
0.0
 10
8.728503937007874
 20
0.1795787401574803
 30
0.0
 10
8.751059055118111
 20
0.1766889763779528
 30
0.0
 10
8.768279527559056
 20
0.1709685039370079
 30
0.0
 10
8.768279527559056
 20
0.1709685039370079
 30
0.0
 10
8.785503937007874
 20
0.1651889763779528
 30
0.0
 10
8.798779527559056
 20
0.1565787401574803
 30
0.0
 10
8.808169291338583
 20
0.1451338582677166
 30
0.0
 10
8.808169291338583
 20
0.1451338582677166
 30
0.0
 10
8.81755905511811
 20
0.1336889763779528
 30
0.0
 10
8.82222440944882
 20
0.119244094488189
 30
0.0
 10
8.82222440944882
 20
0.101744094488189
 30
0.0
 10
8.82222440944882
 20
0.101744094488189
 30
0.0
 10
8.82222440944882
 20
0.078744094488189
 30
0.0
 10
8.814003937007874
 20
0.0606889763779528
 30
0.0
 10
8.797503937007875
 20
0.0475787401574803
 30
0.0
 10
8.797503937007875
 20
0.0475787401574803
 30
0.0
 10
8.777669291338583
 20
0.0318543307086614
 30
0.0
 10
8.745279527559056
 20
0.0239685039370079
 30
0.0
 10
8.700503937007875
 20
0.0239685039370079
 30
0.0
  0
SPLINE
  5
84
330
1F
100
AcDbEntity
  8
Capa 1
 62
   250
100
AcDbSpline
210
0.0
220
0.0
230
1.0
 70
    11
 71
     3
 72
    36
 73
    32
 74
     0
 42
0.0000000001
 43
0.0000000001
 40
0.0
 40
0.0
 40
0.0
 40
0.0
 40
0.125
 40
0.125
 40
0.125
 40
0.125
 40
0.25
 40
0.25
 40
0.25
 40
0.25
 40
0.375
 40
0.375
 40
0.375
 40
0.375
 40
0.5
 40
0.5
 40
0.5
 40
0.5
 40
0.625
 40
0.625
 40
0.625
 40
0.625
 40
0.75
 40
0.75
 40
0.75
 40
0.75
 40
0.875
 40
0.875
 40
0.875
 40
0.875
 40
1.0
 40
1.0
 40
1.0
 40
1.0
 10
8.700503937007875
 20
0.0540787401574803
 30
0.0
 10
8.739669291338583
 20
0.0540787401574803
 30
0.0
 10
8.765724409448819
 20
0.0586889763779528
 30
0.0
 10
8.778724409448818
 20
0.0678582677165354
 30
0.0
 10
8.778724409448818
 20
0.0678582677165354
 30
0.0
 10
8.791669291338582
 20
0.0770236220472441
 30
0.0
 10
8.798169291338583
 20
0.0882992125984252
 30
0.0
 10
8.798169291338583
 20
0.101744094488189
 30
0.0
 10
8.798169291338583
 20
0.101744094488189
 30
0.0
 10
8.798169291338583
 20
0.115244094488189
 30
0.0
 10
8.791614173228346
 20
0.1265236220472441
 30
0.0
 10
8.778614173228347
 20
0.1356889763779528
 30
0.0
 10
8.778614173228347
 20
0.1356889763779528
 30
0.0
 10
8.765614173228347
 20
0.1448582677165354
 30
0.0
 10
8.739559055118111
 20
0.1494685039370079
 30
0.0
 10
8.700503937007875
 20
0.1494685039370079
 30
0.0
 10
8.700503937007875
 20
0.1494685039370079
 30
0.0
 10
8.661224409448819
 20
0.1494685039370079
 30
0.0
 10
8.635114173228347
 20
0.1448582677165354
 30
0.0
 10
8.622224409448819
 20
0.1356889763779528
 30
0.0
 10
8.622224409448819
 20
0.1356889763779528
 30
0.0
 10
8.609279527559055
 20
0.1265236220472441
 30
0.0
 10
8.602834645669292
 20
0.1151338582677165
 30
0.0
 10
8.602834645669292
 20
0.1014685039370079
 30
0.0
 10
8.602834645669292
 20
0.1014685039370079
 30
0.0
 10
8.602834645669292
 20
0.0879685039370079
 30
0.0
 10
8.608559055118111
 20
0.077244094488189
 30
0.0
 10
8.619944881889763
 20
0.0691889763779528
 30
0.0
 10
8.619944881889763
 20
0.0691889763779528
 30
0.0
 10
8.634444881889763
 20
0.0591338582677165
 30
0.0
 10
8.661334645669292
 20
0.0540787401574803
 30
0.0
 10
8.700503937007875
 20
0.0540787401574803
 30
0.0
  0
SPLINE
  5
85
330
1F
100
AcDbEntity
  8
Capa 1
 62
   250
100
AcDbSpline
210
0.0
220
0.0
230
1.0
 70
    11
 71
     3
 72
   116
 73
   112
 74
     0
 42
0.0000000001
 43
0.0000000001
 40
0.0
 40
0.0
 40
0.0
 40
0.0
 40
0.0357142857142857
 40
0.0357142857142857
 40
0.0357142857142857
 40
0.0357142857142857
 40
0.0714285714285714
 40
0.0714285714285714
 40
0.0714285714285714
 40
0.0714285714285714
 40
0.1071428571428571
 40
0.1071428571428571
 40
0.1071428571428571
 40
0.1071428571428571
 40
0.1428571428571429
 40
0.1428571428571429
 40
0.1428571428571429
 40
0.1428571428571429
 40
0.1785714285714286
 40
0.1785714285714286
 40
0.1785714285714286
 40
0.1785714285714286
 40
0.2142857142857143
 40
0.2142857142857143
 40
0.2142857142857143
 40
0.2142857142857143
 40
0.2499999999999999
 40
0.2499999999999999
 40
0.2499999999999999
 40
0.2499999999999999
 40
0.2857142857142856
 40
0.2857142857142856
 40
0.2857142857142856
 40
0.2857142857142856
 40
0.3214285714285713
 40
0.3214285714285713
 40
0.3214285714285713
 40
0.3214285714285713
 40
0.357142857142857
 40
0.357142857142857
 40
0.357142857142857
 40
0.357142857142857
 40
0.3928571428571427
 40
0.3928571428571427
 40
0.3928571428571427
 40
0.3928571428571427
 40
0.4285714285714284
 40
0.4285714285714284
 40
0.4285714285714284
 40
0.4285714285714284
 40
0.4642857142857141
 40
0.4642857142857141
 40
0.4642857142857141
 40
0.4642857142857141
 40
0.4999999999999998
 40
0.4999999999999998
 40
0.4999999999999998
 40
0.4999999999999998
 40
0.5357142857142856
 40
0.5357142857142856
 40
0.5357142857142856
 40
0.5357142857142856
 40
0.5714285714285713
 40
0.5714285714285713
 40
0.5714285714285713
 40
0.5714285714285713
 40
0.607142857142857
 40
0.607142857142857
 40
0.607142857142857
 40
0.607142857142857
 40
0.6428571428571427
 40
0.6428571428571427
 40
0.6428571428571427
 40
0.6428571428571427
 40
0.6785714285714284
 40
0.6785714285714284
 40
0.6785714285714284
 40
0.6785714285714284
 40
0.7142857142857141
 40
0.7142857142857141
 40
0.7142857142857141
 40
0.7142857142857141
 40
0.7499999999999998
 40
0.7499999999999998
 40
0.7499999999999998
 40
0.7499999999999998
 40
0.7857142857142855
 40
0.7857142857142855
 40
0.7857142857142855
 40
0.7857142857142855
 40
0.8214285714285712
 40
0.8214285714285712
 40
0.8214285714285712
 40
0.8214285714285712
 40
0.8571428571428569
 40
0.8571428571428569
 40
0.8571428571428569
 40
0.8571428571428569
 40
0.8928571428571426
 40
0.8928571428571426
 40
0.8928571428571426
 40
0.8928571428571426
 40
0.9285714285714283
 40
0.9285714285714283
 40
0.9285714285714283
 40
0.9285714285714283
 40
0.964285714285714
 40
0.964285714285714
 40
0.964285714285714
 40
0.964285714285714
 40
1.0
 40
1.0
 40
1.0
 40
1.0
 10
8.818169291338583
 20
0.3101338582677166
 30
0.0
 10
8.818169291338583
 20
0.3101338582677166
 30
0.0
 10
8.645334645669292
 20
0.3101338582677166
 30
0.0
 10
8.645334645669292
 20
0.3101338582677166
 30
0.0
 10
8.645334645669292
 20
0.3101338582677166
 30
0.0
 10
8.645334645669292
 20
0.3101338582677166
 30
0.0
 10
8.645334645669292
 20
0.3362992125984252
 30
0.0
 10
8.645334645669292
 20
0.3362992125984252
 30
0.0
 10
8.645334645669292
 20
0.3362992125984252
 30
0.0
 10
8.645334645669292
 20
0.3362992125984252
 30
0.0
 10
8.669559055118111
 20
0.3362992125984252
 30
0.0
 10
8.669559055118111
 20
0.3362992125984252
 30
0.0
 10
8.669559055118111
 20
0.3362992125984252
 30
0.0
 10
8.661114173228347
 20
0.341744094488189
 30
0.0
 10
8.654279527559055
 20
0.3489685039370079
 30
0.0
 10
8.649169291338582
 20
0.3579685039370079
 30
0.0
 10
8.649169291338582
 20
0.3579685039370079
 30
0.0
 10
8.644
 20
0.3669685039370079
 30
0.0
 10
8.641389763779529
 20
0.377244094488189
 30
0.0
 10
8.641389763779529
 20
0.388744094488189
 30
0.0
 10
8.641389763779529
 20
0.388744094488189
 30
0.0
 10
8.641389763779529
 20
0.4015236220472441
 30
0.0
 10
8.644059055118111
 20
0.4120236220472441
 30
0.0
 10
8.649389763779528
 20
0.4201889763779528
 30
0.0
 10
8.649389763779528
 20
0.4201889763779528
 30
0.0
 10
8.65472440944882
 20
0.4284133858267717
 30
0.0
 10
8.662114173228346
 20
0.4341889763779528
 30
0.0
 10
8.671669291338583
 20
0.4375236220472441
 30
0.0
 10
8.671669291338583
 20
0.4375236220472441
 30
0.0
 10
8.6515
 20
0.451244094488189
 30
0.0
 10
8.641389763779529
 20
0.4690236220472441
 30
0.0
 10
8.641389763779529
 20
0.4909133858267717
 30
0.0
 10
8.641389763779529
 20
0.4909133858267717
 30
0.0
 10
8.641389763779529
 20
0.5080787401574803
 30
0.0
 10
8.646169291338582
 20
0.521244094488189
 30
0.0
 10
8.655669291338583
 20
0.5304685039370078
 30
0.0
 10
8.655669291338583
 20
0.5304685039370078
 30
0.0
 10
8.665169291338582
 20
0.5396889763779528
 30
0.0
 10
8.679779527559056
 20
0.5443031496062992
 30
0.0
 10
8.699503937007874
 20
0.5443031496062992
 30
0.0
 10
8.699503937007874
 20
0.5443031496062992
 30
0.0
 10
8.699503937007874
 20
0.5443031496062992
 30
0.0
 10
8.818169291338583
 20
0.5443031496062992
 30
0.0
 10
8.818169291338583
 20
0.5443031496062992
 30
0.0
 10
8.818169291338583
 20
0.5443031496062992
 30
0.0
 10
8.818169291338583
 20
0.5443031496062992
 30
0.0
 10
8.818169291338583
 20
0.5151889763779528
 30
0.0
 10
8.818169291338583
 20
0.5151889763779528
 30
0.0
 10
8.818169291338583
 20
0.5151889763779528
 30
0.0
 10
8.818169291338583
 20
0.5151889763779528
 30
0.0
 10
8.709279527559055
 20
0.5151889763779528
 30
0.0
 10
8.709279527559055
 20
0.5151889763779528
 30
0.0
 10
8.709279527559055
 20
0.5151889763779528
 30
0.0
 10
8.697559055118111
 20
0.5151889763779528
 30
0.0
 10
8.689114173228347
 20
0.514244094488189
 30
0.0
 10
8.683944881889763
 20
0.5123582677165355
 30
0.0
 10
8.683944881889763
 20
0.5123582677165355
 30
0.0
 10
8.678834645669292
 20
0.5104133858267717
 30
0.0
 10
8.674669291338583
 20
0.5069685039370079
 30
0.0
 10
8.671503937007874
 20
0.5020236220472442
 30
0.0
 10
8.671503937007874
 20
0.5020236220472442
 30
0.0
 10
8.668389763779528
 20
0.4970236220472441
 30
0.0
 10
8.666779527559056
 20
0.4911338582677166
 30
0.0
 10
8.666779527559056
 20
0.4844133858267717
 30
0.0
 10
8.666779527559056
 20
0.4844133858267717
 30
0.0
 10
8.666779527559056
 20
0.472244094488189
 30
0.0
 10
8.670834645669292
 20
0.4621889763779528
 30
0.0
 10
8.678944881889764
 20
0.4541338582677166
 30
0.0
 10
8.678944881889764
 20
0.4541338582677166
 30
0.0
 10
8.687003937007875
 20
0.4461338582677166
 30
0.0
 10
8.699944881889763
 20
0.4420787401574803
 30
0.0
 10
8.717724409448818
 20
0.4420787401574803
 30
0.0
 10
8.717724409448818
 20
0.4420787401574803
 30
0.0
 10
8.717724409448818
 20
0.4420787401574803
 30
0.0
 10
8.818169291338583
 20
0.4420787401574803
 30
0.0
 10
8.818169291338583
 20
0.4420787401574803
 30
0.0
 10
8.818169291338583
 20
0.4420787401574803
 30
0.0
 10
8.818169291338583
 20
0.4420787401574803
 30
0.0
 10
8.818169291338583
 20
0.4127992125984252
 30
0.0
 10
8.818169291338583
 20
0.4127992125984252
 30
0.0
 10
8.818169291338583
 20
0.4127992125984252
 30
0.0
 10
8.818169291338583
 20
0.4127992125984252
 30
0.0
 10
8.705889763779528
 20
0.4127992125984252
 30
0.0
 10
8.705889763779528
 20
0.4127992125984252
 30
0.0
 10
8.705889763779528
 20
0.4127992125984252
 30
0.0
 10
8.692834645669292
 20
0.4127992125984252
 30
0.0
 10
8.683059055118111
 20
0.4104133858267717
 30
0.0
 10
8.67655905511811
 20
0.4056338582677165
 30
0.0
 10
8.67655905511811
 20
0.4056338582677165
 30
0.0
 10
8.670059055118111
 20
0.4008582677165354
 30
0.0
 10
8.666779527559056
 20
0.3930787401574803
 30
0.0
 10
8.666779527559056
 20
0.3821889763779528
 30
0.0
 10
8.666779527559056
 20
0.3821889763779528
 30
0.0
 10
8.666779527559056
 20
0.3739685039370079
 30
0.0
 10
8.668944881889765
 20
0.3663582677165355
 30
0.0
 10
8.673334645669291
 20
0.3593582677165355
 30
0.0
 10
8.673334645669291
 20
0.3593582677165355
 30
0.0
 10
8.677669291338583
 20
0.3523582677165354
 30
0.0
 10
8.684003937007875
 20
0.347244094488189
 30
0.0
 10
8.692334645669291
 20
0.3441338582677165
 30
0.0
 10
8.692334645669291
 20
0.3441338582677165
 30
0.0
 10
8.700724409448819
 20
0.3409685039370079
 30
0.0
 10
8.712779527559055
 20
0.3394133858267717
 30
0.0
 10
8.728503937007874
 20
0.3394133858267717
 30
0.0
 10
8.728503937007874
 20
0.3394133858267717
 30
0.0
 10
8.728503937007874
 20
0.3394133858267717
 30
0.0
 10
8.818169291338583
 20
0.3394133858267717
 30
0.0
 10
8.818169291338583
 20
0.3394133858267717
 30
0.0
 10
8.818169291338583
 20
0.3394133858267717
 30
0.0
 10
8.818169291338583
 20
0.3394133858267717
 30
0.0
 10
8.818169291338583
 20
0.3101338582677166
 30
0.0
 10
8.818169291338583
 20
0.3101338582677166
 30
0.0
  0
SPLINE
  5
86
330
1F
100
AcDbEntity
  8
Capa 1
 62
   250
100
AcDbSpline
210
0.0
220
0.0
230
1.0
 70
    11
 71
     3
 72
   116
 73
   112
 74
     0
 42
0.0000000001
 43
0.0000000001
 40
0.0
 40
0.0
 40
0.0
 40
0.0
 40
0.0357142857142857
 40
0.0357142857142857
 40
0.0357142857142857
 40
0.0357142857142857
 40
0.0714285714285714
 40
0.0714285714285714
 40
0.0714285714285714
 40
0.0714285714285714
 40
0.1071428571428571
 40
0.1071428571428571
 40
0.1071428571428571
 40
0.1071428571428571
 40
0.1428571428571429
 40
0.1428571428571429
 40
0.1428571428571429
 40
0.1428571428571429
 40
0.1785714285714286
 40
0.1785714285714286
 40
0.1785714285714286
 40
0.1785714285714286
 40
0.2142857142857143
 40
0.2142857142857143
 40
0.2142857142857143
 40
0.2142857142857143
 40
0.2499999999999999
 40
0.2499999999999999
 40
0.2499999999999999
 40
0.2499999999999999
 40
0.2857142857142856
 40
0.2857142857142856
 40
0.2857142857142856
 40
0.2857142857142856
 40
0.3214285714285713
 40
0.3214285714285713
 40
0.3214285714285713
 40
0.3214285714285713
 40
0.357142857142857
 40
0.357142857142857
 40
0.357142857142857
 40
0.357142857142857
 40
0.3928571428571427
 40
0.3928571428571427
 40
0.3928571428571427
 40
0.3928571428571427
 40
0.4285714285714284
 40
0.4285714285714284
 40
0.4285714285714284
 40
0.4285714285714284
 40
0.4642857142857141
 40
0.4642857142857141
 40
0.4642857142857141
 40
0.4642857142857141
 40
0.4999999999999998
 40
0.4999999999999998
 40
0.4999999999999998
 40
0.4999999999999998
 40
0.5357142857142856
 40
0.5357142857142856
 40
0.5357142857142856
 40
0.5357142857142856
 40
0.5714285714285713
 40
0.5714285714285713
 40
0.5714285714285713
 40
0.5714285714285713
 40
0.607142857142857
 40
0.607142857142857
 40
0.607142857142857
 40
0.607142857142857
 40
0.6428571428571427
 40
0.6428571428571427
 40
0.6428571428571427
 40
0.6428571428571427
 40
0.6785714285714284
 40
0.6785714285714284
 40
0.6785714285714284
 40
0.6785714285714284
 40
0.7142857142857141
 40
0.7142857142857141
 40
0.7142857142857141
 40
0.7142857142857141
 40
0.7499999999999998
 40
0.7499999999999998
 40
0.7499999999999998
 40
0.7499999999999998
 40
0.7857142857142855
 40
0.7857142857142855
 40
0.7857142857142855
 40
0.7857142857142855
 40
0.8214285714285712
 40
0.8214285714285712
 40
0.8214285714285712
 40
0.8214285714285712
 40
0.8571428571428569
 40
0.8571428571428569
 40
0.8571428571428569
 40
0.8571428571428569
 40
0.8928571428571426
 40
0.8928571428571426
 40
0.8928571428571426
 40
0.8928571428571426
 40
0.9285714285714283
 40
0.9285714285714283
 40
0.9285714285714283
 40
0.9285714285714283
 40
0.964285714285714
 40
0.964285714285714
 40
0.964285714285714
 40
0.964285714285714
 40
1.0
 40
1.0
 40
1.0
 40
1.0
 10
8.818169291338583
 20
0.5878031496062992
 30
0.0
 10
8.818169291338583
 20
0.5878031496062992
 30
0.0
 10
8.645334645669292
 20
0.5878031496062992
 30
0.0
 10
8.645334645669292
 20
0.5878031496062992
 30
0.0
 10
8.645334645669292
 20
0.5878031496062992
 30
0.0
 10
8.645334645669292
 20
0.5878031496062992
 30
0.0
 10
8.645334645669292
 20
0.6139685039370079
 30
0.0
 10
8.645334645669292
 20
0.6139685039370079
 30
0.0
 10
8.645334645669292
 20
0.6139685039370079
 30
0.0
 10
8.645334645669292
 20
0.6139685039370079
 30
0.0
 10
8.669559055118111
 20
0.6139685039370079
 30
0.0
 10
8.669559055118111
 20
0.6139685039370079
 30
0.0
 10
8.669559055118111
 20
0.6139685039370079
 30
0.0
 10
8.661114173228347
 20
0.6194133858267716
 30
0.0
 10
8.654279527559055
 20
0.6266377952755906
 30
0.0
 10
8.649169291338582
 20
0.6356377952755906
 30
0.0
 10
8.649169291338582
 20
0.6356377952755906
 30
0.0
 10
8.644
 20
0.6446377952755906
 30
0.0
 10
8.641389763779529
 20
0.6549133858267717
 30
0.0
 10
8.641389763779529
 20
0.6664133858267717
 30
0.0
 10
8.641389763779529
 20
0.6664133858267717
 30
0.0
 10
8.641389763779529
 20
0.6791929133858268
 30
0.0
 10
8.644059055118111
 20
0.6896929133858268
 30
0.0
 10
8.649389763779528
 20
0.6978582677165355
 30
0.0
 10
8.649389763779528
 20
0.6978582677165355
 30
0.0
 10
8.65472440944882
 20
0.7060826771653543
 30
0.0
 10
8.662114173228346
 20
0.7118582677165355
 30
0.0
 10
8.671669291338583
 20
0.7151929133858268
 30
0.0
 10
8.671669291338583
 20
0.7151929133858268
 30
0.0
 10
8.6515
 20
0.7289133858267717
 30
0.0
 10
8.641389763779529
 20
0.7466929133858268
 30
0.0
 10
8.641389763779529
 20
0.7685826771653543
 30
0.0
 10
8.641389763779529
 20
0.7685826771653543
 30
0.0
 10
8.641389763779529
 20
0.785748031496063
 30
0.0
 10
8.646169291338582
 20
0.7989133858267717
 30
0.0
 10
8.655669291338583
 20
0.8081377952755906
 30
0.0
 10
8.655669291338583
 20
0.8081377952755906
 30
0.0
 10
8.665169291338582
 20
0.8173582677165354
 30
0.0
 10
8.679779527559056
 20
0.8219724409448819
 30
0.0
 10
8.699503937007874
 20
0.8219724409448819
 30
0.0
 10
8.699503937007874
 20
0.8219724409448819
 30
0.0
 10
8.699503937007874
 20
0.8219724409448819
 30
0.0
 10
8.818169291338583
 20
0.8219724409448819
 30
0.0
 10
8.818169291338583
 20
0.8219724409448819
 30
0.0
 10
8.818169291338583
 20
0.8219724409448819
 30
0.0
 10
8.818169291338583
 20
0.8219724409448819
 30
0.0
 10
8.818169291338583
 20
0.7928582677165355
 30
0.0
 10
8.818169291338583
 20
0.7928582677165355
 30
0.0
 10
8.818169291338583
 20
0.7928582677165355
 30
0.0
 10
8.818169291338583
 20
0.7928582677165355
 30
0.0
 10
8.709279527559055
 20
0.7928582677165355
 30
0.0
 10
8.709279527559055
 20
0.7928582677165355
 30
0.0
 10
8.709279527559055
 20
0.7928582677165355
 30
0.0
 10
8.697559055118111
 20
0.7928582677165355
 30
0.0
 10
8.689114173228347
 20
0.7919133858267717
 30
0.0
 10
8.683944881889763
 20
0.7900275590551181
 30
0.0
 10
8.683944881889763
 20
0.7900275590551181
 30
0.0
 10
8.678834645669292
 20
0.7880826771653544
 30
0.0
 10
8.674669291338583
 20
0.7846377952755906
 30
0.0
 10
8.671503937007874
 20
0.7796929133858268
 30
0.0
 10
8.671503937007874
 20
0.7796929133858268
 30
0.0
 10
8.668389763779528
 20
0.7746929133858268
 30
0.0
 10
8.666779527559056
 20
0.7688031496062993
 30
0.0
 10
8.666779527559056
 20
0.7620826771653544
 30
0.0
 10
8.666779527559056
 20
0.7620826771653544
 30
0.0
 10
8.666779527559056
 20
0.7499133858267717
 30
0.0
 10
8.670834645669292
 20
0.7398582677165355
 30
0.0
 10
8.678944881889764
 20
0.7318031496062992
 30
0.0
 10
8.678944881889764
 20
0.7318031496062992
 30
0.0
 10
8.687003937007875
 20
0.7238031496062992
 30
0.0
 10
8.699944881889763
 20
0.719748031496063
 30
0.0
 10
8.717724409448818
 20
0.719748031496063
 30
0.0
 10
8.717724409448818
 20
0.719748031496063
 30
0.0
 10
8.717724409448818
 20
0.719748031496063
 30
0.0
 10
8.818169291338583
 20
0.719748031496063
 30
0.0
 10
8.818169291338583
 20
0.719748031496063
 30
0.0
 10
8.818169291338583
 20
0.719748031496063
 30
0.0
 10
8.818169291338583
 20
0.719748031496063
 30
0.0
 10
8.818169291338583
 20
0.6904685039370079
 30
0.0
 10
8.818169291338583
 20
0.6904685039370079
 30
0.0
 10
8.818169291338583
 20
0.6904685039370079
 30
0.0
 10
8.818169291338583
 20
0.6904685039370079
 30
0.0
 10
8.705889763779528
 20
0.6904685039370079
 30
0.0
 10
8.705889763779528
 20
0.6904685039370079
 30
0.0
 10
8.705889763779528
 20
0.6904685039370079
 30
0.0
 10
8.692834645669292
 20
0.6904685039370079
 30
0.0
 10
8.683059055118111
 20
0.6880826771653543
 30
0.0
 10
8.67655905511811
 20
0.6833031496062992
 30
0.0
 10
8.67655905511811
 20
0.6833031496062992
 30
0.0
 10
8.670059055118111
 20
0.6785275590551182
 30
0.0
 10
8.666779527559056
 20
0.670748031496063
 30
0.0
 10
8.666779527559056
 20
0.6598582677165354
 30
0.0
 10
8.666779527559056
 20
0.6598582677165354
 30
0.0
 10
8.666779527559056
 20
0.6516377952755906
 30
0.0
 10
8.668944881889765
 20
0.6440275590551181
 30
0.0
 10
8.673334645669291
 20
0.6370275590551181
 30
0.0
 10
8.673334645669291
 20
0.6370275590551181
 30
0.0
 10
8.677669291338583
 20
0.6300275590551181
 30
0.0
 10
8.684003937007875
 20
0.6249133858267717
 30
0.0
 10
8.692334645669291
 20
0.6218031496062992
 30
0.0
 10
8.692334645669291
 20
0.6218031496062992
 30
0.0
 10
8.700724409448819
 20
0.6186377952755906
 30
0.0
 10
8.712779527559055
 20
0.6170826771653544
 30
0.0
 10
8.728503937007874
 20
0.6170826771653544
 30
0.0
 10
8.728503937007874
 20
0.6170826771653544
 30
0.0
 10
8.728503937007874
 20
0.6170826771653544
 30
0.0
 10
8.818169291338583
 20
0.6170826771653544
 30
0.0
 10
8.818169291338583
 20
0.6170826771653544
 30
0.0
 10
8.818169291338583
 20
0.6170826771653544
 30
0.0
 10
8.818169291338583
 20
0.6170826771653544
 30
0.0
 10
8.818169291338583
 20
0.5878031496062992
 30
0.0
 10
8.818169291338583
 20
0.5878031496062992
 30
0.0
  0
SPLINE
  5
87
330
1F
100
AcDbEntity
  8
Capa 1
 62
   250
370
     5
100
AcDbSpline
210
0.0
220
0.0
230
1.0
 70
    24
 71
     3
 72
     8
 73
     4
 74
     0
 42
0.0000000001
 43
0.0000000001
 40
0.0
 40
0.0
 40
0.0
 40
0.0
 40
1.0
 40
1.0
 40
1.0
 40
1.0
 10
0.078744094488189
 20
2.085031496062992
 30
0.0
 10
0.078744094488189
 20
2.085031496062992
 30
0.0
 10
0.078744094488189
 20
0.6914094488188977
 30
0.0
 10
0.078744094488189
 20
0.6914094488188977
 30
0.0
  0
SPLINE
  5
88
330
1F
100
AcDbEntity
  8
Capa 1
 62
   250
370
     5
100
AcDbSpline
210
0.0
220
0.0
230
1.0
 70
    24
 71
     3
 72
     8
 73
     4
 74
     0
 42
0.0000000001
 43
0.0000000001
 40
0.0
 40
0.0
 40
0.0
 40
0.0
 40
1.0
 40
1.0
 40
1.0
 40
1.0
 10
-0.0787362204724409
 20
2.085031496062992
 30
0.0
 10
-0.0787362204724409
 20
2.085031496062992
 30
0.0
 10
-0.0787362204724409
 20
0.6914094488188977
 30
0.0
 10
-0.0787362204724409
 20
0.6914094488188977
 30
0.0
  0
SPLINE
  5
89
330
1F
100
AcDbEntity
  8
Capa 1
 62
   250
370
     5
100
AcDbSpline
210
0.0
220
0.0
230
1.0
 70
    24
 71
     3
 72
     8
 73
     4
 74
     0
 42
0.0000000001
 43
0.0000000001
 40
0.0
 40
0.0
 40
0.0
 40
0.0
 40
1.0
 40
1.0
 40
1.0
 40
1.0
 10
0.078744094488189
 20
0.8914094488188977
 30
0.0
 10
0.078744094488189
 20
0.8914094488188977
 30
0.0
 10
-0.0787362204724409
 20
0.8914094488188977
 30
0.0
 10
-0.0787362204724409
 20
0.8914094488188977
 30
0.0
  0
SPLINE
  5
8A
330
1F
100
AcDbEntity
  8
Capa 1
 62
   250
100
AcDbSpline
210
0.0
220
0.0
230
1.0
 70
    11
 71
     3
 72
    48
 73
    44
 74
     0
 42
0.0000000001
 43
0.0000000001
 40
0.0
 40
0.0
 40
0.0
 40
0.0
 40
0.0909090909090909
 40
0.0909090909090909
 40
0.0909090909090909
 40
0.0909090909090909
 40
0.1818181818181818
 40
0.1818181818181818
 40
0.1818181818181818
 40
0.1818181818181818
 40
0.2727272727272727
 40
0.2727272727272727
 40
0.2727272727272727
 40
0.2727272727272727
 40
0.3636363636363637
 40
0.3636363636363637
 40
0.3636363636363637
 40
0.3636363636363637
 40
0.4545454545454546
 40
0.4545454545454546
 40
0.4545454545454546
 40
0.4545454545454546
 40
0.5454545454545455
 40
0.5454545454545455
 40
0.5454545454545455
 40
0.5454545454545455
 40
0.6363636363636365
 40
0.6363636363636365
 40
0.6363636363636365
 40
0.6363636363636365
 40
0.7272727272727274
 40
0.7272727272727274
 40
0.7272727272727274
 40
0.7272727272727274
 40
0.8181818181818183
 40
0.8181818181818183
 40
0.8181818181818183
 40
0.8181818181818183
 40
0.9090909090909093
 40
0.9090909090909093
 40
0.9090909090909093
 40
0.9090909090909093
 40
1.0
 40
1.0
 40
1.0
 40
1.0
 10
0.4364685039370079
 20
0.7736338582677166
 30
0.0
 10
0.4364685039370079
 20
0.7736338582677166
 30
0.0
 10
0.4364685039370079
 20
0.830744094488189
 30
0.0
 10
0.4364685039370079
 20
0.830744094488189
 30
0.0
 10
0.4364685039370079
 20
0.830744094488189
 30
0.0
 10
0.4364685039370079
 20
0.830744094488189
 30
0.0
 10
0.3329645669291339
 20
0.830744094488189
 30
0.0
 10
0.3329645669291339
 20
0.830744094488189
 30
0.0
 10
0.3329645669291339
 20
0.830744094488189
 30
0.0
 10
0.3329645669291339
 20
0.830744094488189
 30
0.0
 10
0.3329645669291339
 20
0.8576338582677165
 30
0.0
 10
0.3329645669291339
 20
0.8576338582677165
 30
0.0
 10
0.3329645669291339
 20
0.8576338582677165
 30
0.0
 10
0.3329645669291339
 20
0.8576338582677165
 30
0.0
 10
0.4418543307086614
 20
1.012244094488189
 30
0.0
 10
0.4418543307086614
 20
1.012244094488189
 30
0.0
 10
0.4418543307086614
 20
1.012244094488189
 30
0.0
 10
0.4418543307086614
 20
1.012244094488189
 30
0.0
 10
0.4657992125984252
 20
1.012244094488189
 30
0.0
 10
0.4657992125984252
 20
1.012244094488189
 30
0.0
 10
0.4657992125984252
 20
1.012244094488189
 30
0.0
 10
0.4657992125984252
 20
1.012244094488189
 30
0.0
 10
0.4657992125984252
 20
0.8576338582677165
 30
0.0
 10
0.4657992125984252
 20
0.8576338582677165
 30
0.0
 10
0.4657992125984252
 20
0.8576338582677165
 30
0.0
 10
0.4657992125984252
 20
0.8576338582677165
 30
0.0
 10
0.4980236220472441
 20
0.8576338582677165
 30
0.0
 10
0.4980236220472441
 20
0.8576338582677165
 30
0.0
 10
0.4980236220472441
 20
0.8576338582677165
 30
0.0
 10
0.4980236220472441
 20
0.8576338582677165
 30
0.0
 10
0.4980236220472441
 20
0.830744094488189
 30
0.0
 10
0.4980236220472441
 20
0.830744094488189
 30
0.0
 10
0.4980236220472441
 20
0.830744094488189
 30
0.0
 10
0.4980236220472441
 20
0.830744094488189
 30
0.0
 10
0.4657992125984252
 20
0.830744094488189
 30
0.0
 10
0.4657992125984252
 20
0.830744094488189
 30
0.0
 10
0.4657992125984252
 20
0.830744094488189
 30
0.0
 10
0.4657992125984252
 20
0.830744094488189
 30
0.0
 10
0.4657992125984252
 20
0.7736338582677166
 30
0.0
 10
0.4657992125984252
 20
0.7736338582677166
 30
0.0
 10
0.4657992125984252
 20
0.7736338582677166
 30
0.0
 10
0.4657992125984252
 20
0.7736338582677166
 30
0.0
 10
0.4364685039370079
 20
0.7736338582677166
 30
0.0
 10
0.4364685039370079
 20
0.7736338582677166
 30
0.0
  0
SPLINE
  5
8B
330
1F
100
AcDbEntity
  8
Capa 1
 62
   250
100
AcDbSpline
210
0.0
220
0.0
230
1.0
 70
    11
 71
     3
 72
    16
 73
    12
 74
     0
 42
0.0000000001
 43
0.0000000001
 40
0.0
 40
0.0
 40
0.0
 40
0.0
 40
0.3333333333333333
 40
0.3333333333333333
 40
0.3333333333333333
 40
0.3333333333333333
 40
0.6666666666666666
 40
0.6666666666666666
 40
0.6666666666666666
 40
0.6666666666666666
 40
1.0
 40
1.0
 40
1.0
 40
1.0
 10
0.4364685039370079
 20
0.8576338582677165
 30
0.0
 10
0.4364685039370079
 20
0.8576338582677165
 30
0.0
 10
0.4364685039370079
 20
0.9651889763779528
 30
0.0
 10
0.4364685039370079
 20
0.9651889763779528
 30
0.0
 10
0.4364685039370079
 20
0.9651889763779528
 30
0.0
 10
0.4364685039370079
 20
0.9651889763779528
 30
0.0
 10
0.3617992125984252
 20
0.8576338582677165
 30
0.0
 10
0.3617992125984252
 20
0.8576338582677165
 30
0.0
 10
0.3617992125984252
 20
0.8576338582677165
 30
0.0
 10
0.3617992125984252
 20
0.8576338582677165
 30
0.0
 10
0.4364685039370079
 20
0.8576338582677165
 30
0.0
 10
0.4364685039370079
 20
0.8576338582677165
 30
0.0
  0
SPLINE
  5
8C
330
1F
100
AcDbEntity
  8
Capa 1
 62
   250
100
AcDbSpline
210
0.0
220
0.0
230
1.0
 70
    11
 71
     3
 72
    20
 73
    16
 74
     0
 42
0.0000000001
 43
0.0000000001
 40
0.0
 40
0.0
 40
0.0
 40
0.0
 40
0.25
 40
0.25
 40
0.25
 40
0.25
 40
0.5
 40
0.5
 40
0.5
 40
0.5
 40
0.75
 40
0.75
 40
0.75
 40
0.75
 40
1.0
 40
1.0
 40
1.0
 40
1.0
 10
0.5444133858267717
 20
0.7736338582677166
 30
0.0
 10
0.5444133858267717
 20
0.7736338582677166
 30
0.0
 10
0.5444133858267717
 20
0.8070236220472441
 30
0.0
 10
0.5444133858267717
 20
0.8070236220472441
 30
0.0
 10
0.5444133858267717
 20
0.8070236220472441
 30
0.0
 10
0.5444133858267717
 20
0.8070236220472441
 30
0.0
 10
0.5777992125984253
 20
0.8070236220472441
 30
0.0
 10
0.5777992125984253
 20
0.8070236220472441
 30
0.0
 10
0.5777992125984253
 20
0.8070236220472441
 30
0.0
 10
0.5777992125984253
 20
0.8070236220472441
 30
0.0
 10
0.5777992125984253
 20
0.7736338582677166
 30
0.0
 10
0.5777992125984253
 20
0.7736338582677166
 30
0.0
 10
0.5777992125984253
 20
0.7736338582677166
 30
0.0
 10
0.5777992125984253
 20
0.7736338582677166
 30
0.0
 10
0.5444133858267717
 20
0.7736338582677166
 30
0.0
 10
0.5444133858267717
 20
0.7736338582677166
 30
0.0
  0
SPLINE
  5
8D
330
1F
100
AcDbEntity
  8
Capa 1
 62
   250
100
AcDbSpline
210
0.0
220
0.0
230
1.0
 70
    11
 71
     3
 72
    52
 73
    48
 74
     0
 42
0.0000000001
 43
0.0000000001
 40
0.0
 40
0.0
 40
0.0
 40
0.0
 40
0.0833333333333333
 40
0.0833333333333333
 40
0.0833333333333333
 40
0.0833333333333333
 40
0.1666666666666667
 40
0.1666666666666667
 40
0.1666666666666667
 40
0.1666666666666667
 40
0.25
 40
0.25
 40
0.25
 40
0.25
 40
0.3333333333333333
 40
0.3333333333333333
 40
0.3333333333333333
 40
0.3333333333333333
 40
0.4166666666666666
 40
0.4166666666666666
 40
0.4166666666666666
 40
0.4166666666666666
 40
0.4999999999999999
 40
0.4999999999999999
 40
0.4999999999999999
 40
0.4999999999999999
 40
0.5833333333333333
 40
0.5833333333333333
 40
0.5833333333333333
 40
0.5833333333333333
 40
0.6666666666666666
 40
0.6666666666666666
 40
0.6666666666666666
 40
0.6666666666666666
 40
0.75
 40
0.75
 40
0.75
 40
0.75
 40
0.8333333333333334
 40
0.8333333333333334
 40
0.8333333333333334
 40
0.8333333333333334
 40
0.9166666666666667
 40
0.9166666666666667
 40
0.9166666666666667
 40
0.9166666666666667
 40
1.0
 40
1.0
 40
1.0
 40
1.0
 10
0.6205787401574804
 20
0.8912992125984253
 30
0.0
 10
0.6205787401574804
 20
0.9195236220472441
 30
0.0
 10
0.6234645669291339
 20
0.942244094488189
 30
0.0
 10
0.6292992125984253
 20
0.9594133858267717
 30
0.0
 10
0.6292992125984253
 20
0.9594133858267717
 30
0.0
 10
0.6350787401574803
 20
0.9766338582677165
 30
0.0
 10
0.643744094488189
 20
0.9899133858267717
 30
0.0
 10
0.6551889763779528
 20
0.999244094488189
 30
0.0
 10
0.6551889763779528
 20
0.999244094488189
 30
0.0
 10
0.6666338582677166
 20
1.00857874015748
 30
0.0
 10
0.6810236220472441
 20
1.013244094488189
 30
0.0
 10
0.6983543307086615
 20
1.013244094488189
 30
0.0
 10
0.6983543307086615
 20
1.013244094488189
 30
0.0
 10
0.7111889763779528
 20
1.013244094488189
 30
0.0
 10
0.7224094488188977
 20
1.010633858267717
 30
0.0
 10
0.7320787401574803
 20
1.005468503937008
 30
0.0
 10
0.7320787401574803
 20
1.005468503937008
 30
0.0
 10
0.741744094488189
 20
1.000358267716536
 30
0.0
 10
0.7496889763779527
 20
0.9929133858267717
 30
0.0
 10
0.7560236220472442
 20
0.9831889763779528
 30
0.0
 10
0.7560236220472442
 20
0.9831889763779528
 30
0.0
 10
0.7622992125984253
 20
0.9734685039370079
 30
0.0
 10
0.767244094488189
 20
0.9616338582677165
 30
0.0
 10
0.7707992125984252
 20
0.9476889763779528
 30
0.0
 10
0.7707992125984252
 20
0.9476889763779528
 30
0.0
 10
0.7744133858267717
 20
0.933744094488189
 30
0.0
 10
0.7761889763779528
 20
0.9149685039370079
 30
0.0
 10
0.7761889763779528
 20
0.8912992125984253
 30
0.0
 10
0.7761889763779528
 20
0.8912992125984253
 30
0.0
 10
0.7761889763779528
 20
0.8632992125984252
 30
0.0
 10
0.7732992125984253
 20
0.840744094488189
 30
0.0
 10
0.7675787401574804
 20
0.8235236220472442
 30
0.0
 10
0.7675787401574804
 20
0.8235236220472442
 30
0.0
 10
0.7617992125984252
 20
0.8062992125984252
 30
0.0
 10
0.7531889763779528
 20
0.7930236220472441
 30
0.0
 10
0.741744094488189
 20
0.7836338582677166
 30
0.0
 10
0.741744094488189
 20
0.7836338582677166
 30
0.0
 10
0.7302992125984252
 20
0.774244094488189
 30
0.0
 10
0.7158543307086615
 20
0.7695787401574803
 30
0.0
 10
0.6983543307086615
 20
0.7695787401574803
 30
0.0
 10
0.6983543307086615
 20
0.7695787401574803
 30
0.0
 10
0.6753543307086615
 20
0.7695787401574803
 30
0.0
 10
0.6572992125984253
 20
0.7777992125984252
 30
0.0
 10
0.6441889763779528
 20
0.7942992125984252
 30
0.0
 10
0.6441889763779528
 20
0.7942992125984252
 30
0.0
 10
0.6284645669291339
 20
0.8141338582677166
 30
0.0
 10
0.6205787401574804
 20
0.8465236220472441
 30
0.0
 10
0.6205787401574804
 20
0.8912992125984253
 30
0.0
  0
SPLINE
  5
8E
330
1F
100
AcDbEntity
  8
Capa 1
 62
   250
100
AcDbSpline
210
0.0
220
0.0
230
1.0
 70
    11
 71
     3
 72
    36
 73
    32
 74
     0
 42
0.0000000001
 43
0.0000000001
 40
0.0
 40
0.0
 40
0.0
 40
0.0
 40
0.125
 40
0.125
 40
0.125
 40
0.125
 40
0.25
 40
0.25
 40
0.25
 40
0.25
 40
0.375
 40
0.375
 40
0.375
 40
0.375
 40
0.5
 40
0.5
 40
0.5
 40
0.5
 40
0.625
 40
0.625
 40
0.625
 40
0.625
 40
0.75
 40
0.75
 40
0.75
 40
0.75
 40
0.875
 40
0.875
 40
0.875
 40
0.875
 40
1.0
 40
1.0
 40
1.0
 40
1.0
 10
0.6506889763779528
 20
0.8912992125984253
 30
0.0
 10
0.6506889763779528
 20
0.8521338582677166
 30
0.0
 10
0.6552992125984253
 20
0.8260787401574804
 30
0.0
 10
0.6644685039370079
 20
0.8130787401574804
 30
0.0
 10
0.6644685039370079
 20
0.8130787401574804
 30
0.0
 10
0.6736338582677166
 20
0.8001338582677166
 30
0.0
 10
0.6849094488188977
 20
0.7936338582677166
 30
0.0
 10
0.6983543307086615
 20
0.7936338582677166
 30
0.0
 10
0.6983543307086615
 20
0.7936338582677166
 30
0.0
 10
0.7118543307086614
 20
0.7936338582677166
 30
0.0
 10
0.7231338582677166
 20
0.8001889763779528
 30
0.0
 10
0.7322992125984252
 20
0.8131889763779527
 30
0.0
 10
0.7322992125984252
 20
0.8131889763779527
 30
0.0
 10
0.7414685039370079
 20
0.8261889763779527
 30
0.0
 10
0.7460787401574803
 20
0.8522440944881891
 30
0.0
 10
0.7460787401574803
 20
0.8912992125984253
 30
0.0
 10
0.7460787401574803
 20
0.8912992125984253
 30
0.0
 10
0.7460787401574803
 20
0.9305787401574803
 30
0.0
 10
0.7414685039370079
 20
0.9566889763779528
 30
0.0
 10
0.7322992125984252
 20
0.9695787401574804
 30
0.0
 10
0.7322992125984252
 20
0.9695787401574804
 30
0.0
 10
0.7231338582677166
 20
0.9825236220472441
 30
0.0
 10
0.711744094488189
 20
0.9889685039370079
 30
0.0
 10
0.6980787401574804
 20
0.9889685039370079
 30
0.0
 10
0.6980787401574804
 20
0.9889685039370079
 30
0.0
 10
0.6845787401574803
 20
0.9889685039370079
 30
0.0
 10
0.6738543307086614
 20
0.9832440944881891
 30
0.0
 10
0.6657992125984252
 20
0.9718582677165355
 30
0.0
 10
0.6657992125984252
 20
0.9718582677165355
 30
0.0
 10
0.655744094488189
 20
0.9573582677165354
 30
0.0
 10
0.6506889763779528
 20
0.9304685039370079
 30
0.0
 10
0.6506889763779528
 20
0.8912992125984253
 30
0.0
  0
SPLINE
  5
8F
330
1F
100
AcDbEntity
  8
Capa 1
 62
   250
100
AcDbSpline
210
0.0
220
0.0
230
1.0
 70
    11
 71
     3
 72
    52
 73
    48
 74
     0
 42
0.0000000001
 43
0.0000000001
 40
0.0
 40
0.0
 40
0.0
 40
0.0
 40
0.0833333333333333
 40
0.0833333333333333
 40
0.0833333333333333
 40
0.0833333333333333
 40
0.1666666666666667
 40
0.1666666666666667
 40
0.1666666666666667
 40
0.1666666666666667
 40
0.25
 40
0.25
 40
0.25
 40
0.25
 40
0.3333333333333333
 40
0.3333333333333333
 40
0.3333333333333333
 40
0.3333333333333333
 40
0.4166666666666666
 40
0.4166666666666666
 40
0.4166666666666666
 40
0.4166666666666666
 40
0.4999999999999999
 40
0.4999999999999999
 40
0.4999999999999999
 40
0.4999999999999999
 40
0.5833333333333333
 40
0.5833333333333333
 40
0.5833333333333333
 40
0.5833333333333333
 40
0.6666666666666666
 40
0.6666666666666666
 40
0.6666666666666666
 40
0.6666666666666666
 40
0.75
 40
0.75
 40
0.75
 40
0.75
 40
0.8333333333333334
 40
0.8333333333333334
 40
0.8333333333333334
 40
0.8333333333333334
 40
0.9166666666666667
 40
0.9166666666666667
 40
0.9166666666666667
 40
0.9166666666666667
 40
1.0
 40
1.0
 40
1.0
 40
1.0
 10
0.8059685039370079
 20
0.8912992125984253
 30
0.0
 10
0.8059685039370079
 20
0.9195236220472441
 30
0.0
 10
0.8088543307086614
 20
0.942244094488189
 30
0.0
 10
0.8146889763779528
 20
0.9594133858267717
 30
0.0
 10
0.8146889763779528
 20
0.9594133858267717
 30
0.0
 10
0.8204685039370079
 20
0.9766338582677165
 30
0.0
 10
0.8291338582677166
 20
0.9899133858267717
 30
0.0
 10
0.8405787401574804
 20
0.999244094488189
 30
0.0
 10
0.8405787401574804
 20
0.999244094488189
 30
0.0
 10
0.8520236220472441
 20
1.00857874015748
 30
0.0
 10
0.8664133858267716
 20
1.013244094488189
 30
0.0
 10
0.883744094488189
 20
1.013244094488189
 30
0.0
 10
0.883744094488189
 20
1.013244094488189
 30
0.0
 10
0.8965787401574804
 20
1.013244094488189
 30
0.0
 10
0.9077992125984252
 20
1.010633858267717
 30
0.0
 10
0.917468503937008
 20
1.005468503937008
 30
0.0
 10
0.917468503937008
 20
1.005468503937008
 30
0.0
 10
0.9271338582677166
 20
1.000358267716536
 30
0.0
 10
0.9350787401574804
 20
0.9929133858267717
 30
0.0
 10
0.9414133858267717
 20
0.9831889763779528
 30
0.0
 10
0.9414133858267717
 20
0.9831889763779528
 30
0.0
 10
0.9476889763779528
 20
0.9734685039370079
 30
0.0
 10
0.9526338582677166
 20
0.9616338582677165
 30
0.0
 10
0.9561889763779528
 20
0.9476889763779528
 30
0.0
 10
0.9561889763779528
 20
0.9476889763779528
 30
0.0
 10
0.9598031496062992
 20
0.933744094488189
 30
0.0
 10
0.9615787401574804
 20
0.9149685039370079
 30
0.0
 10
0.9615787401574804
 20
0.8912992125984253
 30
0.0
 10
0.9615787401574804
 20
0.8912992125984253
 30
0.0
 10
0.9615787401574804
 20
0.8632992125984252
 30
0.0
 10
0.9586889763779528
 20
0.840744094488189
 30
0.0
 10
0.9529685039370079
 20
0.8235236220472442
 30
0.0
 10
0.9529685039370079
 20
0.8235236220472442
 30
0.0
 10
0.9471889763779527
 20
0.8062992125984252
 30
0.0
 10
0.9385787401574803
 20
0.7930236220472441
 30
0.0
 10
0.9271338582677166
 20
0.7836338582677166
 30
0.0
 10
0.9271338582677166
 20
0.7836338582677166
 30
0.0
 10
0.9156889763779528
 20
0.774244094488189
 30
0.0
 10
0.901244094488189
 20
0.7695787401574803
 30
0.0
 10
0.883744094488189
 20
0.7695787401574803
 30
0.0
 10
0.883744094488189
 20
0.7695787401574803
 30
0.0
 10
0.860744094488189
 20
0.7695787401574803
 30
0.0
 10
0.8426889763779528
 20
0.7777992125984252
 30
0.0
 10
0.8295787401574803
 20
0.7942992125984252
 30
0.0
 10
0.8295787401574803
 20
0.7942992125984252
 30
0.0
 10
0.8138543307086614
 20
0.8141338582677166
 30
0.0
 10
0.8059685039370079
 20
0.8465236220472441
 30
0.0
 10
0.8059685039370079
 20
0.8912992125984253
 30
0.0
  0
SPLINE
  5
90
330
1F
100
AcDbEntity
  8
Capa 1
 62
   250
100
AcDbSpline
210
0.0
220
0.0
230
1.0
 70
    11
 71
     3
 72
    36
 73
    32
 74
     0
 42
0.0000000001
 43
0.0000000001
 40
0.0
 40
0.0
 40
0.0
 40
0.0
 40
0.125
 40
0.125
 40
0.125
 40
0.125
 40
0.25
 40
0.25
 40
0.25
 40
0.25
 40
0.375
 40
0.375
 40
0.375
 40
0.375
 40
0.5
 40
0.5
 40
0.5
 40
0.5
 40
0.625
 40
0.625
 40
0.625
 40
0.625
 40
0.75
 40
0.75
 40
0.75
 40
0.75
 40
0.875
 40
0.875
 40
0.875
 40
0.875
 40
1.0
 40
1.0
 40
1.0
 40
1.0
 10
0.8360787401574803
 20
0.8912992125984253
 30
0.0
 10
0.8360787401574803
 20
0.8521338582677166
 30
0.0
 10
0.8406889763779528
 20
0.8260787401574804
 30
0.0
 10
0.8498582677165355
 20
0.8130787401574804
 30
0.0
 10
0.8498582677165355
 20
0.8130787401574804
 30
0.0
 10
0.8590236220472441
 20
0.8001338582677166
 30
0.0
 10
0.8702992125984252
 20
0.7936338582677166
 30
0.0
 10
0.883744094488189
 20
0.7936338582677166
 30
0.0
 10
0.883744094488189
 20
0.7936338582677166
 30
0.0
 10
0.897244094488189
 20
0.7936338582677166
 30
0.0
 10
0.9085236220472441
 20
0.8001889763779528
 30
0.0
 10
0.9176889763779528
 20
0.8131889763779527
 30
0.0
 10
0.9176889763779528
 20
0.8131889763779527
 30
0.0
 10
0.9268582677165355
 20
0.8261889763779527
 30
0.0
 10
0.9314685039370079
 20
0.8522440944881891
 30
0.0
 10
0.9314685039370079
 20
0.8912992125984253
 30
0.0
 10
0.9314685039370079
 20
0.8912992125984253
 30
0.0
 10
0.9314685039370079
 20
0.9305787401574803
 30
0.0
 10
0.9268582677165355
 20
0.9566889763779528
 30
0.0
 10
0.9176889763779528
 20
0.9695787401574804
 30
0.0
 10
0.9176889763779528
 20
0.9695787401574804
 30
0.0
 10
0.9085236220472441
 20
0.9825236220472441
 30
0.0
 10
0.8971338582677165
 20
0.9889685039370079
 30
0.0
 10
0.8834685039370079
 20
0.9889685039370079
 30
0.0
 10
0.8834685039370079
 20
0.9889685039370079
 30
0.0
 10
0.8699685039370079
 20
0.9889685039370079
 30
0.0
 10
0.8592440944881891
 20
0.9832440944881891
 30
0.0
 10
0.8511889763779528
 20
0.9718582677165355
 30
0.0
 10
0.8511889763779528
 20
0.9718582677165355
 30
0.0
 10
0.8411338582677166
 20
0.9573582677165354
 30
0.0
 10
0.8360787401574803
 20
0.9304685039370079
 30
0.0
 10
0.8360787401574803
 20
0.8912992125984253
 30
0.0
  0
SPLINE
  5
91
330
1F
100
AcDbEntity
  8
Capa 1
 62
   250
100
AcDbSpline
210
0.0
220
0.0
230
1.0
 70
    11
 71
     3
 72
   116
 73
   112
 74
     0
 42
0.0000000001
 43
0.0000000001
 40
0.0
 40
0.0
 40
0.0
 40
0.0
 40
0.0357142857142857
 40
0.0357142857142857
 40
0.0357142857142857
 40
0.0357142857142857
 40
0.0714285714285714
 40
0.0714285714285714
 40
0.0714285714285714
 40
0.0714285714285714
 40
0.1071428571428571
 40
0.1071428571428571
 40
0.1071428571428571
 40
0.1071428571428571
 40
0.1428571428571429
 40
0.1428571428571429
 40
0.1428571428571429
 40
0.1428571428571429
 40
0.1785714285714286
 40
0.1785714285714286
 40
0.1785714285714286
 40
0.1785714285714286
 40
0.2142857142857143
 40
0.2142857142857143
 40
0.2142857142857143
 40
0.2142857142857143
 40
0.2499999999999999
 40
0.2499999999999999
 40
0.2499999999999999
 40
0.2499999999999999
 40
0.2857142857142856
 40
0.2857142857142856
 40
0.2857142857142856
 40
0.2857142857142856
 40
0.3214285714285713
 40
0.3214285714285713
 40
0.3214285714285713
 40
0.3214285714285713
 40
0.357142857142857
 40
0.357142857142857
 40
0.357142857142857
 40
0.357142857142857
 40
0.3928571428571427
 40
0.3928571428571427
 40
0.3928571428571427
 40
0.3928571428571427
 40
0.4285714285714284
 40
0.4285714285714284
 40
0.4285714285714284
 40
0.4285714285714284
 40
0.4642857142857141
 40
0.4642857142857141
 40
0.4642857142857141
 40
0.4642857142857141
 40
0.4999999999999998
 40
0.4999999999999998
 40
0.4999999999999998
 40
0.4999999999999998
 40
0.5357142857142856
 40
0.5357142857142856
 40
0.5357142857142856
 40
0.5357142857142856
 40
0.5714285714285713
 40
0.5714285714285713
 40
0.5714285714285713
 40
0.5714285714285713
 40
0.607142857142857
 40
0.607142857142857
 40
0.607142857142857
 40
0.607142857142857
 40
0.6428571428571427
 40
0.6428571428571427
 40
0.6428571428571427
 40
0.6428571428571427
 40
0.6785714285714284
 40
0.6785714285714284
 40
0.6785714285714284
 40
0.6785714285714284
 40
0.7142857142857141
 40
0.7142857142857141
 40
0.7142857142857141
 40
0.7142857142857141
 40
0.7499999999999998
 40
0.7499999999999998
 40
0.7499999999999998
 40
0.7499999999999998
 40
0.7857142857142855
 40
0.7857142857142855
 40
0.7857142857142855
 40
0.7857142857142855
 40
0.8214285714285712
 40
0.8214285714285712
 40
0.8214285714285712
 40
0.8214285714285712
 40
0.8571428571428569
 40
0.8571428571428569
 40
0.8571428571428569
 40
0.8571428571428569
 40
0.8928571428571426
 40
0.8928571428571426
 40
0.8928571428571426
 40
0.8928571428571426
 40
0.9285714285714283
 40
0.9285714285714283
 40
0.9285714285714283
 40
0.9285714285714283
 40
0.964285714285714
 40
0.964285714285714
 40
0.964285714285714
 40
0.964285714285714
 40
1.0
 40
1.0
 40
1.0
 40
1.0
 10
1.092133858267717
 20
0.7736338582677166
 30
0.0
 10
1.092133858267717
 20
0.7736338582677166
 30
0.0
 10
1.092133858267717
 20
0.9464685039370079
 30
0.0
 10
1.092133858267717
 20
0.9464685039370079
 30
0.0
 10
1.092133858267717
 20
0.9464685039370079
 30
0.0
 10
1.092133858267717
 20
0.9464685039370079
 30
0.0
 10
1.118299212598425
 20
0.9464685039370079
 30
0.0
 10
1.118299212598425
 20
0.9464685039370079
 30
0.0
 10
1.118299212598425
 20
0.9464685039370079
 30
0.0
 10
1.118299212598425
 20
0.9464685039370079
 30
0.0
 10
1.118299212598425
 20
0.922244094488189
 30
0.0
 10
1.118299212598425
 20
0.922244094488189
 30
0.0
 10
1.118299212598425
 20
0.922244094488189
 30
0.0
 10
1.123744094488189
 20
0.9306889763779528
 30
0.0
 10
1.130968503937008
 20
0.9375236220472442
 30
0.0
 10
1.139968503937008
 20
0.9426338582677166
 30
0.0
 10
1.139968503937008
 20
0.9426338582677166
 30
0.0
 10
1.148968503937008
 20
0.9478031496062993
 30
0.0
 10
1.159244094488189
 20
0.9504133858267717
 30
0.0
 10
1.170744094488189
 20
0.9504133858267717
 30
0.0
 10
1.170744094488189
 20
0.9504133858267717
 30
0.0
 10
1.183523622047244
 20
0.9504133858267717
 30
0.0
 10
1.194023622047244
 20
0.947744094488189
 30
0.0
 10
1.202188976377953
 20
0.9424133858267717
 30
0.0
 10
1.202188976377953
 20
0.9424133858267717
 30
0.0
 10
1.210413385826772
 20
0.9370787401574804
 30
0.0
 10
1.216188976377953
 20
0.9296889763779528
 30
0.0
 10
1.219523622047244
 20
0.9201338582677165
 30
0.0
 10
1.219523622047244
 20
0.9201338582677165
 30
0.0
 10
1.233244094488189
 20
0.9403031496062992
 30
0.0
 10
1.251023622047244
 20
0.9504133858267717
 30
0.0
 10
1.272913385826772
 20
0.9504133858267717
 30
0.0
 10
1.272913385826772
 20
0.9504133858267717
 30
0.0
 10
1.290078740157481
 20
0.9504133858267717
 30
0.0
 10
1.303244094488189
 20
0.9456338582677166
 30
0.0
 10
1.312468503937008
 20
0.9361338582677166
 30
0.0
 10
1.312468503937008
 20
0.9361338582677166
 30
0.0
 10
1.321688976377953
 20
0.9266338582677166
 30
0.0
 10
1.326303149606299
 20
0.9120236220472441
 30
0.0
 10
1.326303149606299
 20
0.8922992125984253
 30
0.0
 10
1.326303149606299
 20
0.8922992125984253
 30
0.0
 10
1.326303149606299
 20
0.8922992125984253
 30
0.0
 10
1.326303149606299
 20
0.7736338582677166
 30
0.0
 10
1.326303149606299
 20
0.7736338582677166
 30
0.0
 10
1.326303149606299
 20
0.7736338582677166
 30
0.0
 10
1.326303149606299
 20
0.7736338582677166
 30
0.0
 10
1.297188976377953
 20
0.7736338582677166
 30
0.0
 10
1.297188976377953
 20
0.7736338582677166
 30
0.0
 10
1.297188976377953
 20
0.7736338582677166
 30
0.0
 10
1.297188976377953
 20
0.7736338582677166
 30
0.0
 10
1.297188976377953
 20
0.8825236220472441
 30
0.0
 10
1.297188976377953
 20
0.8825236220472441
 30
0.0
 10
1.297188976377953
 20
0.8825236220472441
 30
0.0
 10
1.297188976377953
 20
0.894244094488189
 30
0.0
 10
1.296244094488189
 20
0.9026889763779528
 30
0.0
 10
1.294358267716536
 20
0.9078582677165354
 30
0.0
 10
1.294358267716536
 20
0.9078582677165354
 30
0.0
 10
1.292413385826772
 20
0.9129685039370079
 30
0.0
 10
1.288968503937008
 20
0.9171338582677165
 30
0.0
 10
1.284023622047244
 20
0.9202992125984253
 30
0.0
 10
1.284023622047244
 20
0.9202992125984253
 30
0.0
 10
1.279023622047244
 20
0.9234133858267717
 30
0.0
 10
1.273133858267717
 20
0.9250236220472441
 30
0.0
 10
1.266413385826772
 20
0.9250236220472441
 30
0.0
 10
1.266413385826772
 20
0.9250236220472441
 30
0.0
 10
1.254244094488189
 20
0.9250236220472441
 30
0.0
 10
1.244188976377953
 20
0.9209685039370079
 30
0.0
 10
1.236133858267717
 20
0.9128582677165354
 30
0.0
 10
1.236133858267717
 20
0.9128582677165354
 30
0.0
 10
1.228133858267717
 20
0.9047992125984252
 30
0.0
 10
1.22407874015748
 20
0.8918582677165354
 30
0.0
 10
1.22407874015748
 20
0.8740787401574803
 30
0.0
 10
1.22407874015748
 20
0.8740787401574803
 30
0.0
 10
1.22407874015748
 20
0.8740787401574803
 30
0.0
 10
1.22407874015748
 20
0.7736338582677166
 30
0.0
 10
1.22407874015748
 20
0.7736338582677166
 30
0.0
 10
1.22407874015748
 20
0.7736338582677166
 30
0.0
 10
1.22407874015748
 20
0.7736338582677166
 30
0.0
 10
1.194799212598425
 20
0.7736338582677166
 30
0.0
 10
1.194799212598425
 20
0.7736338582677166
 30
0.0
 10
1.194799212598425
 20
0.7736338582677166
 30
0.0
 10
1.194799212598425
 20
0.7736338582677166
 30
0.0
 10
1.194799212598425
 20
0.8859133858267717
 30
0.0
 10
1.194799212598425
 20
0.8859133858267717
 30
0.0
 10
1.194799212598425
 20
0.8859133858267717
 30
0.0
 10
1.194799212598425
 20
0.8989685039370079
 30
0.0
 10
1.192413385826772
 20
0.9087440944881891
 30
0.0
 10
1.187633858267717
 20
0.915244094488189
 30
0.0
 10
1.187633858267717
 20
0.915244094488189
 30
0.0
 10
1.182858267716536
 20
0.9217440944881891
 30
0.0
 10
1.17507874015748
 20
0.9250236220472441
 30
0.0
 10
1.164188976377953
 20
0.9250236220472441
 30
0.0
 10
1.164188976377953
 20
0.9250236220472441
 30
0.0
 10
1.155968503937008
 20
0.9250236220472441
 30
0.0
 10
1.148358267716535
 20
0.9228582677165355
 30
0.0
 10
1.141358267716536
 20
0.918468503937008
 30
0.0
 10
1.141358267716536
 20
0.918468503937008
 30
0.0
 10
1.134358267716536
 20
0.9141338582677165
 30
0.0
 10
1.129244094488189
 20
0.9077992125984252
 30
0.0
 10
1.126133858267717
 20
0.899468503937008
 30
0.0
 10
1.126133858267717
 20
0.899468503937008
 30
0.0
 10
1.122968503937008
 20
0.8910787401574803
 30
0.0
 10
1.121413385826772
 20
0.8790236220472442
 30
0.0
 10
1.121413385826772
 20
0.8632992125984252
 30
0.0
 10
1.121413385826772
 20
0.8632992125984252
 30
0.0
 10
1.121413385826772
 20
0.8632992125984252
 30
0.0
 10
1.121413385826772
 20
0.7736338582677166
 30
0.0
 10
1.121413385826772
 20
0.7736338582677166
 30
0.0
 10
1.121413385826772
 20
0.7736338582677166
 30
0.0
 10
1.121413385826772
 20
0.7736338582677166
 30
0.0
 10
1.092133858267717
 20
0.7736338582677166
 30
0.0
 10
1.092133858267717
 20
0.7736338582677166
 30
0.0
  0
SPLINE
  5
92
330
1F
100
AcDbEntity
  8
Capa 1
 62
   250
100
AcDbSpline
210
0.0
220
0.0
230
1.0
 70
    11
 71
     3
 72
   116
 73
   112
 74
     0
 42
0.0000000001
 43
0.0000000001
 40
0.0
 40
0.0
 40
0.0
 40
0.0
 40
0.0357142857142857
 40
0.0357142857142857
 40
0.0357142857142857
 40
0.0357142857142857
 40
0.0714285714285714
 40
0.0714285714285714
 40
0.0714285714285714
 40
0.0714285714285714
 40
0.1071428571428571
 40
0.1071428571428571
 40
0.1071428571428571
 40
0.1071428571428571
 40
0.1428571428571429
 40
0.1428571428571429
 40
0.1428571428571429
 40
0.1428571428571429
 40
0.1785714285714286
 40
0.1785714285714286
 40
0.1785714285714286
 40
0.1785714285714286
 40
0.2142857142857143
 40
0.2142857142857143
 40
0.2142857142857143
 40
0.2142857142857143
 40
0.2499999999999999
 40
0.2499999999999999
 40
0.2499999999999999
 40
0.2499999999999999
 40
0.2857142857142856
 40
0.2857142857142856
 40
0.2857142857142856
 40
0.2857142857142856
 40
0.3214285714285713
 40
0.3214285714285713
 40
0.3214285714285713
 40
0.3214285714285713
 40
0.357142857142857
 40
0.357142857142857
 40
0.357142857142857
 40
0.357142857142857
 40
0.3928571428571427
 40
0.3928571428571427
 40
0.3928571428571427
 40
0.3928571428571427
 40
0.4285714285714284
 40
0.4285714285714284
 40
0.4285714285714284
 40
0.4285714285714284
 40
0.4642857142857141
 40
0.4642857142857141
 40
0.4642857142857141
 40
0.4642857142857141
 40
0.4999999999999998
 40
0.4999999999999998
 40
0.4999999999999998
 40
0.4999999999999998
 40
0.5357142857142856
 40
0.5357142857142856
 40
0.5357142857142856
 40
0.5357142857142856
 40
0.5714285714285713
 40
0.5714285714285713
 40
0.5714285714285713
 40
0.5714285714285713
 40
0.607142857142857
 40
0.607142857142857
 40
0.607142857142857
 40
0.607142857142857
 40
0.6428571428571427
 40
0.6428571428571427
 40
0.6428571428571427
 40
0.6428571428571427
 40
0.6785714285714284
 40
0.6785714285714284
 40
0.6785714285714284
 40
0.6785714285714284
 40
0.7142857142857141
 40
0.7142857142857141
 40
0.7142857142857141
 40
0.7142857142857141
 40
0.7499999999999998
 40
0.7499999999999998
 40
0.7499999999999998
 40
0.7499999999999998
 40
0.7857142857142855
 40
0.7857142857142855
 40
0.7857142857142855
 40
0.7857142857142855
 40
0.8214285714285712
 40
0.8214285714285712
 40
0.8214285714285712
 40
0.8214285714285712
 40
0.8571428571428569
 40
0.8571428571428569
 40
0.8571428571428569
 40
0.8571428571428569
 40
0.8928571428571426
 40
0.8928571428571426
 40
0.8928571428571426
 40
0.8928571428571426
 40
0.9285714285714283
 40
0.9285714285714283
 40
0.9285714285714283
 40
0.9285714285714283
 40
0.964285714285714
 40
0.964285714285714
 40
0.964285714285714
 40
0.964285714285714
 40
1.0
 40
1.0
 40
1.0
 40
1.0
 10
1.369803149606299
 20
0.7736338582677166
 30
0.0
 10
1.369803149606299
 20
0.7736338582677166
 30
0.0
 10
1.369803149606299
 20
0.9464685039370079
 30
0.0
 10
1.369803149606299
 20
0.9464685039370079
 30
0.0
 10
1.369803149606299
 20
0.9464685039370079
 30
0.0
 10
1.369803149606299
 20
0.9464685039370079
 30
0.0
 10
1.395968503937008
 20
0.9464685039370079
 30
0.0
 10
1.395968503937008
 20
0.9464685039370079
 30
0.0
 10
1.395968503937008
 20
0.9464685039370079
 30
0.0
 10
1.395968503937008
 20
0.9464685039370079
 30
0.0
 10
1.395968503937008
 20
0.922244094488189
 30
0.0
 10
1.395968503937008
 20
0.922244094488189
 30
0.0
 10
1.395968503937008
 20
0.922244094488189
 30
0.0
 10
1.401413385826772
 20
0.9306889763779528
 30
0.0
 10
1.408637795275591
 20
0.9375236220472442
 30
0.0
 10
1.417637795275591
 20
0.9426338582677166
 30
0.0
 10
1.417637795275591
 20
0.9426338582677166
 30
0.0
 10
1.426637795275591
 20
0.9478031496062993
 30
0.0
 10
1.436913385826772
 20
0.9504133858267717
 30
0.0
 10
1.448413385826772
 20
0.9504133858267717
 30
0.0
 10
1.448413385826772
 20
0.9504133858267717
 30
0.0
 10
1.461192913385827
 20
0.9504133858267717
 30
0.0
 10
1.471692913385827
 20
0.947744094488189
 30
0.0
 10
1.479858267716536
 20
0.9424133858267717
 30
0.0
 10
1.479858267716536
 20
0.9424133858267717
 30
0.0
 10
1.488082677165354
 20
0.9370787401574804
 30
0.0
 10
1.493858267716536
 20
0.9296889763779528
 30
0.0
 10
1.497192913385827
 20
0.9201338582677165
 30
0.0
 10
1.497192913385827
 20
0.9201338582677165
 30
0.0
 10
1.510913385826772
 20
0.9403031496062992
 30
0.0
 10
1.528692913385827
 20
0.9504133858267717
 30
0.0
 10
1.550582677165354
 20
0.9504133858267717
 30
0.0
 10
1.550582677165354
 20
0.9504133858267717
 30
0.0
 10
1.567748031496063
 20
0.9504133858267717
 30
0.0
 10
1.580913385826772
 20
0.9456338582677166
 30
0.0
 10
1.590137795275591
 20
0.9361338582677166
 30
0.0
 10
1.590137795275591
 20
0.9361338582677166
 30
0.0
 10
1.599358267716535
 20
0.9266338582677166
 30
0.0
 10
1.603972440944882
 20
0.9120236220472441
 30
0.0
 10
1.603972440944882
 20
0.8922992125984253
 30
0.0
 10
1.603972440944882
 20
0.8922992125984253
 30
0.0
 10
1.603972440944882
 20
0.8922992125984253
 30
0.0
 10
1.603972440944882
 20
0.7736338582677166
 30
0.0
 10
1.603972440944882
 20
0.7736338582677166
 30
0.0
 10
1.603972440944882
 20
0.7736338582677166
 30
0.0
 10
1.603972440944882
 20
0.7736338582677166
 30
0.0
 10
1.574858267716536
 20
0.7736338582677166
 30
0.0
 10
1.574858267716536
 20
0.7736338582677166
 30
0.0
 10
1.574858267716536
 20
0.7736338582677166
 30
0.0
 10
1.574858267716536
 20
0.7736338582677166
 30
0.0
 10
1.574858267716536
 20
0.8825236220472441
 30
0.0
 10
1.574858267716536
 20
0.8825236220472441
 30
0.0
 10
1.574858267716536
 20
0.8825236220472441
 30
0.0
 10
1.574858267716536
 20
0.894244094488189
 30
0.0
 10
1.573913385826772
 20
0.9026889763779528
 30
0.0
 10
1.572027559055118
 20
0.9078582677165354
 30
0.0
 10
1.572027559055118
 20
0.9078582677165354
 30
0.0
 10
1.570082677165354
 20
0.9129685039370079
 30
0.0
 10
1.566637795275591
 20
0.9171338582677165
 30
0.0
 10
1.561692913385827
 20
0.9202992125984253
 30
0.0
 10
1.561692913385827
 20
0.9202992125984253
 30
0.0
 10
1.556692913385827
 20
0.9234133858267717
 30
0.0
 10
1.550803149606299
 20
0.9250236220472441
 30
0.0
 10
1.544082677165354
 20
0.9250236220472441
 30
0.0
 10
1.544082677165354
 20
0.9250236220472441
 30
0.0
 10
1.531913385826772
 20
0.9250236220472441
 30
0.0
 10
1.521858267716536
 20
0.9209685039370079
 30
0.0
 10
1.513803149606299
 20
0.9128582677165354
 30
0.0
 10
1.513803149606299
 20
0.9128582677165354
 30
0.0
 10
1.505803149606299
 20
0.9047992125984252
 30
0.0
 10
1.501748031496063
 20
0.8918582677165354
 30
0.0
 10
1.501748031496063
 20
0.8740787401574803
 30
0.0
 10
1.501748031496063
 20
0.8740787401574803
 30
0.0
 10
1.501748031496063
 20
0.8740787401574803
 30
0.0
 10
1.501748031496063
 20
0.7736338582677166
 30
0.0
 10
1.501748031496063
 20
0.7736338582677166
 30
0.0
 10
1.501748031496063
 20
0.7736338582677166
 30
0.0
 10
1.501748031496063
 20
0.7736338582677166
 30
0.0
 10
1.472468503937008
 20
0.7736338582677166
 30
0.0
 10
1.472468503937008
 20
0.7736338582677166
 30
0.0
 10
1.472468503937008
 20
0.7736338582677166
 30
0.0
 10
1.472468503937008
 20
0.7736338582677166
 30
0.0
 10
1.472468503937008
 20
0.8859133858267717
 30
0.0
 10
1.472468503937008
 20
0.8859133858267717
 30
0.0
 10
1.472468503937008
 20
0.8859133858267717
 30
0.0
 10
1.472468503937008
 20
0.8989685039370079
 30
0.0
 10
1.470082677165354
 20
0.9087440944881891
 30
0.0
 10
1.465303149606299
 20
0.915244094488189
 30
0.0
 10
1.465303149606299
 20
0.915244094488189
 30
0.0
 10
1.460527559055118
 20
0.9217440944881891
 30
0.0
 10
1.452748031496063
 20
0.9250236220472441
 30
0.0
 10
1.441858267716536
 20
0.9250236220472441
 30
0.0
 10
1.441858267716536
 20
0.9250236220472441
 30
0.0
 10
1.433637795275591
 20
0.9250236220472441
 30
0.0
 10
1.426027559055118
 20
0.9228582677165355
 30
0.0
 10
1.419027559055118
 20
0.918468503937008
 30
0.0
 10
1.419027559055118
 20
0.918468503937008
 30
0.0
 10
1.412027559055118
 20
0.9141338582677165
 30
0.0
 10
1.406913385826772
 20
0.9077992125984252
 30
0.0
 10
1.403803149606299
 20
0.899468503937008
 30
0.0
 10
1.403803149606299
 20
0.899468503937008
 30
0.0
 10
1.400637795275591
 20
0.8910787401574803
 30
0.0
 10
1.399082677165354
 20
0.8790236220472442
 30
0.0
 10
1.399082677165354
 20
0.8632992125984252
 30
0.0
 10
1.399082677165354
 20
0.8632992125984252
 30
0.0
 10
1.399082677165354
 20
0.8632992125984252
 30
0.0
 10
1.399082677165354
 20
0.7736338582677166
 30
0.0
 10
1.399082677165354
 20
0.7736338582677166
 30
0.0
 10
1.399082677165354
 20
0.7736338582677166
 30
0.0
 10
1.399082677165354
 20
0.7736338582677166
 30
0.0
 10
1.369803149606299
 20
0.7736338582677166
 30
0.0
 10
1.369803149606299
 20
0.7736338582677166
 30
0.0
  0
ENDSEC
  0
SECTION
  2
OBJECTS
  0
DICTIONARY
  5
C
330
0
100
AcDbDictionary
281
     1
  3
ACAD_GROUP
350
D
  3
ACAD_LAYOUT
350
1A
  3
ACAD_MLINESTYLE
350
17
  3
ACAD_PLOTSETTINGS
350
19
  3
ACAD_PLOTSTYLENAME
350
E
  0
DICTIONARY
  5
D
102
{ACAD_REACTORS
330
C
102
}
330
C
100
AcDbDictionary
281
     1
  0
DICTIONARY
  5
1A
102
{ACAD_REACTORS
330
C
102
}
330
C
100
AcDbDictionary
281
     1
  3
Layout1
350
1E
  3
Layout2
350
26
  3
Model
350
22
  0
DICTIONARY
  5
17
102
{ACAD_REACTORS
330
C
102
}
330
C
100
AcDbDictionary
281
     1
  3
Standard
350
18
  0
DICTIONARY
  5
19
102
{ACAD_REACTORS
330
C
102
}
330
C
100
AcDbDictionary
281
     1
  0
ACDBDICTIONARYWDFLT
  5
E
102
{ACAD_REACTORS
330
C
102
}
330
C
100
AcDbDictionary
281
     1
  3
Normal
350
F
100
AcDbDictionaryWithDefault
340
F
  0
LAYOUT
  5
1E
102
{ACAD_REACTORS
330
1A
102
}
330
1A
100
AcDbPlotSettings
  1

  2

  4

  6

 40
0.0
 41
0.0
 42
0.0
 43
0.0
 44
0.0
 45
0.0
 46
0.0
 47
0.0
 48
0.0
 49
0.0
140
0.0
141
0.0
142
1.0
143
1.0
 70
   688
 72
     0
 73
     0
 74
     5
  7

 75
    16
 76
     0
 77
     2
 78
   300
147
1.0
148
0.0
149
0.0
100
AcDbLayout
  1
Layout1
 70
     1
 71
     1
 10
0.0
 20
0.0
 11
12.0
 21
9.0
 12
0.0
 22
0.0
 32
0.0
 14
1.000000000000000E+20
 24
1.000000000000000E+20
 34
1.000000000000000E+20
 15
-1.000000000000000E+20
 25
-1.000000000000000E+20
 35
-1.000000000000000E+20
146
0.0
 13
0.0
 23
0.0
 33
0.0
 16
1.0
 26
0.0
 36
0.0
 17
0.0
 27
1.0
 37
0.0
 76
     0
330
1B
  0
LAYOUT
  5
26
102
{ACAD_REACTORS
330
1A
102
}
330
1A
100
AcDbPlotSettings
  1

  2

  4

  6

 40
0.0
 41
0.0
 42
0.0
 43
0.0
 44
0.0
 45
0.0
 46
0.0
 47
0.0
 48
0.0
 49
0.0
140
0.0
141
0.0
142
1.0
143
1.0
 70
   688
 72
     0
 73
     0
 74
     5
  7

 75
    16
 76
     0
 77
     2
 78
   300
147
1.0
148
0.0
149
0.0
100
AcDbLayout
  1
Layout2
 70
     1
 71
     2
 10
0.0
 20
0.0
 11
0.0
 21
0.0
 12
0.0
 22
0.0
 32
0.0
 14
0.0
 24
0.0
 34
0.0
 15
0.0
 25
0.0
 35
0.0
146
0.0
 13
0.0
 23
0.0
 33
0.0
 16
1.0
 26
0.0
 36
0.0
 17
0.0
 27
1.0
 37
0.0
 76
     0
330
23
  0
LAYOUT
  5
22
102
{ACAD_REACTORS
330
1A
102
}
330
1A
100
AcDbPlotSettings
  1

  2

  4

  6

 40
0.0
 41
0.0
 42
0.0
 43
0.0
 44
0.0
 45
0.0
 46
0.0
 47
0.0
 48
0.0
 49
0.0
140
0.0
141
0.0
142
1.0
143
1.0
 70
  1712
 72
     0
 73
     0
 74
     0
  7

 75
     0
 76
     0
 77
     2
 78
   300
147
1.0
148
0.0
149
0.0
100
AcDbLayout
  1
Model
 70
     1
 71
     0
 10
0.0
 20
0.0
 11
0.0
 21
0.0
 12
0.0
 22
0.0
 32
0.0
 14
-9.131874015748032
 24
-4.356633858267717
 34
0.0
 15
8.900389763779527
 25
5.056755905511811
 35
0.0
146
0.0
 13
0.0
 23
0.0
 33
0.0
 16
1.0
 26
0.0
 36
0.0
 17
0.0
 27
1.0
 37
0.0
 76
     0
330
1F
  0
MLINESTYLE
  5
18
102
{ACAD_REACTORS
330
17
102
}
330
17
100
AcDbMlineStyle
  2
Standard
 70
     0
  3

 62
   256
 51
90.0
 52
90.0
 71
     2
 49
0.5
 62
   256
  6
BYLAYER
 49
-0.5
 62
   256
  6
BYLAYER
  0
ACDBPLACEHOLDER
  5
F
102
{ACAD_REACTORS
330
E
102
}
330
E
  0
ENDSEC
  0
EOF
