  0
SECTION
  2
HEADER
  9
$ACADVER
  1
AC1015
  9
$ACADMAINTVER
 70
     6
  9
$DWGCODEPAGE
  3
ANSI_1252
  9
$INSBASE
 10
0.0
 20
0.0
 30
0.0
  9
$EXTMIN
 10
0.0
 20
0.0
 30
0.0
  9
$EXTMAX
 10
420.0
 20
297.0
 30
0.0
  9
$LIMMIN
 10
0.0
 20
0.0
  9
$LIMMAX
 10
420.0
 20
297.0
  9
$ORTHOMODE
 70
     0
  9
$REGENMODE
 70
     1
  9
$FILLMODE
 70
     1
  9
$QTEXTMODE
 70
     0
  9
$MIRRTEXT
 70
     1
  9
$LTSCALE
 40
1.0
  9
$ATTMODE
 70
     1
  9
$TEXTSIZE
 40
0.2
  9
$TRACEWID
 40
0.05
  9
$TEXTSTYLE
  7
Standard
  9
$CLAYER
  8
0
  9
$CELTYPE
  6
ByLayer
  9
$CECOLOR
 62
   256
  9
$CELTSCALE
 40
25.4
  9
$DISPSILH
 70
     0
  9
$DIMSCALE
 40
1.0
  9
$DIMASZ
 40
0.18
  9
$DIMEXO
 40
0.0625
  9
$DIMDLI
 40
0.38
  9
$DIMRND
 40
0.0
  9
$DIMDLE
 40
0.0
  9
$DIMEXE
 40
0.18
  9
$DIMTP
 40
0.0
  9
$DIMTM
 40
0.0
  9
$DIMTXT
 40
0.18
  9
$DIMCEN
 40
0.09
  9
$DIMTSZ
 40
0.0
  9
$DIMTOL
 70
     0
  9
$DIMLIM
 70
     0
  9
$DIMTIH
 70
     1
  9
$DIMTOH
 70
     1
  9
$DIMSE1
 70
     0
  9
$DIMSE2
 70
     0
  9
$DIMTAD
 70
     0
  9
$DIMZIN
 70
     0
  9
$DIMBLK
  1

  9
$DIMASO
 70
     1
  9
$DIMSHO
 70
     1
  9
$DIMPOST
  1

  9
$DIMAPOST
  1

  9
$DIMALT
 70
     0
  9
$DIMALTD
 70
     2
  9
$DIMALTF
 40
25.4
  9
$DIMLFAC
 40
1.0
  9
$DIMTOFL
 70
     0
  9
$DIMTVP
 40
0.0
  9
$DIMTIX
 70
     0
  9
$DIMSOXD
 70
     0
  9
$DIMSAH
 70
     0
  9
$DIMBLK1
  1

  9
$DIMBLK2
  1

  9
$DIMSTYLE
  2
Standard
  9
$DIMCLRD
 70
     0
  9
$DIMCLRE
 70
     0
  9
$DIMCLRT
 70
     0
  9
$DIMTFAC
 40
1.0
  9
$DIMGAP
 40
0.09
  9
$DIMJUST
 70
     0
  9
$DIMSD1
 70
     0
  9
$DIMSD2
 70
     0
  9
$DIMTOLJ
 70
     1
  9
$DIMTZIN
 70
     0
  9
$DIMALTZ
 70
     0
  9
$DIMALTTZ
 70
     0
  9
$DIMUPT
 70
     0
  9
$DIMDEC
 70
     4
  9
$DIMTDEC
 70
     4
  9
$DIMALTU
 70
     2
  9
$DIMALTTD
 70
     2
  9
$DIMTXSTY
  7
Standard
  9
$DIMAUNIT
 70
     0
  9
$DIMADEC
 70
     0
  9
$DIMALTRND
 40
0.0
  9
$DIMAZIN
 70
     0
  9
$DIMDSEP
 70
    46
  9
$DIMATFIT
 70
     3
  9
$DIMFRAC
 70
     0
  9
$DIMLDRBLK
  1

  9
$DIMLUNIT
 70
     2
  9
$DIMLWD
 70
    -2
  9
$DIMLWE
 70
    -2
  9
$DIMTMOVE
 70
     0
  9
$LUNITS
 70
     2
  9
$LUPREC
 70
     4
  9
$SKETCHINC
 40
0.1
  9
$FILLETRAD
 40
0.5
  9
$AUNITS
 70
     0
  9
$AUPREC
 70
     0
  9
$MENU
  1
.
  9
$ELEVATION
 40
0.0
  9
$PELEVATION
 40
0.0
  9
$THICKNESS
 40
0.0
  9
$LIMCHECK
 70
     0
  9
$CHAMFERA
 40
0.5
  9
$CHAMFERB
 40
0.5
  9
$CHAMFERC
 40
1.0
  9
$CHAMFERD
 40
0.0
  9
$SKPOLY
 70
     0
  9
$TDCREATE
 40
2456267.719284803
  9
$TDUCREATE
 40
2456267.927618137
  9
$TDUPDATE
 40
2456267.719284815
  9
$TDUUPDATE
 40
2456267.927618148
  9
$TDINDWG
 40
0.0000000116
  9
$TDUSRTIMER
 40
0.0000000116
  9
$USRTIMER
 70
     1
  9
$ANGBASE
 50
0.0
  9
$ANGDIR
 70
     0
  9
$PDMODE
 70
     0
  9
$PDSIZE
 40
0.0
  9
$PLINEWID
 40
0.0
  9
$SPLFRAME
 70
     0
  9
$SPLINETYPE
 70
     6
  9
$SPLINESEGS
 70
     8
  9
$HANDSEED
  5
91
  9
$SURFTAB1
 70
     6
  9
$SURFTAB2
 70
     6
  9
$SURFTYPE
 70
     6
  9
$SURFU
 70
     6
  9
$SURFV
 70
     6
  9
$UCSBASE
  2

  9
$UCSNAME
  2

  9
$UCSORG
 10
0.0
 20
0.0
 30
0.0
  9
$UCSXDIR
 10
1.0
 20
0.0
 30
0.0
  9
$UCSYDIR
 10
0.0
 20
1.0
 30
0.0
  9
$UCSORTHOREF
  2

  9
$UCSORTHOVIEW
 70
     0
  9
$UCSORGTOP
 10
0.0
 20
0.0
 30
0.0
  9
$UCSORGBOTTOM
 10
0.0
 20
0.0
 30
0.0
  9
$UCSORGLEFT
 10
0.0
 20
0.0
 30
0.0
  9
$UCSORGRIGHT
 10
0.0
 20
0.0
 30
0.0
  9
$UCSORGFRONT
 10
0.0
 20
0.0
 30
0.0
  9
$UCSORGBACK
 10
0.0
 20
0.0
 30
0.0
  9
$PUCSBASE
  2

  9
$PUCSNAME
  2

  9
$PUCSORG
 10
0.0
 20
0.0
 30
0.0
  9
$PUCSXDIR
 10
1.0
 20
0.0
 30
0.0
  9
$PUCSYDIR
 10
0.0
 20
1.0
 30
0.0
  9
$PUCSORTHOREF
  2

  9
$PUCSORTHOVIEW
 70
     0
  9
$PUCSORGTOP
 10
0.0
 20
0.0
 30
0.0
  9
$PUCSORGBOTTOM
 10
0.0
 20
0.0
 30
0.0
  9
$PUCSORGLEFT
 10
0.0
 20
0.0
 30
0.0
  9
$PUCSORGRIGHT
 10
0.0
 20
0.0
 30
0.0
  9
$PUCSORGFRONT
 10
0.0
 20
0.0
 30
0.0
  9
$PUCSORGBACK
 10
0.0
 20
0.0
 30
0.0
  9
$USERI1
 70
     0
  9
$USERI2
 70
     0
  9
$USERI3
 70
     0
  9
$USERI4
 70
     0
  9
$USERI5
 70
     0
  9
$USERR1
 40
0.0
  9
$USERR2
 40
0.0
  9
$USERR3
 40
0.0
  9
$USERR4
 40
0.0
  9
$USERR5
 40
0.0
  9
$WORLDVIEW
 70
     1
  9
$SHADEDGE
 70
     3
  9
$SHADEDIF
 70
    70
  9
$TILEMODE
 70
     1
  9
$MAXACTVP
 70
    64
  9
$PINSBASE
 10
0.0
 20
0.0
 30
0.0
  9
$PLIMCHECK
 70
     0
  9
$PEXTMIN
 10
0.0
 20
0.0
 30
0.0
  9
$PEXTMAX
 10
420.0
 20
297.0
 30
0.0
  9
$PLIMMIN
 10
0.0
 20
0.0
  9
$PLIMMAX
 10
420.0
 20
297.0
  9
$UNITMODE
 70
     0
  9
$VISRETAIN
 70
     1
  9
$PLINEGEN
 70
     0
  9
$PSLTSCALE
 70
     1
  9
$TREEDEPTH
 70
  3020
  9
$CMLSTYLE
  2
Standard
  9
$CMLJUST
 70
     0
  9
$CMLSCALE
 40
1.0
  9
$PROXYGRAPHICS
 70
     1
  9
$MEASUREMENT
 70
     1
  9
$CELWEIGHT
370
    -1
  9
$ENDCAPS
280
     0
  9
$JOINSTYLE
280
     0
  9
$LWDISPLAY
290
     0
  9
$INSUNITS
 70
     1
  9
$HYPERLINKBASE
  1

  9
$STYLESHEET
  1

  9
$XEDIT
290
     1
  9
$CEPSNTYPE
380
     0
  9
$PSTYLEMODE
290
     1
  9
$FINGERPRINTGUID
  2
{4BC3CC28-0318-4B8A-B6DC-F1ED4DB04296}
  9
$VERSIONGUID
  2
{FAEB1C32-E019-11D5-929B-00C0DF256EC4}
  9
$EXTNAMES
290
     1
  9
$PSVPSCALE
 40
0.0
  9
$OLESTARTUP
290
     0
  0
ENDSEC
  0
SECTION
  2
CLASSES
  0
CLASS
  1
ACDBDICTIONARYWDFLT
  2
AcDbDictionaryWithDefault
  3
ObjectDBX Classes
 90
        0
280
     0
281
     0
  0
CLASS
  1
ACDBPLACEHOLDER
  2
AcDbPlaceHolder
  3
ObjectDBX Classes
 90
        0
280
     0
281
     0
  0
CLASS
  1
LAYOUT
  2
AcDbLayout
  3
ObjectDBX Classes
 90
        0
280
     0
281
     0
  0
ENDSEC
  0
SECTION
  2
TABLES
  0
TABLE
  2
VPORT
  5
8
330
0
100
AcDbSymbolTable
 70
     1
  0
VPORT
  5
29
330
8
100
AcDbSymbolTableRecord
100
AcDbViewportTableRecord
  2
*Active
 70
     0
 10
0.0
 20
0.0
 11
1.0
 21
1.0
 12
10.4299065421
 22
4.5
 13
0.0
 23
0.0
 14
0.5
 24
0.5
 15
0.5
 25
0.5
 16
0.0
 26
0.0
 36
1.0
 17
0.0
 27
0.0
 37
0.0
 40
9.0
 41
1.9729729729
 42
50.0
 43
0.0
 44
0.0
 50
0.0
 51
0.0
 71
     0
 72
   100
 73
     1
 74
     3
 75
     0
 76
     0
 77
     0
 78
     0
281
     0
 65
     1
110
0.0
120
0.0
130
0.0
111
1.0
121
0.0
131
0.0
112
0.0
122
1.0
132
0.0
 79
     0
146
0.0
  0
ENDTAB
  0
TABLE
  2
LTYPE
  5
5
330
0
100
AcDbSymbolTable
 70
     2
  0
LTYPE
  5
14
330
5
100
AcDbSymbolTableRecord
100
AcDbLinetypeTableRecord
  2
ByBlock
 70
     0
  3

 72
    65
 73
     0
 40
0.0
  0
LTYPE
  5
15
330
5
100
AcDbSymbolTableRecord
100
AcDbLinetypeTableRecord
  2
ByLayer
 70
     0
  3

 72
    65
 73
     0
 40
0.0
  0
LTYPE
  5
16
330
5
100
AcDbSymbolTableRecord
100
AcDbLinetypeTableRecord
  2
Continuous
 70
     0
  3
Solid line
 72
    65
 73
     0
 40
0.0
  0
LTYPE
  5
5D
330
5
100
AcDbSymbolTableRecord
100
AcDbLinetypeTableRecord
  2
HIDDEN2
 70
     0
  3
_ _ _ _ _ _ _ _ _ _ _ _ _ _ _ _ _ _ _ _ _ _ _ _
 72
    65
 73
     2
 40
0.1875
 49
0.125
 74
     4
 75
     0
340
0
 46
0.0
 50
0.0
 44
0.0
 45
0.0
 49
-0.0625
 74
     4
 75
     0
340
0
 46
0.0
 50
0.0
 44
0.0
 45
0.0
  0
ENDTAB
  0
TABLE
  2
LAYER
  5
2
330
0
100
AcDbSymbolTable
 70
     3
  0
LAYER
  5
10
330
2
100
AcDbSymbolTableRecord
100
AcDbLayerTableRecord
  2
0
 70
     0
 62
     7
  6
Continuous
370
    -3
390
F
  0
LAYER
  5
2A
330
2
100
AcDbSymbolTableRecord
100
AcDbLayerTableRecord
  2
Default
 70
     0
 62
     7
  6
Continuous
370
    -3
390
F
  0
LAYER
  5
2D
330
2
100
AcDbSymbolTableRecord
100
AcDbLayerTableRecord
  2
BX1_INFERIOR
 70
     0
 62
     7
  6
Continuous
370
    -3
390
F
  0
ENDTAB
  0
TABLE
  2
STYLE
  5
3
330
0
100
AcDbSymbolTable
 70
     3
  0
STYLE
  5
11
330
3
100
AcDbSymbolTableRecord
100
AcDbTextStyleTableRecord
  2
Standard
 70
     0
 40
0.0
 41
1.0
 50
0.0
 71
     0
 42
0.2
  3
txt
  4

  0
STYLE
  5
83
330
3
100
AcDbSymbolTableRecord
100
AcDbTextStyleTableRecord
  2
SEACAD_arial_ttfB
 70
     0
 40
0.2
 41
1.0
 50
0.0
 71
     0
 42
0.2
  3
arial.ttf
  4

  0
STYLE
  5
89
330
3
100
AcDbSymbolTableRecord
100
AcDbTextStyleTableRecord
  2
SEACAD_arial_ttfI
 70
     0
 40
0.2
 41
1.0
 50
0.0
 71
     0
 42
0.2
  3
arial.ttf
  4

  0
ENDTAB
  0
TABLE
  2
VIEW
  5
6
330
0
100
AcDbSymbolTable
 70
     0
  0
ENDTAB
  0
TABLE
  2
UCS
  5
7
330
0
100
AcDbSymbolTable
 70
     0
  0
ENDTAB
  0
TABLE
  2
APPID
  5
9
330
0
100
AcDbSymbolTable
 70
     1
  0
APPID
  5
12
330
9
100
AcDbSymbolTableRecord
100
AcDbRegAppTableRecord
  2
ACAD
 70
     0
  0
ENDTAB
  0
TABLE
  2
DIMSTYLE
  5
A
330
0
100
AcDbSymbolTable
 70
     1
100
AcDbDimStyleTable
  0
DIMSTYLE
105
27
330
A
100
AcDbSymbolTableRecord
100
AcDbDimStyleTableRecord
  2
Standard
 70
     0
340
11
  0
ENDTAB
  0
TABLE
  2
BLOCK_RECORD
  5
1
330
0
100
AcDbSymbolTable
 70
     2
  0
BLOCK_RECORD
  5
1F
330
1
100
AcDbSymbolTableRecord
100
AcDbBlockTableRecord
  2
*Model_Space
340
22
  0
BLOCK_RECORD
  5
1B
330
1
100
AcDbSymbolTableRecord
100
AcDbBlockTableRecord
  2
*Paper_Space
340
1E
  0
BLOCK_RECORD
  5
2B
330
1
100
AcDbSymbolTableRecord
100
AcDbBlockTableRecord
  2
SE
340
0
102
{BLKREFS
331
2C
102
}
  0
ENDTAB
  0
ENDSEC
  0
SECTION
  2
BLOCKS
  0
BLOCK
  5
20
330
1F
100
AcDbEntity
  8
0
100
AcDbBlockBegin
  2
*Model_Space
 70
     0
 71
     0
 10
0.0
 20
0.0
 30
0.0
  3
*Model_Space
  1

  0
ENDBLK
  5
21
330
1F
100
AcDbEntity
  8
0
100
AcDbBlockEnd
  0
BLOCK
  5
1C
330
1B
100
AcDbEntity
 67
     1
  8
0
100
AcDbBlockBegin
  2
*Paper_Space
 70
     0
 71
     0
 10
0.0
 20
0.0
 30
0.0
  3
*Paper_Space
  1

  0
ENDBLK
  5
1D
330
1B
100
AcDbEntity
 67
     1
  8
0
100
AcDbBlockEnd
  0
BLOCK
  5
72
330
2B
100
AcDbEntity
  8
0
100
AcDbBlockBegin
  2
SE
 70
     0
 71
     0
 10
0.0
 20
0.0
 30
0.0
  3
SE
  1

  0
LINE
  5
2E
330
2B
100
AcDbEntity
  8
BX1_INFERIOR
  6
Continuous
 62
     7
 48
25.4
100
AcDbLine
 10
34.0998617631
 20
50.620046079
 30
0.0
 11
35.0998617631
 21
50.620046079
 31
0.0
  0
LINE
  5
2F
330
2B
100
AcDbEntity
  8
BX1_INFERIOR
  6
Continuous
 62
     7
 48
25.4
100
AcDbLine
 10
35.0998617631
 20
50.620046079
 30
0.0
 11
36.0998617631
 21
50.620046079
 31
0.0
  0
LINE
  5
30
330
2B
100
AcDbEntity
  8
BX1_INFERIOR
  6
Continuous
 62
     7
 48
25.4
100
AcDbLine
 10
36.0998617631
 20
50.620046079
 30
0.0
 11
38.0998617631
 21
50.620046079
 31
0.0
  0
LINE
  5
31
330
2B
100
AcDbEntity
  8
BX1_INFERIOR
  6
Continuous
 62
     7
 48
25.4
100
AcDbLine
 10
312.0998617631
 20
50.620046079
 30
0.0
 11
313.0998617631
 21
50.620046079
 31
0.0
  0
LINE
  5
32
330
2B
100
AcDbEntity
  8
BX1_INFERIOR
  6
Continuous
 62
     7
 48
25.4
100
AcDbLine
 10
313.0998617631
 20
50.620046079
 30
0.0
 11
314.0998617631
 21
50.620046079
 31
0.0
  0
LINE
  5
33
330
2B
100
AcDbEntity
  8
BX1_INFERIOR
  6
Continuous
 62
     7
 48
25.4
100
AcDbLine
 10
313.0998617631
 20
268.620046079
 30
0.0
 11
314.0998617631
 21
268.620046079
 31
0.0
  0
LINE
  5
34
330
2B
100
AcDbEntity
  8
BX1_INFERIOR
  6
Continuous
 62
     7
 48
25.4
100
AcDbLine
 10
312.0998617631
 20
268.620046079
 30
0.0
 11
313.0998617631
 21
268.620046079
 31
0.0
  0
LINE
  5
35
330
2B
100
AcDbEntity
  8
BX1_INFERIOR
  6
Continuous
 62
     7
 48
25.4
100
AcDbLine
 10
36.0998617631
 20
268.620046079
 30
0.0
 11
38.0998617631
 21
268.620046079
 31
0.0
  0
LINE
  5
36
330
2B
100
AcDbEntity
  8
BX1_INFERIOR
  6
Continuous
 62
     7
 48
25.4
100
AcDbLine
 10
35.0998617631
 20
268.620046079
 30
0.0
 11
36.0998617631
 21
268.620046079
 31
0.0
  0
LINE
  5
37
330
2B
100
AcDbEntity
  8
BX1_INFERIOR
  6
Continuous
 62
     7
 48
25.4
100
AcDbLine
 10
34.0998617631
 20
268.620046079
 30
0.0
 11
35.0998617631
 21
268.620046079
 31
0.0
  0
LINE
  5
38
330
2B
100
AcDbEntity
  8
BX1_INFERIOR
  6
Continuous
 62
     7
 48
25.4
100
AcDbLine
 10
314.0998617631
 20
50.620046079
 30
0.0
 11
314.0998617631
 21
268.620046079
 31
0.0
  0
LINE
  5
39
330
2B
100
AcDbEntity
  8
BX1_INFERIOR
  6
Continuous
 62
     7
 48
25.4
100
AcDbLine
 10
313.0998617631
 20
50.620046079
 30
0.0
 11
313.0998617631
 21
268.620046079
 31
0.0
  0
LINE
  5
3A
330
2B
100
AcDbEntity
  8
BX1_INFERIOR
  6
Continuous
 62
     7
 48
25.4
100
AcDbLine
 10
35.0998617631
 20
50.620046079
 30
0.0
 11
35.0998617631
 21
268.620046079
 31
0.0
  0
LINE
  5
3B
330
2B
100
AcDbEntity
  8
BX1_INFERIOR
  6
Continuous
 62
     7
 48
25.4
100
AcDbLine
 10
34.0998617631
 20
50.620046079
 30
0.0
 11
34.0998617631
 21
268.620046079
 31
0.0
  0
LINE
  5
3C
330
2B
100
AcDbEntity
  8
BX1_INFERIOR
  6
Continuous
 62
     7
 48
25.4
100
AcDbLine
 10
310.0998617631
 20
50.620046079
 30
0.0
 11
312.0998617631
 21
50.620046079
 31
0.0
  0
LINE
  5
3D
330
2B
100
AcDbEntity
  8
BX1_INFERIOR
  6
Continuous
 62
     7
 48
25.4
100
AcDbLine
 10
310.0998617631
 20
50.620046079
 30
0.0
 11
310.0998617631
 21
49.620046079
 31
0.0
  0
LINE
  5
3E
330
2B
100
AcDbEntity
  8
BX1_INFERIOR
  6
Continuous
 62
     7
 48
25.4
100
AcDbLine
 10
38.0998617631
 20
50.620046079
 30
0.0
 11
310.0998617631
 21
50.620046079
 31
0.0
  0
LINE
  5
3F
330
2B
100
AcDbEntity
  8
BX1_INFERIOR
  6
Continuous
 62
     7
 48
25.4
100
AcDbLine
 10
38.0998617631
 20
50.620046079
 30
0.0
 11
38.0998617631
 21
49.620046079
 31
0.0
  0
LINE
  5
40
330
2B
100
AcDbEntity
  8
BX1_INFERIOR
  6
Continuous
 62
     7
 48
25.4
100
AcDbLine
 10
38.0998617631
 20
49.620046079
 30
0.0
 11
310.0998617631
 21
49.620046079
 31
0.0
  0
LINE
  5
41
330
2B
100
AcDbEntity
  8
BX1_INFERIOR
  6
Continuous
 62
     7
 48
25.4
100
AcDbLine
 10
310.0998617631
 20
268.620046079
 30
0.0
 11
312.0998617631
 21
268.620046079
 31
0.0
  0
LINE
  5
42
330
2B
100
AcDbEntity
  8
BX1_INFERIOR
  6
Continuous
 62
     7
 48
25.4
100
AcDbLine
 10
310.0998617631
 20
268.620046079
 30
0.0
 11
310.0998617631
 21
269.620046079
 31
0.0
  0
LINE
  5
43
330
2B
100
AcDbEntity
  8
BX1_INFERIOR
  6
Continuous
 62
     7
 48
25.4
100
AcDbLine
 10
38.0998617631
 20
268.620046079
 30
0.0
 11
310.0998617631
 21
268.620046079
 31
0.0
  0
LINE
  5
44
330
2B
100
AcDbEntity
  8
BX1_INFERIOR
  6
Continuous
 62
     7
 48
25.4
100
AcDbLine
 10
38.0998617631
 20
269.620046079
 30
0.0
 11
310.0998617631
 21
269.620046079
 31
0.0
  0
LINE
  5
45
330
2B
100
AcDbEntity
  8
BX1_INFERIOR
  6
Continuous
 62
     7
 48
25.4
100
AcDbLine
 10
38.0998617631
 20
268.620046079
 30
0.0
 11
38.0998617631
 21
269.620046079
 31
0.0
  0
CIRCLE
  5
46
330
2B
100
AcDbEntity
  8
BX1_INFERIOR
  6
Continuous
 62
     7
 48
25.4
100
AcDbCircle
 10
268.3347261552
 20
226.676661172
 30
0.0
 40
1.5
  0
CIRCLE
  5
47
330
2B
100
AcDbEntity
  8
BX1_INFERIOR
  6
Continuous
 62
     7
 48
25.4
100
AcDbCircle
 10
79.8649973709
 20
226.676661172
 30
0.0
 40
1.5
  0
CIRCLE
  5
48
330
2B
100
AcDbEntity
  8
BX1_INFERIOR
  6
Continuous
 62
     7
 48
25.4
100
AcDbCircle
 10
79.8649973709
 20
92.5634309859
 30
0.0
 40
1.5
  0
CIRCLE
  5
49
330
2B
100
AcDbEntity
  8
BX1_INFERIOR
  6
Continuous
 62
     7
 48
25.4
100
AcDbCircle
 10
268.3347261552
 20
92.5634309859
 30
0.0
 40
1.5
  0
CIRCLE
  5
4A
330
2B
100
AcDbEntity
  8
BX1_INFERIOR
  6
Continuous
 62
     7
 48
25.4
100
AcDbCircle
 10
297.9039199326
 20
228.4347687302
 30
0.0
 40
1.5875
  0
CIRCLE
  5
4B
330
2B
100
AcDbEntity
  8
BX1_INFERIOR
  6
Continuous
 62
     7
 48
25.4
100
AcDbCircle
 10
291.1729270429
 20
228.4347687302
 30
0.0
 40
1.5875
  0
CIRCLE
  5
4C
330
2B
100
AcDbEntity
  8
BX1_INFERIOR
  6
Continuous
 62
     7
 48
25.4
100
AcDbCircle
 10
299.7974745694
 20
209.6185123284
 30
0.0
 40
1.5875
  0
CIRCLE
  5
4D
330
2B
100
AcDbEntity
  8
BX1_INFERIOR
  6
Continuous
 62
     7
 48
25.4
100
AcDbCircle
 10
139.1252210361
 20
250.87551742
 30
0.0
 40
1.5875
  0
CIRCLE
  5
4E
330
2B
100
AcDbEntity
  8
BX1_INFERIOR
  6
Continuous
 62
     7
 48
25.4
100
AcDbCircle
 10
102.6349128222
 20
228.4347687302
 30
0.0
 40
1.5875
  0
CIRCLE
  5
4F
330
2B
100
AcDbEntity
  8
BX1_INFERIOR
  6
Continuous
 62
     7
 48
25.4
100
AcDbCircle
 10
95.9039199324
 20
228.4347687302
 30
0.0
 40
1.5875
  0
CIRCLE
  5
50
330
2B
100
AcDbEntity
  8
BX1_INFERIOR
  6
Continuous
 62
     7
 48
25.4
100
AcDbCircle
 10
122.2974745694
 20
209.6185123284
 30
0.0
 40
1.5875
  0
CIRCLE
  5
51
330
2B
100
AcDbEntity
  8
BX1_INFERIOR
  6
Continuous
 62
     7
 48
25.4
100
AcDbCircle
 10
299.7974745694
 20
114.6185123284
 30
0.0
 40
1.5875
  0
CIRCLE
  5
52
330
2B
100
AcDbEntity
  8
BX1_INFERIOR
  6
Continuous
 62
     7
 48
25.4
100
AcDbCircle
 10
196.9039199325
 20
99.9235889397
 30
0.0
 40
1.5875
  0
CIRCLE
  5
53
330
2B
100
AcDbEntity
  8
BX1_INFERIOR
  6
Continuous
 62
     7
 48
25.4
100
AcDbCircle
 10
122.2974745694
 20
114.6185123284
 30
0.0
 40
1.5875
  0
CIRCLE
  5
54
330
2B
100
AcDbEntity
  8
BX1_INFERIOR
  6
Continuous
 62
     7
 48
25.4
100
AcDbCircle
 10
146.367274955
 20
87.823409409
 30
0.0
 40
1.5875
  0
CIRCLE
  5
55
330
2B
100
AcDbEntity
  8
BX1_INFERIOR
  6
Continuous
 62
     7
 48
25.4
100
AcDbCircle
 10
107.267274955
 20
87.823409409
 30
0.0
 40
1.5875
  0
CIRCLE
  5
56
330
2B
100
AcDbEntity
  8
BX1_INFERIOR
  6
Continuous
 62
     7
 48
25.4
100
AcDbCircle
 10
299.3650195055
 20
88.811714901
 30
0.0
 40
1.5875
  0
CIRCLE
  5
57
330
2B
100
AcDbEntity
  8
BX1_INFERIOR
  6
Continuous
 62
     7
 48
25.4
100
AcDbCircle
 10
250.6550195055
 20
88.811714901
 30
0.0
 40
1.5875
  0
CIRCLE
  5
58
330
2B
100
AcDbEntity
  8
BX1_INFERIOR
  6
Continuous
 62
     7
 48
25.4
100
AcDbCircle
 10
299.7974745694
 20
124.1101145383
 30
0.0
 40
1.5875
  0
CIRCLE
  5
59
330
2B
100
AcDbEntity
  8
BX1_INFERIOR
  6
Continuous
 62
     7
 48
25.4
100
AcDbCircle
 10
299.7974745694
 20
219.1101145383
 30
0.0
 40
1.5875
  0
CIRCLE
  5
5A
330
2B
100
AcDbEntity
  8
BX1_INFERIOR
  6
Continuous
 62
     7
 48
25.4
100
AcDbCircle
 10
122.2974745694
 20
219.1101145383
 30
0.0
 40
1.5875
  0
CIRCLE
  5
5B
330
2B
100
AcDbEntity
  8
BX1_INFERIOR
  6
Continuous
 62
     7
 48
25.4
100
AcDbCircle
 10
122.2974745694
 20
124.1101145383
 30
0.0
 40
1.5875
  0
CIRCLE
  5
5C
330
2B
100
AcDbEntity
  8
BX1_INFERIOR
  6
Continuous
 62
     7
 48
25.4
100
AcDbCircle
 10
56.766884158
 20
234.7451710315
 30
0.0
 40
1.5875
  0
LINE
  5
5E
330
2B
100
AcDbEntity
  8
BX1_INFERIOR
  6
HIDDEN2
 62
     7
 48
25.4
100
AcDbLine
 10
35.0998617631
 20
91.620046079
 30
0.0
 11
34.0998617631
 21
91.620046079
 31
0.0
  0
LINE
  5
5F
330
2B
100
AcDbEntity
  8
BX1_INFERIOR
  6
HIDDEN2
 62
     7
 48
25.4
100
AcDbLine
 10
34.0998617631
 20
87.620046079
 30
0.0
 11
35.0998617631
 21
87.620046079
 31
0.0
  0
LINE
  5
60
330
2B
100
AcDbEntity
  8
BX1_INFERIOR
  6
HIDDEN2
 62
     7
 48
25.4
100
AcDbLine
 10
314.0998617631
 20
91.620046079
 30
0.0
 11
313.0998617631
 21
91.620046079
 31
0.0
  0
LINE
  5
61
330
2B
100
AcDbEntity
  8
BX1_INFERIOR
  6
HIDDEN2
 62
     7
 48
25.4
100
AcDbLine
 10
313.0998617631
 20
87.620046079
 30
0.0
 11
314.0998617631
 21
87.620046079
 31
0.0
  0
LINE
  5
62
330
2B
100
AcDbEntity
  8
BX1_INFERIOR
  6
HIDDEN2
 62
     7
 48
25.4
100
AcDbLine
 10
35.0998617631
 20
231.620046079
 30
0.0
 11
34.0998617631
 21
231.620046079
 31
0.0
  0
LINE
  5
63
330
2B
100
AcDbEntity
  8
BX1_INFERIOR
  6
HIDDEN2
 62
     7
 48
25.4
100
AcDbLine
 10
34.0998617631
 20
227.620046079
 30
0.0
 11
35.0998617631
 21
227.620046079
 31
0.0
  0
LINE
  5
64
330
2B
100
AcDbEntity
  8
BX1_INFERIOR
  6
HIDDEN2
 62
     7
 48
25.4
100
AcDbLine
 10
314.0998617631
 20
231.620046079
 30
0.0
 11
313.0998617631
 21
231.620046079
 31
0.0
  0
LINE
  5
65
330
2B
100
AcDbEntity
  8
BX1_INFERIOR
  6
HIDDEN2
 62
     7
 48
25.4
100
AcDbLine
 10
313.0998617631
 20
227.620046079
 30
0.0
 11
314.0998617631
 21
227.620046079
 31
0.0
  0
LINE
  5
66
330
2B
100
AcDbEntity
  8
BX1_INFERIOR
  6
HIDDEN2
 62
     7
 48
25.4
100
AcDbLine
 10
75.5998617631
 20
268.620046079
 30
0.0
 11
75.5998617631
 21
269.620046079
 31
0.0
  0
LINE
  5
67
330
2B
100
AcDbEntity
  8
BX1_INFERIOR
  6
HIDDEN2
 62
     7
 48
25.4
100
AcDbLine
 10
72.5998617631
 20
269.620046079
 30
0.0
 11
72.5998617631
 21
268.620046079
 31
0.0
  0
LINE
  5
68
330
2B
100
AcDbEntity
  8
BX1_INFERIOR
  6
HIDDEN2
 62
     7
 48
25.4
100
AcDbLine
 10
75.5998617631
 20
49.620046079
 30
0.0
 11
75.5998617631
 21
50.620046079
 31
0.0
  0
LINE
  5
69
330
2B
100
AcDbEntity
  8
BX1_INFERIOR
  6
HIDDEN2
 62
     7
 48
25.4
100
AcDbLine
 10
72.5998617631
 20
50.620046079
 30
0.0
 11
72.5998617631
 21
49.620046079
 31
0.0
  0
LINE
  5
6A
330
2B
100
AcDbEntity
  8
BX1_INFERIOR
  6
HIDDEN2
 62
     7
 48
25.4
100
AcDbLine
 10
175.5998617631
 20
268.620046079
 30
0.0
 11
175.5998617631
 21
269.620046079
 31
0.0
  0
LINE
  5
6B
330
2B
100
AcDbEntity
  8
BX1_INFERIOR
  6
HIDDEN2
 62
     7
 48
25.4
100
AcDbLine
 10
172.5998617631
 20
269.620046079
 30
0.0
 11
172.5998617631
 21
268.620046079
 31
0.0
  0
LINE
  5
6C
330
2B
100
AcDbEntity
  8
BX1_INFERIOR
  6
HIDDEN2
 62
     7
 48
25.4
100
AcDbLine
 10
175.5998617631
 20
49.620046079
 30
0.0
 11
175.5998617631
 21
50.620046079
 31
0.0
  0
LINE
  5
6D
330
2B
100
AcDbEntity
  8
BX1_INFERIOR
  6
HIDDEN2
 62
     7
 48
25.4
100
AcDbLine
 10
172.5998617631
 20
50.620046079
 30
0.0
 11
172.5998617631
 21
49.620046079
 31
0.0
  0
LINE
  5
6E
330
2B
100
AcDbEntity
  8
BX1_INFERIOR
  6
HIDDEN2
 62
     7
 48
25.4
100
AcDbLine
 10
275.5998617631
 20
268.620046079
 30
0.0
 11
275.5998617631
 21
269.620046079
 31
0.0
  0
LINE
  5
6F
330
2B
100
AcDbEntity
  8
BX1_INFERIOR
  6
HIDDEN2
 62
     7
 48
25.4
100
AcDbLine
 10
272.5998617631
 20
269.620046079
 30
0.0
 11
272.5998617631
 21
268.620046079
 31
0.0
  0
LINE
  5
70
330
2B
100
AcDbEntity
  8
BX1_INFERIOR
  6
HIDDEN2
 62
     7
 48
25.4
100
AcDbLine
 10
275.5998617631
 20
49.620046079
 30
0.0
 11
275.5998617631
 21
50.620046079
 31
0.0
  0
LINE
  5
71
330
2B
100
AcDbEntity
  8
BX1_INFERIOR
  6
HIDDEN2
 62
     7
 48
25.4
100
AcDbLine
 10
272.5998617631
 20
50.620046079
 30
0.0
 11
272.5998617631
 21
49.620046079
 31
0.0
  0
ENDBLK
  5
73
330
2B
100
AcDbEntity
  8
0
100
AcDbBlockEnd
  0
ENDSEC
  0
SECTION
  2
ENTITIES
  0
INSERT
  5
2C
330
1F
100
AcDbEntity
  8
Default
100
AcDbBlockReference
  2
SE
 10
0.0
 20
0.0
 30
0.0
  0
LINE
  5
74
330
1F
100
AcDbEntity
  8
Default
  6
Continuous
 62
     7
 48
25.4
100
AcDbLine
 10
10.0
 20
10.0
 30
0.0
 11
410.0
 21
10.0
 31
0.0
  0
LINE
  5
75
330
1F
100
AcDbEntity
  8
Default
  6
Continuous
 62
     7
 48
25.4
100
AcDbLine
 10
410.0
 20
10.0
 30
0.0
 11
410.0
 21
287.0
 31
0.0
  0
LINE
  5
76
330
1F
100
AcDbEntity
  8
Default
  6
Continuous
 62
     7
 48
25.4
100
AcDbLine
 10
410.0
 20
287.0
 30
0.0
 11
10.0
 21
287.0
 31
0.0
  0
LINE
  5
77
330
1F
100
AcDbEntity
  8
Default
  6
Continuous
 62
     7
 48
25.4
100
AcDbLine
 10
10.0
 20
287.0
 30
0.0
 11
10.0
 21
10.0
 31
0.0
  0
LINE
  5
78
330
1F
100
AcDbEntity
  8
Default
  6
Continuous
 62
     7
 48
25.4
100
AcDbLine
 10
325.4637339982
 20
11.2380177176
 30
0.0
 11
325.4637339982
 21
10.0
 31
0.0
  0
LINE
  5
79
330
1F
100
AcDbEntity
  8
Default
  6
Continuous
 62
     7
 48
25.4
100
AcDbLine
 10
325.4637339982
 20
40.0316070918
 30
0.0
 11
410.0
 21
40.0316070918
 31
0.0
  0
LINE
  5
7A
330
1F
100
AcDbEntity
  8
Default
  6
Continuous
 62
     7
 48
25.4
100
AcDbLine
 10
325.4637339982
 20
32.4051969332
 30
0.0
 11
410.0
 21
32.4051969332
 31
0.0
  0
LINE
  5
7B
330
1F
100
AcDbEntity
  8
Default
  6
Continuous
 62
     7
 48
25.4
100
AcDbLine
 10
325.4637339982
 20
32.4051969332
 30
0.0
 11
325.4637339982
 21
24.7751969332
 31
0.0
  0
LINE
  5
7C
330
1F
100
AcDbEntity
  8
Default
  6
Continuous
 62
     7
 48
25.4
100
AcDbLine
 10
325.4637339982
 20
24.7751969332
 30
0.0
 11
410.0
 21
24.7751969332
 31
0.0
  0
LINE
  5
7D
330
1F
100
AcDbEntity
  8
Default
  6
Continuous
 62
     7
 48
25.4
100
AcDbLine
 10
367.7318669991
 20
40.0316070918
 30
0.0
 11
367.7318669991
 21
24.7751969332
 31
0.0
  0
LINE
  5
7E
330
1F
100
AcDbEntity
  8
Default
  6
Continuous
 62
     7
 48
25.4
100
AcDbLine
 10
325.4637339982
 20
40.0316070918
 30
0.0
 11
325.4637339982
 21
47.6316070918
 31
0.0
  0
LINE
  5
7F
330
1F
100
AcDbEntity
  8
Default
  6
Continuous
 62
     7
 48
25.4
100
AcDbLine
 10
325.4637339982
 20
47.6316070918
 30
0.0
 11
410.0
 21
47.6316070918
 31
0.0
  0
LINE
  5
80
330
1F
100
AcDbEntity
  8
Default
  6
Continuous
 62
     7
 48
25.4
100
AcDbLine
 10
367.7318669991
 20
47.6316070918
 30
0.0
 11
367.7318669991
 21
40.0316070918
 31
0.0
  0
LINE
  5
81
330
1F
100
AcDbEntity
  8
Default
  6
Continuous
 62
     7
 48
25.4
100
AcDbLine
 10
325.4637339982
 20
10.0
 30
0.0
 11
325.4637339982
 21
65.5567349695
 31
0.0
  0
LINE
  5
82
330
1F
100
AcDbEntity
  8
Default
  6
Continuous
 62
     7
 48
25.4
100
AcDbLine
 10
325.4637339982
 20
65.5567349695
 30
0.0
 11
410.0
 21
65.5567349695
 31
0.0
  0
TEXT
  5
84
330
1F
100
AcDbEntity
  8
Default
  6
Continuous
 62
     7
 48
25.4
100
AcDbText
 10
350.353416664
 20
56.3300217391
 30
0.0
 40
7.0
  1
CNC
  7
SEACAD_arial_ttfB
 11
350.353416664
 21
63.3300217391
 31
0.0
100
AcDbText
 73
     3
  0
TEXT
  5
85
330
1F
100
AcDbEntity
  8
Default
  6
Continuous
 62
     7
 48
25.4
100
AcDbText
 10
371.1099731482
 20
58.439942142
 30
0.0
 40
3.5
  1
4
  7
SEACAD_arial_ttfB
 11
371.1099731482
 21
61.939942142
 31
0.0
100
AcDbText
 73
     3
  0
TEXT
  5
86
330
1F
100
AcDbEntity
  8
Default
  6
Continuous
 62
     7
 48
25.4
100
AcDbText
 10
374.9659342342
 20
58.3579004168
 30
0.0
 40
3.5
  1
PC
  7
SEACAD_arial_ttfB
 11
374.9659342342
 21
61.8579004168
 31
0.0
100
AcDbText
 73
     3
  0
TEXT
  5
87
330
1F
100
AcDbEntity
  8
Default
  6
Continuous
 62
     7
 48
25.4
100
AcDbText
 10
345.9515800357
 20
53.9139128197
 30
0.0
 40
1.5
  1
Integration Solutions for CNC Projects
  7
SEACAD_arial_ttfB
 11
345.9515800357
 21
55.4139128197
 31
0.0
100
AcDbText
 73
     3
  0
TEXT
  5
88
330
1F
100
AcDbEntity
  8
Default
  6
Continuous
 62
     7
 48
25.4
100
AcDbText
 10
345.5949966004
 20
50.4024410758
 30
0.0
 40
2.7
  1
http://www.cnc4pc.com
  7
SEACAD_arial_ttfB
 11
345.5949966004
 21
53.1024410758
 31
0.0
100
AcDbText
 73
     3
  0
TEXT
  5
8A
330
1F
100
AcDbEntity
  8
Default
  6
Continuous
 62
     7
 48
25.4
100
AcDbText
 10
325.9536204989
 20
43.0242100897
 30
0.0
 40
2.5
  1
Designed :
  7
SEACAD_arial_ttfI
 11
325.9536204989
 21
45.5242100897
 31
0.0
100
AcDbText
 73
     3
  0
TEXT
  5
8B
330
1F
100
AcDbEntity
  8
Default
  6
Continuous
 62
     7
 48
25.4
100
AcDbText
 10
367.7436605961
 20
42.8983364749
 30
0.0
 40
2.5
  1
Date :
  7
SEACAD_arial_ttfI
 11
367.7436605961
 21
45.3983364749
 31
0.0
100
AcDbText
 73
     3
  0
TEXT
  5
8C
330
1F
100
AcDbEntity
  8
Default
  6
Continuous
 62
     7
 48
25.4
100
AcDbText
 10
325.5759996546
 20
34.9682987456
 30
0.0
 40
2.5
  1
Revised :
  7
SEACAD_arial_ttfI
 11
325.5759996546
 21
37.4682987456
 31
0.0
100
AcDbText
 73
     3
  0
TEXT
  5
8D
330
1F
100
AcDbEntity
  8
Default
  6
Continuous
 62
     7
 48
25.4
100
AcDbText
 10
367.7436605961
 20
34.8424251309
 30
0.0
 40
2.5
  1
Date :
  7
SEACAD_arial_ttfI
 11
367.7436605961
 21
37.3424251309
 31
0.0
100
AcDbText
 73
     3
  0
TEXT
  5
8E
330
1F
100
AcDbEntity
  8
Default
  6
Continuous
 62
     7
 48
25.4
100
AcDbText
 10
325.5759996546
 20
27.5417554753
 30
0.0
 40
2.5
  1
Item :
  7
SEACAD_arial_ttfI
 11
325.5759996546
 21
30.0417554753
 31
0.0
100
AcDbText
 73
     3
  0
TEXT
  5
8F
330
1F
100
AcDbEntity
  8
Default
  6
Continuous
 62
     7
 48
25.4
100
AcDbText
 10
367.7436605961
 20
27.5417554753
 30
0.0
 40
2.5
  1
Ver. :
  7
SEACAD_arial_ttfI
 11
367.7436605961
 21
30.0417554753
 31
0.0
100
AcDbText
 73
     3
  0
TEXT
  5
90
330
1F
100
AcDbEntity
  8
Default
  6
Continuous
 62
     7
 48
25.4
100
AcDbText
 10
325.9536204989
 20
20.9963275083
 30
0.0
 40
2.5
  1
Description :
  7
SEACAD_arial_ttfI
 11
325.9536204989
 21
23.4963275083
 31
0.0
100
AcDbText
 73
     3
  0
ENDSEC
  0
SECTION
  2
OBJECTS
  0
DICTIONARY
  5
C
330
0
100
AcDbDictionary
281
     1
  3
ACAD_GROUP
350
D
  3
ACAD_LAYOUT
350
1A
  3
ACAD_MLINESTYLE
350
17
  3
ACAD_PLOTSETTINGS
350
19
  3
ACAD_PLOTSTYLENAME
350
E
  0
DICTIONARY
  5
D
102
{ACAD_REACTORS
330
C
102
}
330
C
100
AcDbDictionary
281
     1
  0
DICTIONARY
  5
1A
102
{ACAD_REACTORS
330
C
102
}
330
C
100
AcDbDictionary
281
     1
  3
Layout1
350
1E
  3
Model
350
22
  0
DICTIONARY
  5
17
102
{ACAD_REACTORS
330
C
102
}
330
C
100
AcDbDictionary
281
     1
  3
Standard
350
18
  0
DICTIONARY
  5
19
102
{ACAD_REACTORS
330
C
102
}
330
C
100
AcDbDictionary
281
     1
  0
ACDBDICTIONARYWDFLT
  5
E
102
{ACAD_REACTORS
330
C
102
}
330
C
100
AcDbDictionary
281
     1
  3
Normal
350
F
100
AcDbDictionaryWithDefault
340
F
  0
LAYOUT
  5
1E
102
{ACAD_REACTORS
330
1A
102
}
330
1A
100
AcDbPlotSettings
  1

  2

  4

  6

 40
0.0
 41
0.0
 42
0.0
 43
0.0
 44
0.0
 45
0.0
 46
0.0
 47
0.0
 48
0.0
 49
0.0
140
0.0
141
0.0
142
1.0
143
1.0
 70
   688
 72
     0
 73
     0
 74
     5
  7

 75
    16
147
1.0
148
0.0
149
0.0
100
AcDbLayout
  1
Layout1
 70
     1
 71
     1
 10
0.0
 20
0.0
 11
420.0
 21
297.0
 12
0.0
 22
0.0
 32
0.0
 14
0.0
 24
0.0
 34
0.0
 15
420.0
 25
297.0
 35
0.0
146
0.0
 13
0.0
 23
0.0
 33
0.0
 16
1.0
 26
0.0
 36
0.0
 17
0.0
 27
1.0
 37
0.0
 76
     0
330
1B
  0
LAYOUT
  5
22
102
{ACAD_REACTORS
330
1A
102
}
330
1A
100
AcDbPlotSettings
  1

  2

  4

  6

 40
0.0
 41
0.0
 42
0.0
 43
0.0
 44
0.0
 45
0.0
 46
0.0
 47
0.0
 48
0.0
 49
0.0
140
0.0
141
0.0
142
1.0
143
1.0
 70
  1712
 72
     0
 73
     0
 74
     0
  7

 75
     0
147
1.0
148
0.0
149
0.0
100
AcDbLayout
  1
Model
 70
     1
 71
     0
 10
0.0
 20
0.0
 11
420.0
 21
297.0
 12
0.0
 22
0.0
 32
0.0
 14
0.0
 24
0.0
 34
0.0
 15
420.0
 25
297.0
 35
0.0
146
0.0
 13
0.0
 23
0.0
 33
0.0
 16
1.0
 26
0.0
 36
0.0
 17
0.0
 27
1.0
 37
0.0
 76
     0
330
1F
  0
MLINESTYLE
  5
18
102
{ACAD_REACTORS
330
17
102
}
330
17
100
AcDbMlineStyle
  2
Standard
 70
     0
  3

 62
   256
 51
90.0
 52
90.0
 71
     2
 49
0.5
 62
   256
  6
BYLAYER
 49
-0.5
 62
   256
  6
BYLAYER
  0
ACDBPLACEHOLDER
  5
F
102
{ACAD_REACTORS
330
E
102
}
330
E
  0
ENDSEC
  0
EOF
