  0
SECTION
  2
HEADER
  9
$ACADVER
  1
AC1015
  9
$ACADMAINTVER
 70
     6
  9
$DWGCODEPAGE
  3
ANSI_1252
  9
$INSBASE
 10
0.0
 20
0.0
 30
0.0
  9
$EXTMIN
 10
0.0
 20
0.0
 30
0.0
  9
$EXTMAX
 10
594.0
 20
420.0
 30
0.0
  9
$LIMMIN
 10
0.0
 20
0.0
  9
$LIMMAX
 10
594.0
 20
420.0
  9
$ORTHOMODE
 70
     0
  9
$REGENMODE
 70
     1
  9
$FILLMODE
 70
     1
  9
$QTEXTMODE
 70
     0
  9
$MIRRTEXT
 70
     1
  9
$LTSCALE
 40
1.0
  9
$ATTMODE
 70
     1
  9
$TEXTSIZE
 40
0.2
  9
$TRACEWID
 40
0.05
  9
$TEXTSTYLE
  7
Standard
  9
$CLAYER
  8
0
  9
$CELTYPE
  6
ByLayer
  9
$CECOLOR
 62
   256
  9
$CELTSCALE
 40
25.4
  9
$DISPSILH
 70
     0
  9
$DIMSCALE
 40
1.0
  9
$DIMASZ
 40
0.18
  9
$DIMEXO
 40
0.0625
  9
$DIMDLI
 40
0.38
  9
$DIMRND
 40
0.0
  9
$DIMDLE
 40
0.0
  9
$DIMEXE
 40
0.18
  9
$DIMTP
 40
0.0
  9
$DIMTM
 40
0.0
  9
$DIMTXT
 40
0.18
  9
$DIMCEN
 40
0.09
  9
$DIMTSZ
 40
0.0
  9
$DIMTOL
 70
     0
  9
$DIMLIM
 70
     0
  9
$DIMTIH
 70
     1
  9
$DIMTOH
 70
     1
  9
$DIMSE1
 70
     0
  9
$DIMSE2
 70
     0
  9
$DIMTAD
 70
     0
  9
$DIMZIN
 70
     0
  9
$DIMBLK
  1

  9
$DIMASO
 70
     1
  9
$DIMSHO
 70
     1
  9
$DIMPOST
  1

  9
$DIMAPOST
  1

  9
$DIMALT
 70
     0
  9
$DIMALTD
 70
     2
  9
$DIMALTF
 40
25.4
  9
$DIMLFAC
 40
1.0
  9
$DIMTOFL
 70
     0
  9
$DIMTVP
 40
0.0
  9
$DIMTIX
 70
     0
  9
$DIMSOXD
 70
     0
  9
$DIMSAH
 70
     0
  9
$DIMBLK1
  1

  9
$DIMBLK2
  1

  9
$DIMSTYLE
  2
Standard
  9
$DIMCLRD
 70
     0
  9
$DIMCLRE
 70
     0
  9
$DIMCLRT
 70
     0
  9
$DIMTFAC
 40
1.0
  9
$DIMGAP
 40
0.09
  9
$DIMJUST
 70
     0
  9
$DIMSD1
 70
     0
  9
$DIMSD2
 70
     0
  9
$DIMTOLJ
 70
     1
  9
$DIMTZIN
 70
     0
  9
$DIMALTZ
 70
     0
  9
$DIMALTTZ
 70
     0
  9
$DIMUPT
 70
     0
  9
$DIMDEC
 70
     4
  9
$DIMTDEC
 70
     4
  9
$DIMALTU
 70
     2
  9
$DIMALTTD
 70
     2
  9
$DIMTXSTY
  7
Standard
  9
$DIMAUNIT
 70
     0
  9
$DIMADEC
 70
     0
  9
$DIMALTRND
 40
0.0
  9
$DIMAZIN
 70
     0
  9
$DIMDSEP
 70
    46
  9
$DIMATFIT
 70
     3
  9
$DIMFRAC
 70
     0
  9
$DIMLDRBLK
  1

  9
$DIMLUNIT
 70
     2
  9
$DIMLWD
 70
    -2
  9
$DIMLWE
 70
    -2
  9
$DIMTMOVE
 70
     0
  9
$LUNITS
 70
     2
  9
$LUPREC
 70
     4
  9
$SKETCHINC
 40
0.1
  9
$FILLETRAD
 40
0.5
  9
$AUNITS
 70
     0
  9
$AUPREC
 70
     0
  9
$MENU
  1
.
  9
$ELEVATION
 40
0.0
  9
$PELEVATION
 40
0.0
  9
$THICKNESS
 40
0.0
  9
$LIMCHECK
 70
     0
  9
$CHAMFERA
 40
0.5
  9
$CHAMFERB
 40
0.5
  9
$CHAMFERC
 40
1.0
  9
$CHAMFERD
 40
0.0
  9
$SKPOLY
 70
     0
  9
$TDCREATE
 40
2456267.732151632
  9
$TDUCREATE
 40
2456267.940484965
  9
$TDUPDATE
 40
2456267.732151643
  9
$TDUUPDATE
 40
2456267.940484977
  9
$TDINDWG
 40
0.0000000116
  9
$TDUSRTIMER
 40
0.0000000116
  9
$USRTIMER
 70
     1
  9
$ANGBASE
 50
0.0
  9
$ANGDIR
 70
     0
  9
$PDMODE
 70
     0
  9
$PDSIZE
 40
0.0
  9
$PLINEWID
 40
0.0
  9
$SPLFRAME
 70
     0
  9
$SPLINETYPE
 70
     6
  9
$SPLINESEGS
 70
     8
  9
$HANDSEED
  5
11D
  9
$SURFTAB1
 70
     6
  9
$SURFTAB2
 70
     6
  9
$SURFTYPE
 70
     6
  9
$SURFU
 70
     6
  9
$SURFV
 70
     6
  9
$UCSBASE
  2

  9
$UCSNAME
  2

  9
$UCSORG
 10
0.0
 20
0.0
 30
0.0
  9
$UCSXDIR
 10
1.0
 20
0.0
 30
0.0
  9
$UCSYDIR
 10
0.0
 20
1.0
 30
0.0
  9
$UCSORTHOREF
  2

  9
$UCSORTHOVIEW
 70
     0
  9
$UCSORGTOP
 10
0.0
 20
0.0
 30
0.0
  9
$UCSORGBOTTOM
 10
0.0
 20
0.0
 30
0.0
  9
$UCSORGLEFT
 10
0.0
 20
0.0
 30
0.0
  9
$UCSORGRIGHT
 10
0.0
 20
0.0
 30
0.0
  9
$UCSORGFRONT
 10
0.0
 20
0.0
 30
0.0
  9
$UCSORGBACK
 10
0.0
 20
0.0
 30
0.0
  9
$PUCSBASE
  2

  9
$PUCSNAME
  2

  9
$PUCSORG
 10
0.0
 20
0.0
 30
0.0
  9
$PUCSXDIR
 10
1.0
 20
0.0
 30
0.0
  9
$PUCSYDIR
 10
0.0
 20
1.0
 30
0.0
  9
$PUCSORTHOREF
  2

  9
$PUCSORTHOVIEW
 70
     0
  9
$PUCSORGTOP
 10
0.0
 20
0.0
 30
0.0
  9
$PUCSORGBOTTOM
 10
0.0
 20
0.0
 30
0.0
  9
$PUCSORGLEFT
 10
0.0
 20
0.0
 30
0.0
  9
$PUCSORGRIGHT
 10
0.0
 20
0.0
 30
0.0
  9
$PUCSORGFRONT
 10
0.0
 20
0.0
 30
0.0
  9
$PUCSORGBACK
 10
0.0
 20
0.0
 30
0.0
  9
$USERI1
 70
     0
  9
$USERI2
 70
     0
  9
$USERI3
 70
     0
  9
$USERI4
 70
     0
  9
$USERI5
 70
     0
  9
$USERR1
 40
0.0
  9
$USERR2
 40
0.0
  9
$USERR3
 40
0.0
  9
$USERR4
 40
0.0
  9
$USERR5
 40
0.0
  9
$WORLDVIEW
 70
     1
  9
$SHADEDGE
 70
     3
  9
$SHADEDIF
 70
    70
  9
$TILEMODE
 70
     1
  9
$MAXACTVP
 70
    64
  9
$PINSBASE
 10
0.0
 20
0.0
 30
0.0
  9
$PLIMCHECK
 70
     0
  9
$PEXTMIN
 10
0.0
 20
0.0
 30
0.0
  9
$PEXTMAX
 10
594.0
 20
420.0
 30
0.0
  9
$PLIMMIN
 10
0.0
 20
0.0
  9
$PLIMMAX
 10
594.0
 20
420.0
  9
$UNITMODE
 70
     0
  9
$VISRETAIN
 70
     1
  9
$PLINEGEN
 70
     0
  9
$PSLTSCALE
 70
     1
  9
$TREEDEPTH
 70
  3020
  9
$CMLSTYLE
  2
Standard
  9
$CMLJUST
 70
     0
  9
$CMLSCALE
 40
1.0
  9
$PROXYGRAPHICS
 70
     1
  9
$MEASUREMENT
 70
     1
  9
$CELWEIGHT
370
    -1
  9
$ENDCAPS
280
     0
  9
$JOINSTYLE
280
     0
  9
$LWDISPLAY
290
     0
  9
$INSUNITS
 70
     1
  9
$HYPERLINKBASE
  1

  9
$STYLESHEET
  1

  9
$XEDIT
290
     1
  9
$CEPSNTYPE
380
     0
  9
$PSTYLEMODE
290
     1
  9
$FINGERPRINTGUID
  2
{B4A99424-4643-484A-91E5-47342E4DEB42}
  9
$VERSIONGUID
  2
{FAEB1C32-E019-11D5-929B-00C0DF256EC4}
  9
$EXTNAMES
290
     1
  9
$PSVPSCALE
 40
0.0
  9
$OLESTARTUP
290
     0
  0
ENDSEC
  0
SECTION
  2
CLASSES
  0
CLASS
  1
ACDBDICTIONARYWDFLT
  2
AcDbDictionaryWithDefault
  3
ObjectDBX Classes
 90
        0
280
     0
281
     0
  0
CLASS
  1
ACDBPLACEHOLDER
  2
AcDbPlaceHolder
  3
ObjectDBX Classes
 90
        0
280
     0
281
     0
  0
CLASS
  1
LAYOUT
  2
AcDbLayout
  3
ObjectDBX Classes
 90
        0
280
     0
281
     0
  0
ENDSEC
  0
SECTION
  2
TABLES
  0
TABLE
  2
VPORT
  5
8
330
0
100
AcDbSymbolTable
 70
     1
  0
VPORT
  5
29
330
8
100
AcDbSymbolTableRecord
100
AcDbViewportTableRecord
  2
*Active
 70
     0
 10
0.0
 20
0.0
 11
1.0
 21
1.0
 12
10.4299065421
 22
4.5
 13
0.0
 23
0.0
 14
0.5
 24
0.5
 15
0.5
 25
0.5
 16
0.0
 26
0.0
 36
1.0
 17
0.0
 27
0.0
 37
0.0
 40
9.0
 41
1.9729729729
 42
50.0
 43
0.0
 44
0.0
 50
0.0
 51
0.0
 71
     0
 72
   100
 73
     1
 74
     3
 75
     0
 76
     0
 77
     0
 78
     0
281
     0
 65
     1
110
0.0
120
0.0
130
0.0
111
1.0
121
0.0
131
0.0
112
0.0
122
1.0
132
0.0
 79
     0
146
0.0
  0
ENDTAB
  0
TABLE
  2
LTYPE
  5
5
330
0
100
AcDbSymbolTable
 70
     2
  0
LTYPE
  5
14
330
5
100
AcDbSymbolTableRecord
100
AcDbLinetypeTableRecord
  2
ByBlock
 70
     0
  3

 72
    65
 73
     0
 40
0.0
  0
LTYPE
  5
15
330
5
100
AcDbSymbolTableRecord
100
AcDbLinetypeTableRecord
  2
ByLayer
 70
     0
  3

 72
    65
 73
     0
 40
0.0
  0
LTYPE
  5
16
330
5
100
AcDbSymbolTableRecord
100
AcDbLinetypeTableRecord
  2
Continuous
 70
     0
  3
Solid line
 72
    65
 73
     0
 40
0.0
  0
LTYPE
  5
A4
330
5
100
AcDbSymbolTableRecord
100
AcDbLinetypeTableRecord
  2
HIDDEN2
 70
     0
  3
_ _ _ _ _ _ _ _ _ _ _ _ _ _ _ _ _ _ _ _ _ _ _ _
 72
    65
 73
     2
 40
0.1875
 49
0.125
 74
     4
 75
     0
340
0
 46
0.0
 50
0.0
 44
0.0
 45
0.0
 49
-0.0625
 74
     4
 75
     0
340
0
 46
0.0
 50
0.0
 44
0.0
 45
0.0
  0
ENDTAB
  0
TABLE
  2
LAYER
  5
2
330
0
100
AcDbSymbolTable
 70
     3
  0
LAYER
  5
10
330
2
100
AcDbSymbolTableRecord
100
AcDbLayerTableRecord
  2
0
 70
     0
 62
     7
  6
Continuous
370
    -3
390
F
  0
LAYER
  5
2A
330
2
100
AcDbSymbolTableRecord
100
AcDbLayerTableRecord
  2
Default
 70
     0
 62
     7
  6
Continuous
370
    -3
390
F
  0
LAYER
  5
2D
330
2
100
AcDbSymbolTableRecord
100
AcDbLayerTableRecord
  2
PANEL_INFERIOR_2
 70
     0
 62
     7
  6
Continuous
370
    -3
390
F
  0
ENDTAB
  0
TABLE
  2
STYLE
  5
3
330
0
100
AcDbSymbolTable
 70
     5
  0
STYLE
  5
11
330
3
100
AcDbSymbolTableRecord
100
AcDbTextStyleTableRecord
  2
Standard
 70
     0
 40
0.0
 41
1.0
 50
0.0
 71
     0
 42
0.2
  3
txt
  4

  0
STYLE
  5
C5
330
3
100
AcDbSymbolTableRecord
100
AcDbTextStyleTableRecord
  2
SEACAD_seiso_ttf
 70
     0
 40
0.2
 41
1.0
 50
0.0
 71
     0
 42
0.2
  3
seiso.ttf
  4

  0
STYLE
  5
F7
330
3
100
AcDbSymbolTableRecord
100
AcDbTextStyleTableRecord
  2
SEACAD_seiso_ttfBI
 70
     0
 40
0.2
 41
1.0
 50
0.0
 71
     0
 42
0.2
  3
seiso.ttf
  4

  0
STYLE
  5
F9
330
3
100
AcDbSymbolTableRecord
100
AcDbTextStyleTableRecord
  2
SEACAD_seiso_ttfI
 70
     0
 40
0.2
 41
1.0
 50
0.0
 71
     0
 42
0.2
  3
seiso.ttf
  4

  0
STYLE
  5
100
330
3
100
AcDbSymbolTableRecord
100
AcDbTextStyleTableRecord
  2
SEACAD_seiso_ttfB
 70
     0
 40
0.2
 41
1.0
 50
0.0
 71
     0
 42
0.2
  3
seiso.ttf
  4

  0
ENDTAB
  0
TABLE
  2
VIEW
  5
6
330
0
100
AcDbSymbolTable
 70
     0
  0
ENDTAB
  0
TABLE
  2
UCS
  5
7
330
0
100
AcDbSymbolTable
 70
     0
  0
ENDTAB
  0
TABLE
  2
APPID
  5
9
330
0
100
AcDbSymbolTable
 70
     1
  0
APPID
  5
12
330
9
100
AcDbSymbolTableRecord
100
AcDbRegAppTableRecord
  2
ACAD
 70
     0
  0
ENDTAB
  0
TABLE
  2
DIMSTYLE
  5
A
330
0
100
AcDbSymbolTable
 70
     1
100
AcDbDimStyleTable
  0
DIMSTYLE
105
27
330
A
100
AcDbSymbolTableRecord
100
AcDbDimStyleTableRecord
  2
Standard
 70
     0
340
11
  0
ENDTAB
  0
TABLE
  2
BLOCK_RECORD
  5
1
330
0
100
AcDbSymbolTable
 70
    12
  0
BLOCK_RECORD
  5
1F
330
1
100
AcDbSymbolTableRecord
100
AcDbBlockTableRecord
  2
*Model_Space
340
22
  0
BLOCK_RECORD
  5
1B
330
1
100
AcDbSymbolTableRecord
100
AcDbBlockTableRecord
  2
*Paper_Space
340
1E
  0
BLOCK_RECORD
  5
2B
330
1
100
AcDbSymbolTableRecord
100
AcDbBlockTableRecord
  2
SE
340
0
102
{BLKREFS
331
2C
102
}
  0
BLOCK_RECORD
  5
CB
330
1
100
AcDbSymbolTableRecord
100
AcDbBlockTableRecord
  2
SEANNOT_GROUP
340
0
102
{BLKREFS
331
CC
102
}
  0
BLOCK_RECORD
  5
D0
330
1
100
AcDbSymbolTableRecord
100
AcDbBlockTableRecord
  2
SEANNOT_GROUP1
340
0
102
{BLKREFS
331
D1
102
}
  0
BLOCK_RECORD
  5
D4
330
1
100
AcDbSymbolTableRecord
100
AcDbBlockTableRecord
  2
SEANNOT_GROUP2
340
0
102
{BLKREFS
331
D5
102
}
  0
BLOCK_RECORD
  5
D8
330
1
100
AcDbSymbolTableRecord
100
AcDbBlockTableRecord
  2
SEANNOT_GROUP3
340
0
102
{BLKREFS
331
D9
102
}
  0
BLOCK_RECORD
  5
FC
330
1
100
AcDbSymbolTableRecord
100
AcDbBlockTableRecord
  2
SEANNOT_GROUP4
340
0
102
{BLKREFS
331
FD
102
}
  0
BLOCK_RECORD
  5
103
330
1
100
AcDbSymbolTableRecord
100
AcDbBlockTableRecord
  2
SEANNOT_GROUP5
340
0
102
{BLKREFS
331
104
102
}
  0
BLOCK_RECORD
  5
108
330
1
100
AcDbSymbolTableRecord
100
AcDbBlockTableRecord
  2
SEANNOT_GROUP6
340
0
102
{BLKREFS
331
109
102
}
  0
BLOCK_RECORD
  5
10C
330
1
100
AcDbSymbolTableRecord
100
AcDbBlockTableRecord
  2
SEANNOT_GROUP7
340
0
102
{BLKREFS
331
10D
102
}
  0
BLOCK_RECORD
  5
113
330
1
100
AcDbSymbolTableRecord
100
AcDbBlockTableRecord
  2
SEANNOT_GROUP8
340
0
102
{BLKREFS
331
114
102
}
  0
BLOCK_RECORD
  5
118
330
1
100
AcDbSymbolTableRecord
100
AcDbBlockTableRecord
  2
SEANNOT_GROUP9
340
0
102
{BLKREFS
331
119
102
}
  0
ENDTAB
  0
ENDSEC
  0
SECTION
  2
BLOCKS
  0
BLOCK
  5
20
330
1F
100
AcDbEntity
  8
0
100
AcDbBlockBegin
  2
*Model_Space
 70
     0
 71
     0
 10
0.0
 20
0.0
 30
0.0
  3
*Model_Space
  1

  0
ENDBLK
  5
21
330
1F
100
AcDbEntity
  8
0
100
AcDbBlockEnd
  0
BLOCK
  5
1C
330
1B
100
AcDbEntity
 67
     1
  8
0
100
AcDbBlockBegin
  2
*Paper_Space
 70
     0
 71
     0
 10
0.0
 20
0.0
 30
0.0
  3
*Paper_Space
  1

  0
ENDBLK
  5
1D
330
1B
100
AcDbEntity
 67
     1
  8
0
100
AcDbBlockEnd
  0
BLOCK
  5
B9
330
2B
100
AcDbEntity
  8
0
100
AcDbBlockBegin
  2
SE
 70
     0
 71
     0
 10
0.0
 20
0.0
 30
0.0
  3
SE
  1

  0
LINE
  5
2E
330
2B
100
AcDbEntity
  8
PANEL_INFERIOR_2
  6
Continuous
 62
     7
 48
25.4
100
AcDbLine
 10
418.5513866455
 20
375.8194618103
 30
0.0
 11
417.5513866455
 21
375.8194618103
 31
0.0
  0
LINE
  5
2F
330
2B
100
AcDbEntity
  8
PANEL_INFERIOR_2
  6
Continuous
 62
     7
 48
25.4
100
AcDbLine
 10
417.5513866455
 20
375.8194618103
 30
0.0
 11
416.5513866455
 21
375.8194618103
 31
0.0
  0
LINE
  5
30
330
2B
100
AcDbEntity
  8
PANEL_INFERIOR_2
  6
Continuous
 62
     7
 48
25.4
100
AcDbLine
 10
37.5513866455
 20
375.8194618103
 30
0.0
 11
36.5513866455
 21
375.8194618103
 31
0.0
  0
LINE
  5
31
330
2B
100
AcDbEntity
  8
PANEL_INFERIOR_2
  6
Continuous
 62
     7
 48
25.4
100
AcDbLine
 10
36.5513866455
 20
375.8194618103
 30
0.0
 11
35.5513866455
 21
375.8194618103
 31
0.0
  0
LINE
  5
32
330
2B
100
AcDbEntity
  8
PANEL_INFERIOR_2
  6
Continuous
 62
     7
 48
25.4
100
AcDbLine
 10
36.5513866455
 20
57.8194618103
 30
0.0
 11
35.5513866455
 21
57.8194618103
 31
0.0
  0
LINE
  5
33
330
2B
100
AcDbEntity
  8
PANEL_INFERIOR_2
  6
Continuous
 62
     7
 48
25.4
100
AcDbLine
 10
37.5513866455
 20
57.8194618103
 30
0.0
 11
36.5513866455
 21
57.8194618103
 31
0.0
  0
LINE
  5
34
330
2B
100
AcDbEntity
  8
PANEL_INFERIOR_2
  6
Continuous
 62
     7
 48
25.4
100
AcDbLine
 10
417.5513866455
 20
57.8194618103
 30
0.0
 11
416.5513866455
 21
57.8194618103
 31
0.0
  0
LINE
  5
35
330
2B
100
AcDbEntity
  8
PANEL_INFERIOR_2
  6
Continuous
 62
     7
 48
25.4
100
AcDbLine
 10
418.5513866455
 20
57.8194618103
 30
0.0
 11
417.5513866455
 21
57.8194618103
 31
0.0
  0
LINE
  5
36
330
2B
100
AcDbEntity
  8
PANEL_INFERIOR_2
  6
Continuous
 62
     7
 48
25.4
100
AcDbLine
 10
35.5513866455
 20
375.8194618103
 30
0.0
 11
35.5513866455
 21
57.8194618103
 31
0.0
  0
LINE
  5
37
330
2B
100
AcDbEntity
  8
PANEL_INFERIOR_2
  6
Continuous
 62
     7
 48
25.4
100
AcDbLine
 10
36.5513866455
 20
375.8194618103
 30
0.0
 11
36.5513866455
 21
57.8194618103
 31
0.0
  0
LINE
  5
38
330
2B
100
AcDbEntity
  8
PANEL_INFERIOR_2
  6
Continuous
 62
     7
 48
25.4
100
AcDbLine
 10
417.5513866455
 20
375.8194618103
 30
0.0
 11
417.5513866455
 21
57.8194618103
 31
0.0
  0
LINE
  5
39
330
2B
100
AcDbEntity
  8
PANEL_INFERIOR_2
  6
Continuous
 62
     7
 48
25.4
100
AcDbLine
 10
418.5513866455
 20
375.8194618103
 30
0.0
 11
418.5513866455
 21
57.8194618103
 31
0.0
  0
LINE
  5
3A
330
2B
100
AcDbEntity
  8
PANEL_INFERIOR_2
  6
Continuous
 62
     7
 48
25.4
100
AcDbLine
 10
39.5513866455
 20
57.8194618103
 30
0.0
 11
37.5513866455
 21
57.8194618103
 31
0.0
  0
LINE
  5
3B
330
2B
100
AcDbEntity
  8
PANEL_INFERIOR_2
  6
Continuous
 62
     7
 48
25.4
100
AcDbLine
 10
416.5513866455
 20
55.8194618103
 30
0.0
 11
39.5513866455
 21
55.8194618103
 31
0.0
  0
LINE
  5
3C
330
2B
100
AcDbEntity
  8
PANEL_INFERIOR_2
  6
Continuous
 62
     7
 48
25.4
100
AcDbLine
 10
416.5513866455
 20
55.8194618103
 30
0.0
 11
416.5513866455
 21
56.8194618103
 31
0.0
  0
LINE
  5
3D
330
2B
100
AcDbEntity
  8
PANEL_INFERIOR_2
  6
Continuous
 62
     7
 48
25.4
100
AcDbLine
 10
416.5513866455
 20
56.8194618103
 30
0.0
 11
39.5513866455
 21
56.8194618103
 31
0.0
  0
LINE
  5
3E
330
2B
100
AcDbEntity
  8
PANEL_INFERIOR_2
  6
Continuous
 62
     7
 48
25.4
100
AcDbLine
 10
416.5513866455
 20
56.8194618103
 30
0.0
 11
416.5513866455
 21
57.8194618103
 31
0.0
  0
LINE
  5
3F
330
2B
100
AcDbEntity
  8
PANEL_INFERIOR_2
  6
Continuous
 62
     7
 48
25.4
100
AcDbLine
 10
39.5513866455
 20
56.8194618103
 30
0.0
 11
39.5513866455
 21
57.8194618103
 31
0.0
  0
LINE
  5
40
330
2B
100
AcDbEntity
  8
PANEL_INFERIOR_2
  6
Continuous
 62
     7
 48
25.4
100
AcDbLine
 10
39.5513866455
 20
55.8194618103
 30
0.0
 11
39.5513866455
 21
56.8194618103
 31
0.0
  0
LINE
  5
41
330
2B
100
AcDbEntity
  8
PANEL_INFERIOR_2
  6
Continuous
 62
     7
 48
25.4
100
AcDbLine
 10
39.5513866455
 20
375.8194618103
 30
0.0
 11
37.5513866455
 21
375.8194618103
 31
0.0
  0
LINE
  5
42
330
2B
100
AcDbEntity
  8
PANEL_INFERIOR_2
  6
Continuous
 62
     7
 48
25.4
100
AcDbLine
 10
416.5513866455
 20
377.8194618103
 30
0.0
 11
416.5513866455
 21
376.8194618103
 31
0.0
  0
LINE
  5
43
330
2B
100
AcDbEntity
  8
PANEL_INFERIOR_2
  6
Continuous
 62
     7
 48
25.4
100
AcDbLine
 10
416.5513866455
 20
376.8194618103
 30
0.0
 11
416.5513866455
 21
375.8194618103
 31
0.0
  0
LINE
  5
44
330
2B
100
AcDbEntity
  8
PANEL_INFERIOR_2
  6
Continuous
 62
     7
 48
25.4
100
AcDbLine
 10
39.5513866455
 20
377.8194618103
 30
0.0
 11
39.5513866455
 21
376.8194618103
 31
0.0
  0
LINE
  5
45
330
2B
100
AcDbEntity
  8
PANEL_INFERIOR_2
  6
Continuous
 62
     7
 48
25.4
100
AcDbLine
 10
416.5513866455
 20
377.8194618103
 30
0.0
 11
39.5513866455
 21
377.8194618103
 31
0.0
  0
LINE
  5
46
330
2B
100
AcDbEntity
  8
PANEL_INFERIOR_2
  6
Continuous
 62
     7
 48
25.4
100
AcDbLine
 10
416.5513866455
 20
376.8194618103
 30
0.0
 11
39.5513866455
 21
376.8194618103
 31
0.0
  0
LINE
  5
47
330
2B
100
AcDbEntity
  8
PANEL_INFERIOR_2
  6
Continuous
 62
     7
 48
25.4
100
AcDbLine
 10
39.5513866455
 20
376.8194618103
 30
0.0
 11
39.5513866455
 21
375.8194618103
 31
0.0
  0
CIRCLE
  5
48
330
2B
100
AcDbEntity
  8
PANEL_INFERIOR_2
  6
Continuous
 62
     7
 48
25.4
100
AcDbCircle
 10
88.0513866455
 20
106.8194618103
 30
0.0
 40
1.25
  0
CIRCLE
  5
49
330
2B
100
AcDbEntity
  8
PANEL_INFERIOR_2
  6
Continuous
 62
     7
 48
25.4
100
AcDbCircle
 10
368.0513866455
 20
106.8194618103
 30
0.0
 40
1.25
  0
CIRCLE
  5
4A
330
2B
100
AcDbEntity
  8
PANEL_INFERIOR_2
  6
Continuous
 62
     7
 48
25.4
100
AcDbCircle
 10
368.0513866455
 20
326.8194618103
 30
0.0
 40
1.25
  0
CIRCLE
  5
4B
330
2B
100
AcDbEntity
  8
PANEL_INFERIOR_2
  6
Continuous
 62
     7
 48
25.4
100
AcDbCircle
 10
368.1759119442
 20
202.9259308569
 30
0.0
 40
2.0
  0
CIRCLE
  5
4C
330
2B
100
AcDbEntity
  8
PANEL_INFERIOR_2
  6
Continuous
 62
     7
 48
25.4
100
AcDbCircle
 10
409.4864574369
 20
128.3556945154
 30
0.0
 40
2.0
  0
CIRCLE
  5
4D
330
2B
100
AcDbEntity
  8
PANEL_INFERIOR_2
  6
Continuous
 62
     7
 48
25.4
100
AcDbCircle
 10
297.4864574369
 20
128.3556945154
 30
0.0
 40
2.0
  0
CIRCLE
  5
4E
330
2B
100
AcDbEntity
  8
PANEL_INFERIOR_2
  6
Continuous
 62
     7
 48
25.4
100
AcDbCircle
 10
288.4864574369
 20
128.3556945154
 30
0.0
 40
2.0
  0
CIRCLE
  5
4F
330
2B
100
AcDbEntity
  8
PANEL_INFERIOR_2
  6
Continuous
 62
     7
 48
25.4
100
AcDbCircle
 10
176.4864574369
 20
128.3556945154
 30
0.0
 40
2.0
  0
CIRCLE
  5
50
330
2B
100
AcDbEntity
  8
PANEL_INFERIOR_2
  6
Continuous
 62
     7
 48
25.4
100
AcDbCircle
 10
380.3913866455
 20
168.5032314701
 30
0.0
 40
2.0
  0
CIRCLE
  5
51
330
2B
100
AcDbEntity
  8
PANEL_INFERIOR_2
  6
Continuous
 62
     7
 48
25.4
100
AcDbCircle
 10
268.3913866455
 20
168.5032314701
 30
0.0
 40
2.0
  0
CIRCLE
  5
52
330
2B
100
AcDbEntity
  8
PANEL_INFERIOR_2
  6
Continuous
 62
     7
 48
25.4
100
AcDbCircle
 10
259.3913866455
 20
168.5032314701
 30
0.0
 40
2.0
  0
CIRCLE
  5
53
330
2B
100
AcDbEntity
  8
PANEL_INFERIOR_2
  6
Continuous
 62
     7
 48
25.4
100
AcDbCircle
 10
147.3913866455
 20
168.5032314701
 30
0.0
 40
2.0
  0
CIRCLE
  5
54
330
2B
100
AcDbEntity
  8
PANEL_INFERIOR_2
  6
Continuous
 62
     7
 48
25.4
100
AcDbCircle
 10
111.9932310474
 20
94.4082228253
 30
0.0
 40
2.0
  0
CIRCLE
  5
55
330
2B
100
AcDbEntity
  8
PANEL_INFERIOR_2
  6
Continuous
 62
     7
 48
25.4
100
AcDbCircle
 10
44.2847110605
 20
94.4252734496
 30
0.0
 40
2.0
  0
CIRCLE
  5
56
330
2B
100
AcDbEntity
  8
PANEL_INFERIOR_2
  6
Continuous
 62
     7
 48
25.4
100
AcDbCircle
 10
111.525454172
 20
200.4548883417
 30
0.0
 40
2.0
  0
CIRCLE
  5
57
330
2B
100
AcDbEntity
  8
PANEL_INFERIOR_2
  6
Continuous
 62
     7
 48
25.4
100
AcDbCircle
 10
43.8259912059
 20
200.5382379184
 30
0.0
 40
2.0
  0
CIRCLE
  5
58
330
2B
100
AcDbEntity
  8
PANEL_INFERIOR_2
  6
Continuous
 62
     7
 48
25.4
100
AcDbCircle
 10
313.3619030233
 20
215.5939826527
 30
0.0
 40
2.0
  0
CIRCLE
  5
59
330
2B
100
AcDbEntity
  8
PANEL_INFERIOR_2
  6
Continuous
 62
     7
 48
25.4
100
AcDbCircle
 10
313.216302835
 20
223.3963521786
 30
0.0
 40
2.0
  0
CIRCLE
  5
5A
330
2B
100
AcDbEntity
  8
PANEL_INFERIOR_2
  6
Continuous
 62
     7
 48
25.4
100
AcDbCircle
 10
313.216302835
 20
318.3963521786
 30
0.0
 40
2.0
  0
CIRCLE
  5
5B
330
2B
100
AcDbEntity
  8
PANEL_INFERIOR_2
  6
Continuous
 62
     7
 48
25.4
100
AcDbCircle
 10
332.466302835
 20
326.3963521786
 30
0.0
 40
2.0
  0
CIRCLE
  5
5C
330
2B
100
AcDbEntity
  8
PANEL_INFERIOR_2
  6
Continuous
 62
     7
 48
25.4
100
AcDbCircle
 10
135.716302835
 20
223.3963521786
 30
0.0
 40
2.0
  0
CIRCLE
  5
5D
330
2B
100
AcDbEntity
  8
PANEL_INFERIOR_2
  6
Continuous
 62
     7
 48
25.4
100
AcDbCircle
 10
99.9702536104
 20
215.5919870613
 30
0.0
 40
2.0
  0
CIRCLE
  5
5E
330
2B
100
AcDbEntity
  8
PANEL_INFERIOR_2
  6
Continuous
 62
     7
 48
25.4
100
AcDbCircle
 10
135.716302835
 20
318.3963521786
 30
0.0
 40
2.0
  0
CIRCLE
  5
5F
330
2B
100
AcDbEntity
  8
PANEL_INFERIOR_2
  6
Continuous
 62
     7
 48
25.4
100
AcDbCircle
 10
124.166302835
 20
326.3963521786
 30
0.0
 40
2.0
  0
CIRCLE
  5
60
330
2B
100
AcDbEntity
  8
PANEL_INFERIOR_2
  6
Continuous
 62
     7
 48
25.4
100
AcDbCircle
 10
111.1533903812
 20
341.6194618103
 30
0.0
 40
2.0
  0
CIRCLE
  5
61
330
2B
100
AcDbEntity
  8
PANEL_INFERIOR_2
  6
Continuous
 62
     7
 48
25.4
100
AcDbCircle
 10
188.3033903812
 20
345.4194618103
 30
0.0
 40
2.0
  0
CIRCLE
  5
62
330
2B
100
AcDbEntity
  8
PANEL_INFERIOR_2
  6
Continuous
 62
     7
 48
25.4
100
AcDbCircle
 10
351.966302835
 20
329.3963521786
 30
0.0
 40
2.0
  0
CIRCLE
  5
63
330
2B
100
AcDbEntity
  8
PANEL_INFERIOR_2
  6
Continuous
 62
     7
 48
25.4
100
AcDbCircle
 10
345.2353099452
 20
329.3963521786
 30
0.0
 40
2.0
  0
ARC
  5
64
330
2B
100
AcDbEntity
  8
PANEL_INFERIOR_2
  6
Continuous
 62
     7
 48
25.4
100
AcDbCircle
 10
88.0513866455
 20
326.8194618103
 30
0.0
 40
1.250000000000012
100
AcDbArc
 50
151.6770758403
 51
83.764512479
  0
ARC
  5
65
330
2B
100
AcDbEntity
  8
PANEL_INFERIOR_2
  6
Continuous
 62
     7
 48
25.4
100
AcDbCircle
 10
86.6972957247
 20
329.3963521786
 30
0.0
 40
2.000000000000006
100
AcDbArc
 50
318.1530773045
 51
277.2885110148
  0
CIRCLE
  5
66
330
2B
100
AcDbEntity
  8
PANEL_INFERIOR_2
  6
Continuous
 62
     7
 48
25.4
100
AcDbCircle
 10
79.966302835
 20
329.3963521786
 30
0.0
 40
2.0
  0
CIRCLE
  5
67
330
2B
100
AcDbEntity
  8
PANEL_INFERIOR_2
  6
Continuous
 62
     7
 48
25.4
100
AcDbCircle
 10
407.929337483
 20
286.9051436324
 30
0.0
 40
2.0
  0
CIRCLE
  5
68
330
2B
100
AcDbEntity
  8
PANEL_INFERIOR_2
  6
Continuous
 62
     7
 48
25.4
100
AcDbCircle
 10
386.6827075359
 20
286.7508037193
 30
0.0
 40
2.0
  0
CIRCLE
  5
69
330
2B
100
AcDbEntity
  8
PANEL_INFERIOR_2
  6
Continuous
 62
     7
 48
25.4
100
AcDbCircle
 10
408.4019612053
 20
202.8312352364
 30
0.0
 40
2.0
  0
CIRCLE
  5
6A
330
2B
100
AcDbEntity
  8
PANEL_INFERIOR_2
  6
Continuous
 62
     7
 48
25.4
100
AcDbCircle
 10
95.205509875
 20
106.3272881795
 30
0.0
 40
2.0
  0
CIRCLE
  5
6B
330
2B
100
AcDbEntity
  8
PANEL_INFERIOR_2
  6
Continuous
 62
     7
 48
25.4
100
AcDbCircle
 10
48.255509875
 20
184.4772881795
 30
0.0
 40
2.0
  0
CIRCLE
  5
6C
330
2B
100
AcDbEntity
  8
PANEL_INFERIOR_2
  6
Continuous
 62
     7
 48
25.4
100
AcDbCircle
 10
167.4864574369
 20
128.3556945154
 30
0.0
 40
2.0
  0
CIRCLE
  5
6D
330
2B
100
AcDbEntity
  8
PANEL_INFERIOR_2
  6
Continuous
 62
     7
 48
25.4
100
AcDbCircle
 10
55.4864574369
 20
128.3556945154
 30
0.0
 40
2.0
  0
CIRCLE
  5
6E
330
2B
100
AcDbEntity
  8
PANEL_INFERIOR_2
  6
Continuous
 62
     7
 48
25.4
100
AcDbCircle
 10
179.8033903812
 20
358.7194618103
 30
0.0
 40
2.0
  0
CIRCLE
  5
6F
330
2B
100
AcDbEntity
  8
PANEL_INFERIOR_2
  6
Continuous
 62
     7
 48
25.4
100
AcDbCircle
 10
140.7033903812
 20
358.7194618103
 30
0.0
 40
2.0
  0
CIRCLE
  5
70
330
2B
100
AcDbEntity
  8
PANEL_INFERIOR_2
  6
Continuous
 62
     7
 48
25.4
100
AcDbCircle
 10
75.255509875
 20
133.2272881795
 30
0.0
 40
2.0
  0
CIRCLE
  5
71
330
2B
100
AcDbEntity
  8
PANEL_INFERIOR_2
  6
Continuous
 62
     7
 48
25.4
100
AcDbCircle
 10
75.255509875
 20
172.3272881795
 30
0.0
 40
2.0
  0
CIRCLE
  5
72
330
2B
100
AcDbEntity
  8
PANEL_INFERIOR_2
  6
Continuous
 62
     7
 48
25.4
100
AcDbCircle
 10
388.5336810225
 20
211.9981788601
 30
0.0
 40
2.0
  0
CIRCLE
  5
73
330
2B
100
AcDbEntity
  8
PANEL_INFERIOR_2
  6
Continuous
 62
     7
 48
25.4
100
AcDbCircle
 10
340.8523741081
 20
240.2295092521
 30
0.0
 40
2.0
  0
CIRCLE
  5
74
330
2B
100
AcDbEntity
  8
PANEL_INFERIOR_2
  6
Continuous
 62
     7
 48
25.4
100
AcDbCircle
 10
340.8523741081
 20
352.2295092521
 30
0.0
 40
2.0
  0
CIRCLE
  5
75
330
2B
100
AcDbEntity
  8
PANEL_INFERIOR_2
  6
Continuous
 62
     7
 48
25.4
100
AcDbCircle
 10
291.3336810225
 20
323.9981788601
 30
0.0
 40
2.0
  0
CIRCLE
  5
76
330
2B
100
AcDbEntity
  8
PANEL_INFERIOR_2
  6
Continuous
 62
     7
 48
25.4
100
AcDbCircle
 10
291.3336810225
 20
211.9981788601
 30
0.0
 40
2.0
  0
CIRCLE
  5
77
330
2B
100
AcDbEntity
  8
PANEL_INFERIOR_2
  6
Continuous
 62
     7
 48
25.4
100
AcDbCircle
 10
243.6523741081
 20
240.2295092521
 30
0.0
 40
2.0
  0
CIRCLE
  5
78
330
2B
100
AcDbEntity
  8
PANEL_INFERIOR_2
  6
Continuous
 62
     7
 48
25.4
100
AcDbCircle
 10
243.6523741081
 20
352.2295092521
 30
0.0
 40
2.0
  0
CIRCLE
  5
79
330
2B
100
AcDbEntity
  8
PANEL_INFERIOR_2
  6
Continuous
 62
     7
 48
25.4
100
AcDbCircle
 10
368.0641265442
 20
162.6999254569
 30
0.0
 40
2.0
  0
CIRCLE
  5
7A
330
2B
100
AcDbEntity
  8
PANEL_INFERIOR_2
  6
Continuous
 62
     7
 48
25.4
100
AcDbCircle
 10
284.1018103442
 20
202.4890254569
 30
0.0
 40
2.0
  0
CIRCLE
  5
7B
330
2B
100
AcDbEntity
  8
PANEL_INFERIOR_2
  6
Continuous
 62
     7
 48
25.4
100
AcDbCircle
 10
284.2471237442
 20
181.2423318569
 30
0.0
 40
2.0
  0
CIRCLE
  5
7C
330
2B
100
AcDbEntity
  8
PANEL_INFERIOR_2
  6
Continuous
 62
     7
 48
25.4
100
AcDbCircle
 10
249.6883905529
 20
112.260248063
 30
0.0
 40
2.0
  0
CIRCLE
  5
7D
330
2B
100
AcDbEntity
  8
PANEL_INFERIOR_2
  6
Continuous
 62
     7
 48
25.4
100
AcDbCircle
 10
181.9798705659
 20
112.2772986873
 30
0.0
 40
2.0
  0
CIRCLE
  5
7E
330
2B
100
AcDbEntity
  8
PANEL_INFERIOR_2
  6
Continuous
 62
     7
 48
25.4
100
AcDbCircle
 10
193.0836857996
 20
193.6669549935
 30
0.0
 40
2.0
  0
CIRCLE
  5
7F
330
2B
100
AcDbEntity
  8
PANEL_INFERIOR_2
  6
Continuous
 62
     7
 48
25.4
100
AcDbCircle
 10
253.9236707996
 20
207.6669523935
 30
0.0
 40
2.0
  0
CIRCLE
  5
80
330
2B
100
AcDbEntity
  8
PANEL_INFERIOR_2
  6
Continuous
 62
     7
 48
25.4
100
AcDbCircle
 10
213.2203663913
 20
251.9682632873
 30
0.0
 40
2.0
  0
CIRCLE
  5
81
330
2B
100
AcDbEntity
  8
PANEL_INFERIOR_2
  6
Continuous
 62
     7
 48
25.4
100
AcDbCircle
 10
209.4203663913
 20
329.1182632873
 30
0.0
 40
2.0
  0
CIRCLE
  5
82
330
2B
100
AcDbEntity
  8
PANEL_INFERIOR_2
  6
Continuous
 62
     7
 48
25.4
100
AcDbCircle
 10
388.5336810225
 20
323.9981788601
 30
0.0
 40
2.0
  0
LINE
  5
83
330
2B
100
AcDbEntity
  8
PANEL_INFERIOR_2
  6
Continuous
 62
     7
 48
25.4
100
AcDbLine
 10
103.314732682
 20
261.9349699607
 30
0.0
 11
90.314732682
 21
261.9349699607
 31
0.0
  0
LINE
  5
84
330
2B
100
AcDbEntity
  8
PANEL_INFERIOR_2
  6
Continuous
 62
     7
 48
25.4
100
AcDbLine
 10
90.314732682
 20
261.9349699607
 30
0.0
 11
90.314732682
 21
240.9349699607
 31
0.0
  0
LINE
  5
85
330
2B
100
AcDbEntity
  8
PANEL_INFERIOR_2
  6
Continuous
 62
     7
 48
25.4
100
AcDbLine
 10
90.314732682
 20
240.9349699607
 30
0.0
 11
103.314732682
 21
240.9349699607
 31
0.0
  0
LINE
  5
86
330
2B
100
AcDbEntity
  8
PANEL_INFERIOR_2
  6
Continuous
 62
     7
 48
25.4
100
AcDbLine
 10
103.314732682
 20
240.9349699607
 30
0.0
 11
103.314732682
 21
261.9349699607
 31
0.0
  0
CIRCLE
  5
87
330
2B
100
AcDbEntity
  8
PANEL_INFERIOR_2
  6
Continuous
 62
     7
 48
25.4
100
AcDbCircle
 10
209.2819769996
 20
164.8275409935
 30
0.0
 40
2.0
  0
CIRCLE
  5
88
330
2B
100
AcDbEntity
  8
PANEL_INFERIOR_2
  6
Continuous
 62
     7
 48
25.4
100
AcDbCircle
 10
249.2206136774
 20
218.3069135794
 30
0.0
 40
2.0
  0
CIRCLE
  5
89
330
2B
100
AcDbEntity
  8
PANEL_INFERIOR_2
  6
Continuous
 62
     7
 48
25.4
100
AcDbCircle
 10
181.5211507113
 20
218.3902631561
 30
0.0
 40
2.0
  0
CIRCLE
  5
8A
330
2B
100
AcDbEntity
  8
PANEL_INFERIOR_2
  6
Continuous
 62
     7
 48
25.4
100
AcDbCircle
 10
253.9490707996
 20
122.2423581935
 30
0.0
 40
2.0
  0
CIRCLE
  5
8B
330
2B
100
AcDbEntity
  8
PANEL_INFERIOR_2
  6
Continuous
 62
     7
 48
25.4
100
AcDbCircle
 10
361.7142750295
 20
131.0194618103
 30
0.0
 40
2.000000000000003
  0
CIRCLE
  5
8C
330
2B
100
AcDbEntity
  8
PANEL_INFERIOR_2
  6
Continuous
 62
     7
 48
25.4
100
AcDbCircle
 10
279.7642750295
 20
146.3194618103
 30
0.0
 40
2.000000000000003
  0
CIRCLE
  5
8D
330
2B
100
AcDbEntity
  8
PANEL_INFERIOR_2
  6
Continuous
 62
     7
 48
25.4
100
AcDbCircle
 10
196.1203663913
 20
281.5182632873
 30
0.0
 40
2.0
  0
CIRCLE
  5
8E
330
2B
100
AcDbEntity
  8
PANEL_INFERIOR_2
  6
Continuous
 62
     7
 48
25.4
100
AcDbCircle
 10
196.1203663913
 20
320.6182632873
 30
0.0
 40
2.0
  0
CIRCLE
  5
8F
330
2B
100
AcDbEntity
  8
PANEL_INFERIOR_2
  6
Continuous
 62
     7
 48
25.4
100
AcDbCircle
 10
118.514732682
 20
156.8349699607
 30
0.0
 40
2.0
  0
CIRCLE
  5
90
330
2B
100
AcDbEntity
  8
PANEL_INFERIOR_2
  6
Continuous
 62
     7
 48
25.4
100
AcDbCircle
 10
93.814732682
 20
306.9349699607
 30
0.0
 40
2.0
  0
CIRCLE
  5
91
330
2B
100
AcDbEntity
  8
PANEL_INFERIOR_2
  6
Continuous
 62
     7
 48
25.4
100
AcDbCircle
 10
118.514732682
 20
306.9349699607
 30
0.0
 40
2.0
  0
CIRCLE
  5
92
330
2B
100
AcDbEntity
  8
PANEL_INFERIOR_2
  6
Continuous
 62
     7
 48
25.4
100
AcDbCircle
 10
160.752979149
 20
312.4070471158
 30
0.0
 40
2.0
  0
CIRCLE
  5
93
330
2B
100
AcDbEntity
  8
PANEL_INFERIOR_2
  6
Continuous
 62
     7
 48
25.4
100
AcDbCircle
 10
49.961368323
 20
336.6481551787
 30
0.0
 40
2.0
  0
CIRCLE
  5
94
330
2B
100
AcDbEntity
  8
PANEL_INFERIOR_2
  6
Continuous
 62
     7
 48
25.4
100
AcDbCircle
 10
49.9629999775
 20
123.197766026
 30
0.0
 40
2.0
  0
CIRCLE
  5
95
330
2B
100
AcDbEntity
  8
PANEL_INFERIOR_2
  6
Continuous
 62
     7
 48
25.4
100
AcDbCircle
 10
160.7370513408
 20
104.0779658063
 30
0.0
 40
2.0
  0
CIRCLE
  5
96
330
2B
100
AcDbEntity
  8
PANEL_INFERIOR_2
  6
Continuous
 62
     7
 48
25.4
100
AcDbCircle
 10
93.814732682
 20
156.8349699607
 30
0.0
 40
2.0
  0
CIRCLE
  5
97
330
2B
100
AcDbEntity
  8
PANEL_INFERIOR_2
  6
Continuous
 62
     7
 48
25.4
100
AcDbCircle
 10
155.2698932419
 20
150.1470707371
 30
0.0
 40
2.0
  0
CIRCLE
  5
98
330
2B
100
AcDbEntity
  8
PANEL_INFERIOR_2
  6
Continuous
 62
     7
 48
25.4
100
AcDbCircle
 10
55.2698932419
 20
150.1470707371
 30
0.0
 40
2.0
  0
CIRCLE
  5
99
330
2B
100
AcDbEntity
  8
PANEL_INFERIOR_2
  6
Continuous
 62
     7
 48
25.4
100
AcDbCircle
 10
55.2698932419
 20
300.1470707371
 30
0.0
 40
2.0
  0
CIRCLE
  5
9A
330
2B
100
AcDbEntity
  8
PANEL_INFERIOR_2
  6
Continuous
 62
     7
 48
25.4
100
AcDbCircle
 10
155.2698932419
 20
300.1470707371
 30
0.0
 40
2.0
  0
CIRCLE
  5
9B
330
2B
100
AcDbEntity
  8
PANEL_INFERIOR_2
  6
Continuous
 62
     7
 48
25.4
100
AcDbCircle
 10
215.966302835
 20
195.8963521786
 30
0.0
 40
2.0
  0
CIRCLE
  5
9C
330
2B
100
AcDbEntity
  8
PANEL_INFERIOR_2
  6
Continuous
 62
     7
 48
25.4
100
AcDbCircle
 10
67.9244115315
 20
94.4082228253
 30
0.0
 40
1.25
  0
CIRCLE
  5
9D
330
2B
100
AcDbEntity
  8
PANEL_INFERIOR_2
  6
Continuous
 62
     7
 48
25.4
100
AcDbCircle
 10
386.1783617594
 20
94.4082228253
 30
0.0
 40
1.25
  0
CIRCLE
  5
9E
330
2B
100
AcDbEntity
  8
PANEL_INFERIOR_2
  6
Continuous
 62
     7
 48
25.4
100
AcDbCircle
 10
67.9244115315
 20
339.2307007953
 30
0.0
 40
1.25
  0
CIRCLE
  5
9F
330
2B
100
AcDbEntity
  8
PANEL_INFERIOR_2
  6
Continuous
 62
     7
 48
25.4
100
AcDbCircle
 10
386.1783617594
 20
339.2307007953
 30
0.0
 40
1.25
  0
CIRCLE
  5
A0
330
2B
100
AcDbEntity
  8
PANEL_INFERIOR_2
  6
Continuous
 62
     7
 48
25.4
100
AcDbCircle
 10
137.3842616864
 20
162.171606191
 30
0.0
 40
2.0
  0
CIRCLE
  5
A1
330
2B
100
AcDbEntity
  8
PANEL_INFERIOR_2
  6
Continuous
 62
     7
 48
25.4
100
AcDbCircle
 10
60.2342616864
 20
158.371606191
 30
0.0
 40
2.0
  0
CIRCLE
  5
A2
330
2B
100
AcDbEntity
  8
PANEL_INFERIOR_2
  6
Continuous
 62
     7
 48
25.4
100
AcDbCircle
 10
128.8842616864
 20
175.471606191
 30
0.0
 40
2.0
  0
CIRCLE
  5
A3
330
2B
100
AcDbEntity
  8
PANEL_INFERIOR_2
  6
Continuous
 62
     7
 48
25.4
100
AcDbCircle
 10
89.7842616864
 20
175.471606191
 30
0.0
 40
2.0
  0
LINE
  5
A5
330
2B
100
AcDbEntity
  8
PANEL_INFERIOR_2
  6
HIDDEN2
 62
     7
 48
25.4
100
AcDbLine
 10
35.5513866455
 20
95.3194618103
 30
0.0
 11
36.5513866455
 21
95.3194618103
 31
0.0
  0
LINE
  5
A6
330
2B
100
AcDbEntity
  8
PANEL_INFERIOR_2
  6
HIDDEN2
 62
     7
 48
25.4
100
AcDbLine
 10
36.5513866455
 20
99.3194618103
 30
0.0
 11
35.5513866455
 21
99.3194618103
 31
0.0
  0
LINE
  5
A7
330
2B
100
AcDbEntity
  8
PANEL_INFERIOR_2
  6
HIDDEN2
 62
     7
 48
25.4
100
AcDbLine
 10
35.5513866455
 20
334.3194618103
 30
0.0
 11
36.5513866455
 21
334.3194618103
 31
0.0
  0
LINE
  5
A8
330
2B
100
AcDbEntity
  8
PANEL_INFERIOR_2
  6
HIDDEN2
 62
     7
 48
25.4
100
AcDbLine
 10
36.5513866455
 20
338.3194618103
 30
0.0
 11
35.5513866455
 21
338.3194618103
 31
0.0
  0
LINE
  5
A9
330
2B
100
AcDbEntity
  8
PANEL_INFERIOR_2
  6
HIDDEN2
 62
     7
 48
25.4
100
AcDbLine
 10
418.5513866455
 20
99.3194618103
 30
0.0
 11
417.5513866455
 21
99.3194618103
 31
0.0
  0
LINE
  5
AA
330
2B
100
AcDbEntity
  8
PANEL_INFERIOR_2
  6
HIDDEN2
 62
     7
 48
25.4
100
AcDbLine
 10
417.5513866455
 20
95.3194618103
 30
0.0
 11
418.5513866455
 21
95.3194618103
 31
0.0
  0
LINE
  5
AB
330
2B
100
AcDbEntity
  8
PANEL_INFERIOR_2
  6
HIDDEN2
 62
     7
 48
25.4
100
AcDbLine
 10
418.5513866455
 20
338.3194618103
 30
0.0
 11
417.5513866455
 21
338.3194618103
 31
0.0
  0
LINE
  5
AC
330
2B
100
AcDbEntity
  8
PANEL_INFERIOR_2
  6
HIDDEN2
 62
     7
 48
25.4
100
AcDbLine
 10
417.5513866455
 20
334.3194618103
 30
0.0
 11
418.5513866455
 21
334.3194618103
 31
0.0
  0
LINE
  5
AD
330
2B
100
AcDbEntity
  8
PANEL_INFERIOR_2
  6
HIDDEN2
 62
     7
 48
25.4
100
AcDbLine
 10
75.8013866455
 20
377.8194618103
 30
0.0
 11
75.8013866455
 21
376.8194618103
 31
0.0
  0
LINE
  5
AE
330
2B
100
AcDbEntity
  8
PANEL_INFERIOR_2
  6
HIDDEN2
 62
     7
 48
25.4
100
AcDbLine
 10
78.3013866455
 20
376.8194618103
 30
0.0
 11
78.3013866455
 21
377.8194618103
 31
0.0
  0
LINE
  5
AF
330
2B
100
AcDbEntity
  8
PANEL_INFERIOR_2
  6
HIDDEN2
 62
     7
 48
25.4
100
AcDbLine
 10
375.8013866455
 20
377.8194618103
 30
0.0
 11
375.8013866455
 21
376.8194618103
 31
0.0
  0
LINE
  5
B0
330
2B
100
AcDbEntity
  8
PANEL_INFERIOR_2
  6
HIDDEN2
 62
     7
 48
25.4
100
AcDbLine
 10
378.3013866455
 20
376.8194618103
 30
0.0
 11
378.3013866455
 21
377.8194618103
 31
0.0
  0
LINE
  5
B1
330
2B
100
AcDbEntity
  8
PANEL_INFERIOR_2
  6
HIDDEN2
 62
     7
 48
25.4
100
AcDbLine
 10
225.8013866455
 20
377.8194618103
 30
0.0
 11
225.8013866455
 21
376.8194618103
 31
0.0
  0
LINE
  5
B2
330
2B
100
AcDbEntity
  8
PANEL_INFERIOR_2
  6
HIDDEN2
 62
     7
 48
25.4
100
AcDbLine
 10
228.3013866455
 20
376.8194618103
 30
0.0
 11
228.3013866455
 21
377.8194618103
 31
0.0
  0
LINE
  5
B3
330
2B
100
AcDbEntity
  8
PANEL_INFERIOR_2
  6
HIDDEN2
 62
     7
 48
25.4
100
AcDbLine
 10
78.3013866455
 20
55.8194618103
 30
0.0
 11
78.3013866455
 21
56.8194618103
 31
0.0
  0
LINE
  5
B4
330
2B
100
AcDbEntity
  8
PANEL_INFERIOR_2
  6
HIDDEN2
 62
     7
 48
25.4
100
AcDbLine
 10
75.8013866455
 20
56.8194618103
 30
0.0
 11
75.8013866455
 21
55.8194618103
 31
0.0
  0
LINE
  5
B5
330
2B
100
AcDbEntity
  8
PANEL_INFERIOR_2
  6
HIDDEN2
 62
     7
 48
25.4
100
AcDbLine
 10
378.3013866455
 20
55.8194618103
 30
0.0
 11
378.3013866455
 21
56.8194618103
 31
0.0
  0
LINE
  5
B6
330
2B
100
AcDbEntity
  8
PANEL_INFERIOR_2
  6
HIDDEN2
 62
     7
 48
25.4
100
AcDbLine
 10
375.8013866455
 20
56.8194618103
 30
0.0
 11
375.8013866455
 21
55.8194618103
 31
0.0
  0
LINE
  5
B7
330
2B
100
AcDbEntity
  8
PANEL_INFERIOR_2
  6
HIDDEN2
 62
     7
 48
25.4
100
AcDbLine
 10
228.3013866455
 20
55.8194618103
 30
0.0
 11
228.3013866455
 21
56.8194618103
 31
0.0
  0
LINE
  5
B8
330
2B
100
AcDbEntity
  8
PANEL_INFERIOR_2
  6
HIDDEN2
 62
     7
 48
25.4
100
AcDbLine
 10
225.8013866455
 20
56.8194618103
 30
0.0
 11
225.8013866455
 21
55.8194618103
 31
0.0
  0
ENDBLK
  5
BA
330
2B
100
AcDbEntity
  8
0
100
AcDbBlockEnd
  0
BLOCK
  5
CE
330
CB
100
AcDbEntity
  8
0
100
AcDbBlockBegin
  2
SEANNOT_GROUP
 70
     0
 71
     0
 10
0.0
 20
0.0
 30
0.0
  3
SEANNOT_GROUP
  1

  0
TEXT
  5
CD
330
CB
100
AcDbEntity
  8
Default
  6
Continuous
 62
     7
 48
25.4
100
AcDbText
 10
464.874
 20
50.7035
 30
0.0
 40
3.048
  1
Yuris Acosta
  7
SEACAD_seiso_ttf
 11
464.874
 21
53.7515
 31
0.0
100
AcDbText
 73
     3
  0
ENDBLK
  5
CF
330
CB
100
AcDbEntity
  8
0
100
AcDbBlockEnd
  0
BLOCK
  5
D2
330
D0
100
AcDbEntity
  8
0
100
AcDbBlockBegin
  2
SEANNOT_GROUP1
 70
     0
 71
     0
 10
0.0
 20
0.0
 30
0.0
  3
SEANNOT_GROUP1
  1

  0
ENDBLK
  5
D3
330
D0
100
AcDbEntity
  8
0
100
AcDbBlockEnd
  0
BLOCK
  5
D6
330
D4
100
AcDbEntity
  8
0
100
AcDbBlockBegin
  2
SEANNOT_GROUP2
 70
     0
 71
     0
 10
0.0
 20
0.0
 30
0.0
  3
SEANNOT_GROUP2
  1

  0
ENDBLK
  5
D7
330
D4
100
AcDbEntity
  8
0
100
AcDbBlockEnd
  0
BLOCK
  5
DA
330
D8
100
AcDbEntity
  8
0
100
AcDbBlockBegin
  2
SEANNOT_GROUP3
 70
     0
 71
     0
 10
0.0
 20
0.0
 30
0.0
  3
SEANNOT_GROUP3
  1

  0
ENDBLK
  5
DB
330
D8
100
AcDbEntity
  8
0
100
AcDbBlockEnd
  0
BLOCK
  5
FE
330
FC
100
AcDbEntity
  8
0
100
AcDbBlockBegin
  2
SEANNOT_GROUP4
 70
     0
 71
     0
 10
0.0
 20
0.0
 30
0.0
  3
SEANNOT_GROUP4
  1

  0
ENDBLK
  5
FF
330
FC
100
AcDbEntity
  8
0
100
AcDbBlockEnd
  0
BLOCK
  5
105
330
103
100
AcDbEntity
  8
0
100
AcDbBlockBegin
  2
SEANNOT_GROUP5
 70
     0
 71
     0
 10
0.0
 20
0.0
 30
0.0
  3
SEANNOT_GROUP5
  1

  0
ENDBLK
  5
106
330
103
100
AcDbEntity
  8
0
100
AcDbBlockEnd
  0
BLOCK
  5
10A
330
108
100
AcDbEntity
  8
0
100
AcDbBlockBegin
  2
SEANNOT_GROUP6
 70
     0
 71
     0
 10
0.0
 20
0.0
 30
0.0
  3
SEANNOT_GROUP6
  1

  0
ENDBLK
  5
10B
330
108
100
AcDbEntity
  8
0
100
AcDbBlockEnd
  0
BLOCK
  5
10F
330
10C
100
AcDbEntity
  8
0
100
AcDbBlockBegin
  2
SEANNOT_GROUP7
 70
     0
 71
     0
 10
0.0
 20
0.0
 30
0.0
  3
SEANNOT_GROUP7
  1

  0
TEXT
  5
10E
330
10C
100
AcDbEntity
  8
Default
  6
Continuous
 62
     7
 48
25.4
100
AcDbText
 10
506.149
 20
18.001
 30
0.0
 40
3.048
  1
Archivo: Draft2
  7
SEACAD_seiso_ttf
 11
506.149
 21
21.049
 31
0.0
100
AcDbText
 73
     3
  0
ENDBLK
  5
110
330
10C
100
AcDbEntity
  8
0
100
AcDbBlockEnd
  0
BLOCK
  5
116
330
113
100
AcDbEntity
  8
0
100
AcDbBlockBegin
  2
SEANNOT_GROUP8
 70
     0
 71
     0
 10
0.0
 20
0.0
 30
0.0
  3
SEANNOT_GROUP8
  1

  0
TEXT
  5
115
330
113
100
AcDbEntity
  8
Default
  6
Continuous
 62
     7
 48
25.4
100
AcDbText
 10
553.774
 20
11.651
 30
0.0
 40
3.048
  1
Hoja 2 de 2
  7
SEACAD_seiso_ttf
 11
553.774
 21
14.699
 31
0.0
100
AcDbText
 73
     3
  0
ENDBLK
  5
117
330
113
100
AcDbEntity
  8
0
100
AcDbBlockEnd
  0
BLOCK
  5
11B
330
118
100
AcDbEntity
  8
0
100
AcDbBlockBegin
  2
SEANNOT_GROUP9
 70
     0
 71
     0
 10
0.0
 20
0.0
 30
0.0
  3
SEANNOT_GROUP9
  1

  0
TEXT
  5
11A
330
118
100
AcDbEntity
  8
Default
  6
Continuous
 62
     7
 48
25.4
100
AcDbText
 10
488.3493456658
 20
50.769248544
 30
0.0
 40
3.0
  1
Error: Not defined.
  7
SEACAD_seiso_ttf
 11
488.3493456658
 21
53.769248544
 31
0.0
100
AcDbText
 73
     3
  0
ENDBLK
  5
11C
330
118
100
AcDbEntity
  8
0
100
AcDbBlockEnd
  0
ENDSEC
  0
SECTION
  2
ENTITIES
  0
INSERT
  5
2C
330
1F
100
AcDbEntity
  8
Default
100
AcDbBlockReference
  2
SE
 10
0.0
 20
0.0
 30
0.0
  0
LINE
  5
BB
330
1F
100
AcDbEntity
  8
Default
  6
Continuous
 62
     7
 48
25.4
100
AcDbLine
 10
10.0
 20
10.0
 30
0.0
 11
584.0
 21
10.0
 31
0.0
  0
LINE
  5
BC
330
1F
100
AcDbEntity
  8
Default
  6
Continuous
 62
     7
 48
25.4
100
AcDbLine
 10
584.0
 20
10.0
 30
0.0
 11
584.0
 21
410.0
 31
0.0
  0
LINE
  5
BD
330
1F
100
AcDbEntity
  8
Default
  6
Continuous
 62
     7
 48
25.4
100
AcDbLine
 10
584.0
 20
410.0
 30
0.0
 11
10.0
 21
410.0
 31
0.0
  0
LINE
  5
BE
330
1F
100
AcDbEntity
  8
Default
  6
Continuous
 62
     7
 48
25.4
100
AcDbLine
 10
10.0
 20
410.0
 30
0.0
 11
10.0
 21
10.0
 31
0.0
  0
LINE
  5
BF
330
1F
100
AcDbEntity
  8
Default
  6
Continuous
 62
     7
 48
25.4
100
AcDbLine
 10
457.0
 20
410.0
 30
0.0
 11
457.0
 21
390.95
 31
0.0
  0
LINE
  5
C0
330
1F
100
AcDbEntity
  8
Default
  6
Continuous
 62
     7
 48
25.4
100
AcDbLine
 10
466.652
 20
403.65
 30
0.0
 11
466.652
 21
390.95
 31
0.0
  0
LINE
  5
C1
330
1F
100
AcDbEntity
  8
Default
  6
Continuous
 62
     7
 48
25.4
100
AcDbLine
 10
536.248
 20
403.65
 30
0.0
 11
536.248
 21
390.95
 31
0.0
  0
LINE
  5
C2
330
1F
100
AcDbEntity
  8
Default
  6
Continuous
 62
     7
 48
25.4
100
AcDbLine
 10
558.6
 20
403.65
 30
0.0
 11
558.6
 21
390.95
 31
0.0
  0
LINE
  5
C3
330
1F
100
AcDbEntity
  8
Default
  6
Continuous
 62
     7
 48
25.4
100
AcDbLine
 10
457.0
 20
403.65
 30
0.0
 11
584.0
 21
403.65
 31
0.0
  0
LINE
  5
C4
330
1F
100
AcDbEntity
  8
Default
  6
Continuous
 62
     7
 48
25.4
100
AcDbLine
 10
457.0
 20
397.3
 30
0.0
 11
584.0
 21
397.3
 31
0.0
  0
TEXT
  5
C6
330
1F
100
AcDbEntity
  8
Default
  6
Continuous
 62
     7
 48
25.4
100
AcDbText
 10
513.2386363636
 20
405.3931818182
 30
0.0
 40
3.0
  1
Revisiones
  7
SEACAD_seiso_ttf
 11
513.2386363636
 21
408.3931818182
 31
0.0
100
AcDbText
 73
     3
  0
TEXT
  5
C7
330
1F
100
AcDbEntity
  8
Default
  6
Continuous
 62
     7
 48
25.4
100
AcDbText
 10
459.3714545455
 20
399.0431818182
 30
0.0
 40
3.0
  1
Rev
  7
SEACAD_seiso_ttf
 11
459.3714545455
 21
402.0431818182
 31
0.0
100
AcDbText
 73
     3
  0
TEXT
  5
C8
330
1F
100
AcDbEntity
  8
Default
  6
Continuous
 62
     7
 48
25.4
100
AcDbText
 10
493.4727272727
 20
399.0431818182
 30
0.0
 40
3.0
  1
Descripción
  7
SEACAD_seiso_ttf
 11
493.4727272727
 21
402.0431818182
 31
0.0
100
AcDbText
 73
     3
  0
TEXT
  5
C9
330
1F
100
AcDbEntity
  8
Default
  6
Continuous
 62
     7
 48
25.4
100
AcDbText
 10
543.2649090909
 20
399.0431818182
 30
0.0
 40
3.0
  1
Fecha
  7
SEACAD_seiso_ttf
 11
543.2649090909
 21
402.0431818182
 31
0.0
100
AcDbText
 73
     3
  0
TEXT
  5
CA
330
1F
100
AcDbEntity
  8
Default
  6
Continuous
 62
     7
 48
25.4
100
AcDbText
 10
564.6863636364
 20
399.0431818182
 30
0.0
 40
3.0
  1
Aprobado
  7
SEACAD_seiso_ttf
 11
564.6863636364
 21
402.0431818182
 31
0.0
100
AcDbText
 73
     3
  0
INSERT
  5
CC
330
1F
100
AcDbEntity
  8
Default
100
AcDbBlockReference
  2
SEANNOT_GROUP
 10
0.0
 20
0.0
 30
0.0
  0
INSERT
  5
D1
330
1F
100
AcDbEntity
  8
Default
100
AcDbBlockReference
  2
SEANNOT_GROUP1
 10
0.0
 20
0.0
 30
0.0
  0
INSERT
  5
D5
330
1F
100
AcDbEntity
  8
Default
100
AcDbBlockReference
  2
SEANNOT_GROUP2
 10
0.0
 20
0.0
 30
0.0
  0
INSERT
  5
D9
330
1F
100
AcDbEntity
  8
Default
100
AcDbBlockReference
  2
SEANNOT_GROUP3
 10
0.0
 20
0.0
 30
0.0
  0
LINE
  5
DC
330
1F
100
AcDbEntity
  8
Default
  6
Continuous
 62
     7
 48
25.4
100
AcDbLine
 10
441.125
 20
10.0
 30
0.0
 11
441.125
 21
60.8
 31
0.0
  0
LINE
  5
DD
330
1F
100
AcDbEntity
  8
Default
  6
Continuous
 62
     7
 48
25.4
100
AcDbLine
 10
463.35
 20
32.225
 30
0.0
 11
463.35
 21
60.8
 31
0.0
  0
LINE
  5
DE
330
1F
100
AcDbEntity
  8
Default
  6
Continuous
 62
     7
 48
25.4
100
AcDbLine
 10
485.3922425924
 20
32.225
 30
0.0
 11
485.3922425924
 21
60.8
 31
0.0
  0
LINE
  5
DF
330
1F
100
AcDbEntity
  8
Default
  6
Continuous
 62
     7
 48
25.4
100
AcDbLine
 10
504.625
 20
10.0
 30
0.0
 11
504.625
 21
60.8
 31
0.0
  0
LINE
  5
E0
330
1F
100
AcDbEntity
  8
Default
  6
Continuous
 62
     7
 48
25.4
100
AcDbLine
 10
514.15
 20
22.7
 30
0.0
 11
514.15
 21
32.098
 31
0.0
  0
LINE
  5
E1
330
1F
100
AcDbEntity
  8
Default
  6
Continuous
 62
     7
 48
25.4
100
AcDbLine
 10
526.85
 20
10.0
 30
0.0
 11
526.85
 21
16.35
 31
0.0
  0
LINE
  5
E2
330
1F
100
AcDbEntity
  8
Default
  6
Continuous
 62
     7
 48
25.4
100
AcDbLine
 10
552.25
 20
10.0
 30
0.0
 11
552.25
 21
16.35
 31
0.0
  0
LINE
  5
E3
330
1F
100
AcDbEntity
  8
Default
  6
Continuous
 62
     7
 48
25.4
100
AcDbLine
 10
574.348
 20
22.7
 30
0.0
 11
574.348
 21
32.098
 31
0.0
  0
LINE
  5
E4
330
1F
100
AcDbEntity
  8
Default
  6
Continuous
 62
     7
 48
25.4
100
AcDbLine
 10
441.125
 20
60.8
 30
0.0
 11
584.0
 21
60.8
 31
0.0
  0
LINE
  5
E5
330
1F
100
AcDbEntity
  8
Default
  6
Continuous
 62
     7
 48
25.4
100
AcDbLine
 10
441.125
 20
55.085
 30
0.0
 11
504.625
 21
55.085
 31
0.0
  0
LINE
  5
E6
330
1F
100
AcDbEntity
  8
Default
  6
Continuous
 62
     7
 48
25.4
100
AcDbLine
 10
441.125
 20
49.37
 30
0.0
 11
504.625
 21
49.37
 31
0.0
  0
LINE
  5
E7
330
1F
100
AcDbEntity
  8
Default
  6
Continuous
 62
     7
 48
25.4
100
AcDbLine
 10
504.625
 20
45.052
 30
0.0
 11
584.0
 21
45.052
 31
0.0
  0
LINE
  5
E8
330
1F
100
AcDbEntity
  8
Default
  6
Continuous
 62
     7
 48
25.4
100
AcDbLine
 10
441.125
 20
43.655
 30
0.0
 11
504.625
 21
43.655
 31
0.0
  0
LINE
  5
E9
330
1F
100
AcDbEntity
  8
Default
  6
Continuous
 62
     7
 48
25.4
100
AcDbLine
 10
441.125
 20
37.94
 30
0.0
 11
504.625
 21
37.94
 31
0.0
  0
LINE
  5
EA
330
1F
100
AcDbEntity
  8
Default
  6
Continuous
 62
     7
 48
25.4
100
AcDbLine
 10
441.125
 20
32.225
 30
0.0
 11
584.0
 21
32.225
 31
0.0
  0
LINE
  5
EB
330
1F
100
AcDbEntity
  8
Default
  6
Continuous
 62
     7
 48
25.4
100
AcDbLine
 10
504.625
 20
22.7
 30
0.0
 11
584.0
 21
22.7
 31
0.0
  0
LINE
  5
EC
330
1F
100
AcDbEntity
  8
Default
  6
Continuous
 62
     7
 48
25.4
100
AcDbLine
 10
504.625
 20
16.35
 30
0.0
 11
584.0
 21
16.35
 31
0.0
  0
TEXT
  5
ED
330
1F
100
AcDbEntity
  8
Default
  6
Continuous
 62
     7
 48
25.4
100
AcDbText
 10
442.649
 20
50.7956818182
 30
0.0
 40
3.0
  1
Dibujado
  7
SEACAD_seiso_ttf
 11
442.649
 21
53.7956818182
 31
0.0
100
AcDbText
 73
     3
  0
TEXT
  5
EE
330
1F
100
AcDbEntity
  8
Default
  6
Continuous
 62
     7
 48
25.4
100
AcDbText
 10
442.649
 20
45.0806818182
 30
0.0
 40
3.0
  1
Comprobado
  7
SEACAD_seiso_ttf
 11
442.649
 21
48.0806818182
 31
0.0
100
AcDbText
 73
     3
  0
TEXT
  5
EF
330
1F
100
AcDbEntity
  8
Default
  6
Continuous
 62
     7
 48
25.4
100
AcDbText
 10
442.649
 20
39.3656818182
 30
0.0
 40
3.0
  1
Aprobado 1
  7
SEACAD_seiso_ttf
 11
442.649
 21
42.3656818182
 31
0.0
100
AcDbText
 73
     3
  0
TEXT
  5
F0
330
1F
100
AcDbEntity
  8
Default
  6
Continuous
 62
     7
 48
25.4
100
AcDbText
 10
442.649
 20
33.6506818182
 30
0.0
 40
3.0
  1
Aprobado 2
  7
SEACAD_seiso_ttf
 11
442.649
 21
36.6506818182
 31
0.0
100
AcDbText
 73
     3
  0
TEXT
  5
F1
330
1F
100
AcDbEntity
  8
Default
  6
Continuous
 62
     7
 48
25.4
100
AcDbText
 10
454.1336805556
 20
27.0414335606
 30
0.0
 40
2.9986111111
  1
Salvo indicación contraria
  7
SEACAD_seiso_ttf
 11
454.1336805556
 21
30.0400446717
 31
0.0
100
AcDbText
 73
     3
  0
TEXT
  5
F2
330
1F
100
AcDbEntity
  8
Default
  6
Continuous
 62
     7
 48
25.4
100
AcDbText
 10
458.6997474747
 20
22.1347076515
 30
0.0
 40
2.9986111111
  1
cotas en milímetros
  7
SEACAD_seiso_ttf
 11
458.6997474747
 21
25.1333187626
 31
0.0
100
AcDbText
 73
     3
  0
TEXT
  5
F3
330
1F
100
AcDbEntity
  8
Default
  6
Continuous
 62
     7
 48
25.4
100
AcDbText
 10
459.6197758838
 20
17.2279817424
 30
0.0
 40
2.9986111111
  1
ángulos en grados
  7
SEACAD_seiso_ttf
 11
459.6197758838
 21
20.2265928535
 31
0.0
100
AcDbText
 73
     3
  0
TEXT
  5
F4
330
1F
100
AcDbEntity
  8
Default
  6
Continuous
 62
     7
 48
25.4
100
AcDbText
 10
457.2004419192
 20
12.3212558333
 30
0.0
 40
2.9986111111
  1
tolerancias ±0,5 y ±1º
  7
SEACAD_seiso_ttf
 11
457.2004419192
 21
15.3198669444
 31
0.0
100
AcDbText
 73
     3
  0
TEXT
  5
F5
330
1F
100
AcDbEntity
  8
Default
  6
Continuous
 62
     7
 48
25.4
100
AcDbText
 10
467.625
 20
56.5106818182
 30
0.0
 40
3.0
  1
Nombre
  7
SEACAD_seiso_ttf
 11
467.625
 21
59.5106818182
 31
0.0
100
AcDbText
 73
     3
  0
TEXT
  5
F6
330
1F
100
AcDbEntity
  8
Default
  6
Continuous
 62
     7
 48
25.4
100
AcDbText
 10
489.3534090909
 20
56.5106818182
 30
0.0
 40
3.0
  1
Fecha
  7
SEACAD_seiso_ttf
 11
489.3534090909
 21
59.5106818182
 31
0.0
100
AcDbText
 73
     3
  0
TEXT
  5
F8
330
1F
100
AcDbEntity
  8
Default
  6
Continuous
 62
     7
 48
25.4
100
AcDbText
 10
528.7261363636
 20
51.9215454545
 30
0.0
 40
6.096
  1
SOLID EDGE
  7
SEACAD_seiso_ttfBI
 11
528.7261363636
 21
58.0175454545
 31
0.0
100
AcDbText
 73
     3
  0
TEXT
  5
FA
330
1F
100
AcDbEntity
  8
Default
  6
Continuous
 62
     7
 48
25.4
100
AcDbText
 10
530.2155
 20
46.9708495455
 30
0.0
 40
3.048
  1
EDS-PLM SOLUTIONS
  7
SEACAD_seiso_ttfI
 11
530.2155
 21
50.0188495455
 31
0.0
100
AcDbText
 73
     3
  0
TEXT
  5
FB
330
1F
100
AcDbEntity
  8
Default
  6
Continuous
 62
     7
 48
25.4
100
AcDbText
 10
505.895
 20
41.1656363636
 30
0.0
 40
3.0
  1
Título
  7
SEACAD_seiso_ttf
 11
505.895
 21
44.1656363636
 31
0.0
100
AcDbText
 73
     3
  0
INSERT
  5
FD
330
1F
100
AcDbEntity
  8
Default
100
AcDbBlockReference
  2
SEANNOT_GROUP4
 10
0.0
 20
0.0
 30
0.0
  0
TEXT
  5
101
330
1F
100
AcDbEntity
  8
Default
  6
Continuous
 62
     7
 48
25.4
100
AcDbText
 10
507.6488636364
 20
25.985770284
 30
0.0
 40
3.0
  1
A2
  7
SEACAD_seiso_ttfB
 11
507.6488636364
 21
28.985770284
 31
0.0
100
AcDbText
 73
     3
  0
TEXT
  5
102
330
1F
100
AcDbEntity
  8
Default
  6
Continuous
 62
     7
 48
25.4
100
AcDbText
 10
515.42
 20
28.3386363636
 30
0.0
 40
3.0
  1
Plano
  7
SEACAD_seiso_ttf
 11
515.42
 21
31.3386363636
 31
0.0
100
AcDbText
 73
     3
  0
INSERT
  5
104
330
1F
100
AcDbEntity
  8
Default
100
AcDbBlockReference
  2
SEANNOT_GROUP5
 10
0.0
 20
0.0
 30
0.0
  0
TEXT
  5
107
330
1F
100
AcDbEntity
  8
Default
  6
Continuous
 62
     7
 48
25.4
100
AcDbText
 10
576.7194545455
 20
28.3386363636
 30
0.0
 40
3.0
  1
Rev
  7
SEACAD_seiso_ttf
 11
576.7194545455
 21
31.3386363636
 31
0.0
100
AcDbText
 73
     3
  0
INSERT
  5
109
330
1F
100
AcDbEntity
  8
Default
100
AcDbBlockReference
  2
SEANNOT_GROUP6
 10
0.0
 20
0.0
 30
0.0
  0
INSERT
  5
10D
330
1F
100
AcDbEntity
  8
Default
100
AcDbBlockReference
  2
SEANNOT_GROUP7
 10
0.0
 20
0.0
 30
0.0
  0
TEXT
  5
111
330
1F
100
AcDbEntity
  8
Default
  6
Continuous
 62
     7
 48
25.4
100
AcDbText
 10
506.149
 20
11.7431818182
 30
0.0
 40
3.0
  1
Escala
  7
SEACAD_seiso_ttf
 11
506.149
 21
14.7431818182
 31
0.0
100
AcDbText
 73
     3
  0
TEXT
  5
112
330
1F
100
AcDbEntity
  8
Default
  6
Continuous
 62
     7
 48
25.4
100
AcDbText
 10
528.374
 20
11.7431818182
 30
0.0
 40
3.0
  1
Peso
  7
SEACAD_seiso_ttf
 11
528.374
 21
14.7431818182
 31
0.0
100
AcDbText
 73
     3
  0
INSERT
  5
114
330
1F
100
AcDbEntity
  8
Default
100
AcDbBlockReference
  2
SEANNOT_GROUP8
 10
0.0
 20
0.0
 30
0.0
  0
INSERT
  5
119
330
1F
100
AcDbEntity
  8
Default
100
AcDbBlockReference
  2
SEANNOT_GROUP9
 10
0.0
 20
0.0
 30
0.0
  0
ENDSEC
  0
SECTION
  2
OBJECTS
  0
DICTIONARY
  5
C
330
0
100
AcDbDictionary
281
     1
  3
ACAD_GROUP
350
D
  3
ACAD_LAYOUT
350
1A
  3
ACAD_MLINESTYLE
350
17
  3
ACAD_PLOTSETTINGS
350
19
  3
ACAD_PLOTSTYLENAME
350
E
  0
DICTIONARY
  5
D
102
{ACAD_REACTORS
330
C
102
}
330
C
100
AcDbDictionary
281
     1
  0
DICTIONARY
  5
1A
102
{ACAD_REACTORS
330
C
102
}
330
C
100
AcDbDictionary
281
     1
  3
Layout1
350
1E
  3
Model
350
22
  0
DICTIONARY
  5
17
102
{ACAD_REACTORS
330
C
102
}
330
C
100
AcDbDictionary
281
     1
  3
Standard
350
18
  0
DICTIONARY
  5
19
102
{ACAD_REACTORS
330
C
102
}
330
C
100
AcDbDictionary
281
     1
  0
ACDBDICTIONARYWDFLT
  5
E
102
{ACAD_REACTORS
330
C
102
}
330
C
100
AcDbDictionary
281
     1
  3
Normal
350
F
100
AcDbDictionaryWithDefault
340
F
  0
LAYOUT
  5
1E
102
{ACAD_REACTORS
330
1A
102
}
330
1A
100
AcDbPlotSettings
  1

  2

  4

  6

 40
0.0
 41
0.0
 42
0.0
 43
0.0
 44
0.0
 45
0.0
 46
0.0
 47
0.0
 48
0.0
 49
0.0
140
0.0
141
0.0
142
1.0
143
1.0
 70
   688
 72
     0
 73
     0
 74
     5
  7

 75
    16
147
1.0
148
0.0
149
0.0
100
AcDbLayout
  1
Layout1
 70
     1
 71
     1
 10
0.0
 20
0.0
 11
594.0
 21
420.0
 12
0.0
 22
0.0
 32
0.0
 14
0.0
 24
0.0
 34
0.0
 15
594.0
 25
420.0
 35
0.0
146
0.0
 13
0.0
 23
0.0
 33
0.0
 16
1.0
 26
0.0
 36
0.0
 17
0.0
 27
1.0
 37
0.0
 76
     0
330
1B
  0
LAYOUT
  5
22
102
{ACAD_REACTORS
330
1A
102
}
330
1A
100
AcDbPlotSettings
  1

  2

  4

  6

 40
0.0
 41
0.0
 42
0.0
 43
0.0
 44
0.0
 45
0.0
 46
0.0
 47
0.0
 48
0.0
 49
0.0
140
0.0
141
0.0
142
1.0
143
1.0
 70
  1712
 72
     0
 73
     0
 74
     0
  7

 75
     0
147
1.0
148
0.0
149
0.0
100
AcDbLayout
  1
Model
 70
     1
 71
     0
 10
0.0
 20
0.0
 11
594.0
 21
420.0
 12
0.0
 22
0.0
 32
0.0
 14
0.0
 24
0.0
 34
0.0
 15
594.0
 25
420.0
 35
0.0
146
0.0
 13
0.0
 23
0.0
 33
0.0
 16
1.0
 26
0.0
 36
0.0
 17
0.0
 27
1.0
 37
0.0
 76
     0
330
1F
  0
MLINESTYLE
  5
18
102
{ACAD_REACTORS
330
17
102
}
330
17
100
AcDbMlineStyle
  2
Standard
 70
     0
  3

 62
   256
 51
90.0
 52
90.0
 71
     2
 49
0.5
 62
   256
  6
BYLAYER
 49
-0.5
 62
   256
  6
BYLAYER
  0
ACDBPLACEHOLDER
  5
F
102
{ACAD_REACTORS
330
E
102
}
330
E
  0
ENDSEC
  0
EOF
