  0
SECTION
  2
HEADER
  9
$ACADVER
  1
AC1018
  9
$ACADMAINTVER
 70
     0
  9
$DWGCODEPAGE
  3
ANSI_1252
  9
$INSBASE
 10
0.0
 20
0.0
 30
0.0
  9
$EXTMIN
 10
-185.934
 20
-51.2359
 30
0.0
  9
$EXTMAX
 10
186.1461
 20
143.1318
 30
0.0
  9
$LIMMIN
 10
0.0
 20
0.0
  9
$LIMMAX
 10
12.0
 20
9.0
  9
$ORTHOMODE
 70
     0
  9
$REGENMODE
 70
     1
  9
$FILLMODE
 70
     1
  9
$QTEXTMODE
 70
     0
  9
$MIRRTEXT
 70
     1
  9
$LTSCALE
 40
1.0
  9
$ATTMODE
 70
     1
  9
$TEXTSIZE
 40
0.2
  9
$TRACEWID
 40
0.05
  9
$TEXTSTYLE
  7
Standard
  9
$CLAYER
  8
0
  9
$CELTYPE
  6
ByLayer
  9
$CECOLOR
 62
   256
  9
$CELTSCALE
 40
1.0
  9
$DISPSILH
 70
     0
  9
$DIMSCALE
 40
1.0
  9
$DIMASZ
 40
0.18
  9
$DIMEXO
 40
0.0625
  9
$DIMDLI
 40
0.38
  9
$DIMRND
 40
0.0
  9
$DIMDLE
 40
0.0
  9
$DIMEXE
 40
0.18
  9
$DIMTP
 40
0.0
  9
$DIMTM
 40
0.0
  9
$DIMTXT
 40
0.18
  9
$DIMCEN
 40
0.09
  9
$DIMTSZ
 40
0.0
  9
$DIMTOL
 70
     0
  9
$DIMLIM
 70
     0
  9
$DIMTIH
 70
     1
  9
$DIMTOH
 70
     1
  9
$DIMSE1
 70
     0
  9
$DIMSE2
 70
     0
  9
$DIMTAD
 70
     0
  9
$DIMZIN
 70
     0
  9
$DIMBLK
  1

  9
$DIMASO
 70
     1
  9
$DIMSHO
 70
     1
  9
$DIMPOST
  1

  9
$DIMAPOST
  1

  9
$DIMALT
 70
     0
  9
$DIMALTD
 70
     2
  9
$DIMALTF
 40
25.4
  9
$DIMLFAC
 40
1.0
  9
$DIMTOFL
 70
     0
  9
$DIMTVP
 40
0.0
  9
$DIMTIX
 70
     0
  9
$DIMSOXD
 70
     0
  9
$DIMSAH
 70
     0
  9
$DIMBLK1
  1

  9
$DIMBLK2
  1

  9
$DIMSTYLE
  2
Standard
  9
$DIMCLRD
 70
     0
  9
$DIMCLRE
 70
     0
  9
$DIMCLRT
 70
     0
  9
$DIMTFAC
 40
1.0
  9
$DIMGAP
 40
0.09
  9
$DIMJUST
 70
     0
  9
$DIMSD1
 70
     0
  9
$DIMSD2
 70
     0
  9
$DIMTOLJ
 70
     1
  9
$DIMTZIN
 70
     0
  9
$DIMALTZ
 70
     0
  9
$DIMALTTZ
 70
     0
  9
$DIMUPT
 70
     0
  9
$DIMDEC
 70
     4
  9
$DIMTDEC
 70
     4
  9
$DIMALTU
 70
     2
  9
$DIMALTTD
 70
     2
  9
$DIMTXSTY
  7
Standard
  9
$DIMAUNIT
 70
     0
  9
$DIMADEC
 70
     0
  9
$DIMALTRND
 40
0.0
  9
$DIMAZIN
 70
     0
  9
$DIMDSEP
 70
    46
  9
$DIMATFIT
 70
     3
  9
$DIMFRAC
 70
     0
  9
$DIMLDRBLK
  1

  9
$DIMLUNIT
 70
     2
  9
$DIMLWD
 70
    -2
  9
$DIMLWE
 70
    -2
  9
$DIMTMOVE
 70
     0
  9
$LUNITS
 70
     2
  9
$LUPREC
 70
     4
  9
$SKETCHINC
 40
0.1
  9
$FILLETRAD
 40
0.5
  9
$AUNITS
 70
     0
  9
$AUPREC
 70
     0
  9
$MENU
  1
.
  9
$ELEVATION
 40
0.0
  9
$PELEVATION
 40
0.0
  9
$THICKNESS
 40
0.0
  9
$LIMCHECK
 70
     0
  9
$CHAMFERA
 40
0.5
  9
$CHAMFERB
 40
0.5
  9
$CHAMFERC
 40
1.0
  9
$CHAMFERD
 40
0.0
  9
$SKPOLY
 70
     0
  9
$TDCREATE
 40
2455391.391054144
  9
$TDUCREATE
 40
2455391.599387477
  9
$TDUPDATE
 40
2455391.391054155
  9
$TDUUPDATE
 40
2455391.599387488
  9
$TDINDWG
 40
0.0000000116
  9
$TDUSRTIMER
 40
0.0000000116
  9
$USRTIMER
 70
     1
  9
$ANGBASE
 50
0.0
  9
$ANGDIR
 70
     0
  9
$PDMODE
 70
     0
  9
$PDSIZE
 40
0.0
  9
$PLINEWID
 40
0.0
  9
$SPLFRAME
 70
     0
  9
$SPLINETYPE
 70
     6
  9
$SPLINESEGS
 70
     8
  9
$HANDSEED
  5
8B
  9
$SURFTAB1
 70
     6
  9
$SURFTAB2
 70
     6
  9
$SURFTYPE
 70
     6
  9
$SURFU
 70
     6
  9
$SURFV
 70
     6
  9
$UCSBASE
  2

  9
$UCSNAME
  2

  9
$UCSORG
 10
0.0
 20
0.0
 30
0.0
  9
$UCSXDIR
 10
1.0
 20
0.0
 30
0.0
  9
$UCSYDIR
 10
0.0
 20
1.0
 30
0.0
  9
$UCSORTHOREF
  2

  9
$UCSORTHOVIEW
 70
     0
  9
$UCSORGTOP
 10
0.0
 20
0.0
 30
0.0
  9
$UCSORGBOTTOM
 10
0.0
 20
0.0
 30
0.0
  9
$UCSORGLEFT
 10
0.0
 20
0.0
 30
0.0
  9
$UCSORGRIGHT
 10
0.0
 20
0.0
 30
0.0
  9
$UCSORGFRONT
 10
0.0
 20
0.0
 30
0.0
  9
$UCSORGBACK
 10
0.0
 20
0.0
 30
0.0
  9
$PUCSBASE
  2

  9
$PUCSNAME
  2

  9
$PUCSORG
 10
0.0
 20
0.0
 30
0.0
  9
$PUCSXDIR
 10
1.0
 20
0.0
 30
0.0
  9
$PUCSYDIR
 10
0.0
 20
1.0
 30
0.0
  9
$PUCSORTHOREF
  2

  9
$PUCSORTHOVIEW
 70
     0
  9
$PUCSORGTOP
 10
0.0
 20
0.0
 30
0.0
  9
$PUCSORGBOTTOM
 10
0.0
 20
0.0
 30
0.0
  9
$PUCSORGLEFT
 10
0.0
 20
0.0
 30
0.0
  9
$PUCSORGRIGHT
 10
0.0
 20
0.0
 30
0.0
  9
$PUCSORGFRONT
 10
0.0
 20
0.0
 30
0.0
  9
$PUCSORGBACK
 10
0.0
 20
0.0
 30
0.0
  9
$USERI1
 70
     0
  9
$USERI2
 70
     0
  9
$USERI3
 70
     0
  9
$USERI4
 70
     0
  9
$USERI5
 70
     0
  9
$USERR1
 40
0.0
  9
$USERR2
 40
0.0
  9
$USERR3
 40
0.0
  9
$USERR4
 40
0.0
  9
$USERR5
 40
0.0
  9
$WORLDVIEW
 70
     1
  9
$SHADEDGE
 70
     3
  9
$SHADEDIF
 70
    70
  9
$TILEMODE
 70
     1
  9
$MAXACTVP
 70
    64
  9
$PINSBASE
 10
0.0
 20
0.0
 30
0.0
  9
$PLIMCHECK
 70
     0
  9
$PEXTMIN
 10
1.000000000000000E+20
 20
1.000000000000000E+20
 30
1.000000000000000E+20
  9
$PEXTMAX
 10
-1.000000000000000E+20
 20
-1.000000000000000E+20
 30
-1.000000000000000E+20
  9
$PLIMMIN
 10
0.0
 20
0.0
  9
$PLIMMAX
 10
12.0
 20
9.0
  9
$UNITMODE
 70
     0
  9
$VISRETAIN
 70
     1
  9
$PLINEGEN
 70
     0
  9
$PSLTSCALE
 70
     1
  9
$TREEDEPTH
 70
  3020
  9
$CMLSTYLE
  2
Standard
  9
$CMLJUST
 70
     0
  9
$CMLSCALE
 40
1.0
  9
$PROXYGRAPHICS
 70
     1
  9
$MEASUREMENT
 70
     0
  9
$CELWEIGHT
370
    -1
  9
$ENDCAPS
280
     0
  9
$JOINSTYLE
280
     0
  9
$LWDISPLAY
290
     0
  9
$INSUNITS
 70
     4
  9
$HYPERLINKBASE
  1

  9
$STYLESHEET
  1

  9
$XEDIT
290
     1
  9
$CEPSNTYPE
380
     0
  9
$PSTYLEMODE
290
     0
  9
$FINGERPRINTGUID
  2
{FAEB1C30-E019-11D5-929B-00C0DF256EC4}
  9
$VERSIONGUID
  2
{FAEB1C32-E019-11D5-929B-00C0DF256EC4}
  9
$EXTNAMES
290
     1
  9
$PSVPSCALE
 40
0.0
  9
$OLESTARTUP
290
     0
  9
$SORTENTS
280
   127
  9
$INDEXCTL
280
     0
  9
$HIDETEXT
280
     1
  9
$XCLIPFRAME
290
     0
  9
$HALOGAP
280
     0
  9
$OBSCOLOR
 70
   257
  9
$OBSLTYPE
280
     0
  9
$INTERSECTIONDISPLAY
280
     0
  9
$INTERSECTIONCOLOR
 70
   257
  9
$DIMASSOC
280
     2
  9
$PROJECTNAME
  1

  0
ENDSEC
  0
SECTION
  2
CLASSES
  0
CLASS
  1
ACDBDICTIONARYWDFLT
  2
AcDbDictionaryWithDefault
  3
ObjectDBX Classes
 90
        0
 91
        1
280
     0
281
     0
  0
ENDSEC
  0
SECTION
  2
TABLES
  0
TABLE
  2
VPORT
  5
8
330
0
100
AcDbSymbolTable
 70
     2
  0
VPORT
  5
29
330
8
100
AcDbSymbolTableRecord
100
AcDbViewportTableRecord
  2
*Active
 70
     0
 10
0.0
 20
0.0
 11
1.0
 21
1.0
 12
10.42990654205607
 22
4.5
 13
0.0
 23
0.0
 14
0.5
 24
0.5
 15
0.5
 25
0.5
 16
0.0
 26
0.0
 36
1.0
 17
0.0
 27
0.0
 37
0.0
 40
9.0
 41
1.972972972850329
 42
50.0
 43
0.0
 44
0.0
 50
0.0
 51
0.0
 71
     0
 72
   100
 73
     1
 74
     3
 75
     0
 76
     0
 77
     0
 78
     0
281
     0
 65
     1
110
0.0
120
0.0
130
0.0
111
1.0
121
0.0
131
0.0
112
0.0
122
1.0
132
0.0
 79
     0
146
0.0
  0
ENDTAB
  0
TABLE
  2
LTYPE
  5
5
330
0
100
AcDbSymbolTable
 70
     1
  0
LTYPE
  5
14
330
5
100
AcDbSymbolTableRecord
100
AcDbLinetypeTableRecord
  2
ByBlock
 70
     0
  3

 72
    65
 73
     0
 40
0.0
  0
LTYPE
  5
15
330
5
100
AcDbSymbolTableRecord
100
AcDbLinetypeTableRecord
  2
ByLayer
 70
     0
  3

 72
    65
 73
     0
 40
0.0
  0
LTYPE
  5
16
330
5
100
AcDbSymbolTableRecord
100
AcDbLinetypeTableRecord
  2
Continuous
 70
     0
  3
Solid line
 72
    65
 73
     0
 40
0.0
  0
ENDTAB
  0
TABLE
  2
LAYER
  5
2
330
0
100
AcDbSymbolTable
 70
     2
  0
LAYER
  5
10
330
2
100
AcDbSymbolTableRecord
100
AcDbLayerTableRecord
  2
0
 70
     0
 62
     7
  6
Continuous
370
    -3
390
F
  0
LAYER
  5
2B
330
2
100
AcDbSymbolTableRecord
100
AcDbLayerTableRecord
  2
52
 70
     0
 62
     7
  6
Continuous
370
    -3
390
F
  0
ENDTAB
  0
TABLE
  2
STYLE
  5
3
330
0
100
AcDbSymbolTable
 70
     1
  0
STYLE
  5
11
330
3
100
AcDbSymbolTableRecord
100
AcDbTextStyleTableRecord
  2
Standard
 70
     0
 40
0.0
 41
1.0
 50
0.0
 71
     0
 42
0.2
  3
txt
  4

  0
ENDTAB
  0
TABLE
  2
VIEW
  5
6
330
0
100
AcDbSymbolTable
 70
     0
  0
ENDTAB
  0
TABLE
  2
UCS
  5
7
330
0
100
AcDbSymbolTable
 70
     0
  0
ENDTAB
  0
TABLE
  2
APPID
  5
9
330
0
100
AcDbSymbolTable
 70
     2
  0
APPID
  5
12
330
9
100
AcDbSymbolTableRecord
100
AcDbRegAppTableRecord
  2
ACAD
 70
     0
  0
APPID
  5
2A
330
9
100
AcDbSymbolTableRecord
100
AcDbRegAppTableRecord
  2
ODA
 70
     0
  0
ENDTAB
  0
TABLE
  2
DIMSTYLE
  5
A
330
0
100
AcDbSymbolTable
 70
     1
100
AcDbDimStyleTable
  0
DIMSTYLE
105
27
330
A
100
AcDbSymbolTableRecord
100
AcDbDimStyleTableRecord
  2
Standard
 70
     0
340
11
  0
ENDTAB
  0
TABLE
  2
BLOCK_RECORD
  5
1
330
0
100
AcDbSymbolTable
 70
     1
  0
BLOCK_RECORD
  5
1F
330
1
100
AcDbSymbolTableRecord
100
AcDbBlockTableRecord
  2
*Model_Space
340
22
  0
BLOCK_RECORD
  5
1B
330
1
100
AcDbSymbolTableRecord
100
AcDbBlockTableRecord
  2
*Paper_Space
340
1E
  0
BLOCK_RECORD
  5
23
330
1
100
AcDbSymbolTableRecord
100
AcDbBlockTableRecord
  2
*Paper_Space0
340
26
  0
ENDTAB
  0
ENDSEC
  0
SECTION
  2
BLOCKS
  0
BLOCK
  5
20
330
1F
100
AcDbEntity
  8
0
100
AcDbBlockBegin
  2
*Model_Space
 70
     0
 71
     0
 10
0.0
 20
0.0
 30
0.0
  3
*Model_Space
  1

  0
ENDBLK
  5
21
330
1F
100
AcDbEntity
  8
0
100
AcDbBlockEnd
  0
BLOCK
  5
1C
330
1B
100
AcDbEntity
 67
     1
  8
0
100
AcDbBlockBegin
  2
*Paper_Space
 70
     0
 71
     0
 10
0.0
 20
0.0
 30
0.0
  3
*Paper_Space
  1

  0
ENDBLK
  5
1D
330
1B
100
AcDbEntity
 67
     1
  8
0
100
AcDbBlockEnd
  0
BLOCK
  5
24
330
23
100
AcDbEntity
  8
0
100
AcDbBlockBegin
  2
*Paper_Space0
 70
     0
 71
     0
 10
0.0
 20
0.0
 30
0.0
  3
*Paper_Space0
  1

  0
ENDBLK
  5
25
330
23
100
AcDbEntity
  8
0
100
AcDbBlockEnd
  0
ENDSEC
  0
SECTION
  2
ENTITIES
  0
SPLINE
  5
2C
330
1F
100
AcDbEntity
  8
52
 62
   250
370
     5
100
AcDbSpline
210
0.0
220
0.0
230
1.0
 70
    11
 71
     3
 72
    20
 73
    16
 74
     0
 42
0.0000000001
 43
0.0000000001
 40
0.0
 40
0.0
 40
0.0
 40
0.0
 40
0.25
 40
0.25
 40
0.25
 40
0.25
 40
0.5
 40
0.5
 40
0.5
 40
0.5
 40
0.75
 40
0.75
 40
0.75
 40
0.75
 40
1.0
 40
1.0
 40
1.0
 40
1.0
 10
156.4498
 20
-27.1425
 30
0.0
 10
157.4162
 20
-27.1425
 30
0.0
 10
158.1998
 20
-27.9261
 30
0.0
 10
158.1998
 20
-28.8925
 30
0.0
 10
158.1998
 20
-28.8925
 30
0.0
 10
158.1998
 20
-29.8589
 30
0.0
 10
157.4162
 20
-30.6425
 30
0.0
 10
156.4498
 20
-30.6425
 30
0.0
 10
156.4498
 20
-30.6425
 30
0.0
 10
155.4835
 20
-30.6425
 30
0.0
 10
154.6998
 20
-29.8589
 30
0.0
 10
154.6998
 20
-28.8925
 30
0.0
 10
154.6998
 20
-28.8925
 30
0.0
 10
154.6998
 20
-27.9261
 30
0.0
 10
155.4835
 20
-27.1425
 30
0.0
 10
156.4498
 20
-27.1425
 30
0.0
  0
SPLINE
  5
2D
330
1F
100
AcDbEntity
  8
52
 62
   250
370
     5
100
AcDbSpline
210
0.0
220
0.0
230
1.0
 70
    11
 71
     3
 72
    20
 73
    16
 74
     0
 42
0.0000000001
 43
0.0000000001
 40
0.0
 40
0.0
 40
0.0
 40
0.0
 40
0.25
 40
0.25
 40
0.25
 40
0.25
 40
0.5
 40
0.5
 40
0.5
 40
0.5
 40
0.75
 40
0.75
 40
0.75
 40
0.75
 40
1.0
 40
1.0
 40
1.0
 40
1.0
 10
5.166700000000001
 20
-27.1631
 30
0.0
 10
6.133
 20
-27.1631
 30
0.0
 10
6.916700000000001
 20
-27.9467
 30
0.0
 10
6.916700000000001
 20
-28.9131
 30
0.0
 10
6.916700000000001
 20
-28.9131
 30
0.0
 10
6.916700000000001
 20
-29.8795
 30
0.0
 10
6.133
 20
-30.6631
 30
0.0
 10
5.166700000000001
 20
-30.6631
 30
0.0
 10
5.166700000000001
 20
-30.6631
 30
0.0
 10
4.2004
 20
-30.6631
 30
0.0
 10
3.4167
 20
-29.8795
 30
0.0
 10
3.4167
 20
-28.9131
 30
0.0
 10
3.4167
 20
-28.9131
 30
0.0
 10
3.4167
 20
-27.9467
 30
0.0
 10
4.2004
 20
-27.1631
 30
0.0
 10
5.166700000000001
 20
-27.1631
 30
0.0
  0
SPLINE
  5
2E
330
1F
100
AcDbEntity
  8
52
 62
   250
370
     5
100
AcDbSpline
210
0.0
220
0.0
230
1.0
 70
    11
 71
     3
 72
    20
 73
    16
 74
     0
 42
0.0000000001
 43
0.0000000001
 40
0.0
 40
0.0
 40
0.0
 40
0.0
 40
0.25
 40
0.25
 40
0.25
 40
0.25
 40
0.5
 40
0.5
 40
0.5
 40
0.5
 40
0.75
 40
0.75
 40
0.75
 40
0.75
 40
1.0
 40
1.0
 40
1.0
 40
1.0
 10
-146.1164
 20
-27.1425
 30
0.0
 10
-145.1501
 20
-27.1425
 30
0.0
 10
-144.3664
 20
-27.9262
 30
0.0
 10
-144.3664
 20
-28.8925
 30
0.0
 10
-144.3664
 20
-28.8925
 30
0.0
 10
-144.3664
 20
-29.8588
 30
0.0
 10
-145.1501
 20
-30.6425
 30
0.0
 10
-146.1164
 20
-30.6425
 30
0.0
 10
-146.1164
 20
-30.6425
 30
0.0
 10
-147.0827
 20
-30.6425
 30
0.0
 10
-147.8664
 20
-29.8588
 30
0.0
 10
-147.8664
 20
-28.8925
 30
0.0
 10
-147.8664
 20
-28.8925
 30
0.0
 10
-147.8664
 20
-27.9262
 30
0.0
 10
-147.0827
 20
-27.1425
 30
0.0
 10
-146.1164
 20
-27.1425
 30
0.0
  0
SPLINE
  5
2F
330
1F
100
AcDbEntity
  8
52
 62
   250
370
     5
100
AcDbSpline
210
0.0
220
0.0
230
1.0
 70
    11
 71
     3
 72
    20
 73
    16
 74
     0
 42
0.0000000001
 43
0.0000000001
 40
0.0
 40
0.0
 40
0.0
 40
0.0
 40
0.25
 40
0.25
 40
0.25
 40
0.25
 40
0.5
 40
0.5
 40
0.5
 40
0.5
 40
0.75
 40
0.75
 40
0.75
 40
0.75
 40
1.0
 40
1.0
 40
1.0
 40
1.0
 10
-146.1164
 20
90.99820000000001
 30
0.0
 10
-145.15
 20
90.99820000000001
 30
0.0
 10
-144.3664
 20
90.2145
 30
0.0
 10
-144.3664
 20
89.24820000000001
 30
0.0
 10
-144.3664
 20
89.24820000000001
 30
0.0
 10
-144.3664
 20
88.28190000000001
 30
0.0
 10
-145.15
 20
87.4982
 30
0.0
 10
-146.1164
 20
87.4982
 30
0.0
 10
-146.1164
 20
87.4982
 30
0.0
 10
-147.0828
 20
87.4982
 30
0.0
 10
-147.8664
 20
88.28190000000001
 30
0.0
 10
-147.8664
 20
89.24820000000001
 30
0.0
 10
-147.8664
 20
89.24820000000001
 30
0.0
 10
-147.8664
 20
90.2145
 30
0.0
 10
-147.0828
 20
90.99820000000001
 30
0.0
 10
-146.1164
 20
90.99820000000001
 30
0.0
  0
SPLINE
  5
30
330
1F
100
AcDbEntity
  8
52
 62
   250
370
     5
100
AcDbSpline
210
0.0
220
0.0
230
1.0
 70
    11
 71
     3
 72
    20
 73
    16
 74
     0
 42
0.0000000001
 43
0.0000000001
 40
0.0
 40
0.0
 40
0.0
 40
0.0
 40
0.25
 40
0.25
 40
0.25
 40
0.25
 40
0.5
 40
0.5
 40
0.5
 40
0.5
 40
0.75
 40
0.75
 40
0.75
 40
0.75
 40
1.0
 40
1.0
 40
1.0
 40
1.0
 10
5.166700000000001
 20
91.01860000000001
 30
0.0
 10
6.133100000000001
 20
91.01860000000001
 30
0.0
 10
6.9168
 20
90.23490000000001
 30
0.0
 10
6.9168
 20
89.26870000000001
 30
0.0
 10
6.9168
 20
89.26870000000001
 30
0.0
 10
6.9168
 20
88.30240000000001
 30
0.0
 10
6.133100000000001
 20
87.51860000000001
 30
0.0
 10
5.166700000000001
 20
87.51860000000001
 30
0.0
 10
5.166700000000001
 20
87.51860000000001
 30
0.0
 10
4.2004
 20
87.51860000000001
 30
0.0
 10
3.4168
 20
88.30240000000001
 30
0.0
 10
3.4168
 20
89.26870000000001
 30
0.0
 10
3.4168
 20
89.26870000000001
 30
0.0
 10
3.4168
 20
90.23490000000001
 30
0.0
 10
4.2004
 20
91.01860000000001
 30
0.0
 10
5.166700000000001
 20
91.01860000000001
 30
0.0
  0
SPLINE
  5
31
330
1F
100
AcDbEntity
  8
52
 62
   250
370
     5
100
AcDbSpline
210
0.0
220
0.0
230
1.0
 70
    11
 71
     3
 72
    20
 73
    16
 74
     0
 42
0.0000000001
 43
0.0000000001
 40
0.0
 40
0.0
 40
0.0
 40
0.0
 40
0.25
 40
0.25
 40
0.25
 40
0.25
 40
0.5
 40
0.5
 40
0.5
 40
0.5
 40
0.75
 40
0.75
 40
0.75
 40
0.75
 40
1.0
 40
1.0
 40
1.0
 40
1.0
 10
156.4498
 20
90.99820000000001
 30
0.0
 10
157.4161
 20
90.99820000000001
 30
0.0
 10
158.1998
 20
90.2145
 30
0.0
 10
158.1998
 20
89.24820000000001
 30
0.0
 10
158.1998
 20
89.24820000000001
 30
0.0
 10
158.1998
 20
88.28190000000001
 30
0.0
 10
157.4161
 20
87.4982
 30
0.0
 10
156.4498
 20
87.4982
 30
0.0
 10
156.4498
 20
87.4982
 30
0.0
 10
155.4835
 20
87.4982
 30
0.0
 10
154.6998
 20
88.28190000000001
 30
0.0
 10
154.6998
 20
89.24820000000001
 30
0.0
 10
154.6998
 20
89.24820000000001
 30
0.0
 10
154.6998
 20
90.2145
 30
0.0
 10
155.4835
 20
90.99820000000001
 30
0.0
 10
156.4498
 20
90.99820000000001
 30
0.0
  0
SPLINE
  5
32
330
1F
100
AcDbEntity
  8
52
 62
   250
370
     5
100
AcDbSpline
210
0.0
220
0.0
230
1.0
 70
    11
 71
     3
 72
    36
 73
    32
 74
     0
 42
0.0000000001
 43
0.0000000001
 40
0.0
 40
0.0
 40
0.0
 40
0.0
 40
0.125
 40
0.125
 40
0.125
 40
0.125
 40
0.25
 40
0.25
 40
0.25
 40
0.25
 40
0.375
 40
0.375
 40
0.375
 40
0.375
 40
0.5
 40
0.5
 40
0.5
 40
0.5
 40
0.625
 40
0.625
 40
0.625
 40
0.625
 40
0.75
 40
0.75
 40
0.75
 40
0.75
 40
0.875
 40
0.875
 40
0.875
 40
0.875
 40
1.0
 40
1.0
 40
1.0
 40
1.0
 10
-149.0493
 20
95.17780000000001
 30
0.0
 10
-149.0493
 20
95.17780000000001
 30
0.0
 10
159.3826
 20
95.17780000000001
 30
0.0
 10
159.3826
 20
95.17780000000001
 30
0.0
 10
159.3826
 20
95.17780000000001
 30
0.0
 10
160.6388
 20
95.17780000000001
 30
0.0
 10
161.6666
 20
94.30030000000001
 30
0.0
 10
161.6666
 20
93.2278
 30
0.0
 10
161.6666
 20
93.2278
 30
0.0
 10
161.6666
 20
93.2278
 30
0.0
 10
161.6666
 20
-32.8722
 30
0.0
 10
161.6666
 20
-32.8722
 30
0.0
 10
161.6666
 20
-32.8722
 30
0.0
 10
161.6666
 20
-33.9448
 30
0.0
 10
160.6388
 20
-34.8222
 30
0.0
 10
159.3826
 20
-34.8222
 30
0.0
 10
159.3826
 20
-34.8222
 30
0.0
 10
159.3826
 20
-34.8222
 30
0.0
 10
-149.0493
 20
-34.8222
 30
0.0
 10
-149.0493
 20
-34.8222
 30
0.0
 10
-149.0493
 20
-34.8222
 30
0.0
 10
-150.3056
 20
-34.8222
 30
0.0
 10
-151.3333
 20
-33.9448
 30
0.0
 10
-151.3333
 20
-32.8722
 30
0.0
 10
-151.3333
 20
-32.8722
 30
0.0
 10
-151.3333
 20
-32.8722
 30
0.0
 10
-151.3333
 20
93.2278
 30
0.0
 10
-151.3333
 20
93.2278
 30
0.0
 10
-151.3333
 20
93.2278
 30
0.0
 10
-151.3333
 20
94.30030000000001
 30
0.0
 10
-150.3056
 20
95.17780000000001
 30
0.0
 10
-149.0493
 20
95.17780000000001
 30
0.0
  0
SPLINE
  5
33
330
1F
100
AcDbEntity
  8
52
 62
   250
370
     5
100
AcDbSpline
210
0.0
220
0.0
230
1.0
 70
    11
 71
     3
 72
    20
 73
    16
 74
     0
 42
0.0000000001
 43
0.0000000001
 40
0.0
 40
0.0
 40
0.0
 40
0.0
 40
0.25
 40
0.25
 40
0.25
 40
0.25
 40
0.5
 40
0.5
 40
0.5
 40
0.5
 40
0.75
 40
0.75
 40
0.75
 40
0.75
 40
1.0
 40
1.0
 40
1.0
 40
1.0
 10
111.0926
 20
50.81350000000001
 30
0.0
 10
122.9095
 20
50.81350000000001
 30
0.0
 10
132.4926
 20
41.2304
 30
0.0
 10
132.4926
 20
29.4135
 30
0.0
 10
132.4926
 20
29.4135
 30
0.0
 10
132.4926
 20
17.5966
 30
0.0
 10
122.9095
 20
8.013500000000001
 30
0.0
 10
111.0926
 20
8.013500000000001
 30
0.0
 10
111.0926
 20
8.013500000000001
 30
0.0
 10
99.2757
 20
8.013500000000001
 30
0.0
 10
89.6926
 20
17.5966
 30
0.0
 10
89.6926
 20
29.4135
 30
0.0
 10
89.6926
 20
29.4135
 30
0.0
 10
89.6926
 20
41.2304
 30
0.0
 10
99.2757
 20
50.81350000000001
 30
0.0
 10
111.0926
 20
50.81350000000001
 30
0.0
  0
SPLINE
  5
34
330
1F
100
AcDbEntity
  8
52
 62
   250
370
     5
100
AcDbSpline
210
0.0
220
0.0
230
1.0
 70
    11
 71
     3
 72
    20
 73
    16
 74
     0
 42
0.0000000001
 43
0.0000000001
 40
0.0
 40
0.0
 40
0.0
 40
0.0
 40
0.25
 40
0.25
 40
0.25
 40
0.25
 40
0.5
 40
0.5
 40
0.5
 40
0.5
 40
0.75
 40
0.75
 40
0.75
 40
0.75
 40
1.0
 40
1.0
 40
1.0
 40
1.0
 10
133.3705
 20
18.164
 30
0.0
 10
134.1711
 20
18.164
 30
0.0
 10
134.8205
 20
17.5147
 30
0.0
 10
134.8205
 20
16.714
 30
0.0
 10
134.8205
 20
16.714
 30
0.0
 10
134.8205
 20
15.9133
 30
0.0
 10
134.1711
 20
15.264
 30
0.0
 10
133.3705
 20
15.264
 30
0.0
 10
133.3705
 20
15.264
 30
0.0
 10
132.5698
 20
15.264
 30
0.0
 10
131.9205
 20
15.9133
 30
0.0
 10
131.9205
 20
16.714
 30
0.0
 10
131.9205
 20
16.714
 30
0.0
 10
131.9205
 20
17.5147
 30
0.0
 10
132.5698
 20
18.164
 30
0.0
 10
133.3705
 20
18.164
 30
0.0
  0
SPLINE
  5
35
330
1F
100
AcDbEntity
  8
52
 62
   250
370
     5
100
AcDbSpline
210
0.0
220
0.0
230
1.0
 70
    11
 71
     3
 72
    20
 73
    16
 74
     0
 42
0.0000000001
 43
0.0000000001
 40
0.0
 40
0.0
 40
0.0
 40
0.0
 40
0.25
 40
0.25
 40
0.25
 40
0.25
 40
0.5
 40
0.5
 40
0.5
 40
0.5
 40
0.75
 40
0.75
 40
0.75
 40
0.75
 40
1.0
 40
1.0
 40
1.0
 40
1.0
 10
89.1705
 20
17.5185
 30
0.0
 10
89.97110000000001
 20
17.5185
 30
0.0
 10
90.62050000000001
 20
16.8692
 30
0.0
 10
90.62050000000001
 20
16.0685
 30
0.0
 10
90.62050000000001
 20
16.0685
 30
0.0
 10
90.62050000000001
 20
15.2678
 30
0.0
 10
89.97110000000001
 20
14.6185
 30
0.0
 10
89.1705
 20
14.6185
 30
0.0
 10
89.1705
 20
14.6185
 30
0.0
 10
88.3698
 20
14.6185
 30
0.0
 10
87.7205
 20
15.2678
 30
0.0
 10
87.7205
 20
16.0685
 30
0.0
 10
87.7205
 20
16.0685
 30
0.0
 10
87.7205
 20
16.8692
 30
0.0
 10
88.3698
 20
17.5185
 30
0.0
 10
89.1705
 20
17.5185
 30
0.0
  0
SPLINE
  5
36
330
1F
100
AcDbEntity
  8
52
 62
   250
370
     5
100
AcDbSpline
210
0.0
220
0.0
230
1.0
 70
    11
 71
     3
 72
    20
 73
    16
 74
     0
 42
0.0000000001
 43
0.0000000001
 40
0.0
 40
0.0
 40
0.0
 40
0.0
 40
0.25
 40
0.25
 40
0.25
 40
0.25
 40
0.5
 40
0.5
 40
0.5
 40
0.5
 40
0.75
 40
0.75
 40
0.75
 40
0.75
 40
1.0
 40
1.0
 40
1.0
 40
1.0
 10
111.0926
 20
56.3635
 30
0.0
 10
111.8932
 20
56.3635
 30
0.0
 10
112.5426
 20
55.71420000000001
 30
0.0
 10
112.5426
 20
54.9135
 30
0.0
 10
112.5426
 20
54.9135
 30
0.0
 10
112.5426
 20
54.1128
 30
0.0
 10
111.8932
 20
53.4635
 30
0.0
 10
111.0926
 20
53.4635
 30
0.0
 10
111.0926
 20
53.4635
 30
0.0
 10
110.2919
 20
53.4635
 30
0.0
 10
109.6426
 20
54.1128
 30
0.0
 10
109.6426
 20
54.9135
 30
0.0
 10
109.6426
 20
54.9135
 30
0.0
 10
109.6426
 20
55.71420000000001
 30
0.0
 10
110.2919
 20
56.3635
 30
0.0
 10
111.0926
 20
56.3635
 30
0.0
  0
SPLINE
  5
37
330
1F
100
AcDbEntity
  8
52
 62
   250
370
     5
100
AcDbSpline
210
0.0
220
0.0
230
1.0
 70
    11
 71
     3
 72
    20
 73
    16
 74
     0
 42
0.0000000001
 43
0.0000000001
 40
0.0
 40
0.0
 40
0.0
 40
0.0
 40
0.25
 40
0.25
 40
0.25
 40
0.25
 40
0.5
 40
0.5
 40
0.5
 40
0.5
 40
0.75
 40
0.75
 40
0.75
 40
0.75
 40
1.0
 40
1.0
 40
1.0
 40
1.0
 10
-116.9478
 20
-0.6656000000000001
 30
0.0
 10
-123.0219
 20
-0.6656000000000001
 30
0.0
 10
-127.9479
 20
4.260400000000001
 30
0.0
 10
-127.9479
 20
10.3344
 30
0.0
 10
-127.9479
 20
10.3344
 30
0.0
 10
-127.9479
 20
16.4084
 30
0.0
 10
-123.0219
 20
21.3344
 30
0.0
 10
-116.9478
 20
21.3344
 30
0.0
 10
-116.9478
 20
21.3344
 30
0.0
 10
-110.8738
 20
21.3344
 30
0.0
 10
-105.9479
 20
16.4084
 30
0.0
 10
-105.9479
 20
10.3344
 30
0.0
 10
-105.9479
 20
10.3344
 30
0.0
 10
-105.9479
 20
4.260400000000001
 30
0.0
 10
-110.8738
 20
-0.6656000000000001
 30
0.0
 10
-116.9478
 20
-0.6656000000000001
 30
0.0
  0
SPLINE
  5
38
330
1F
100
AcDbEntity
  8
52
 62
   250
370
     5
100
AcDbSpline
210
0.0
220
0.0
230
1.0
 70
    11
 71
     3
 72
    20
 73
    16
 74
     0
 42
0.0000000001
 43
0.0000000001
 40
0.0
 40
0.0
 40
0.0
 40
0.0
 40
0.25
 40
0.25
 40
0.25
 40
0.25
 40
0.5
 40
0.5
 40
0.5
 40
0.5
 40
0.75
 40
0.75
 40
0.75
 40
0.75
 40
1.0
 40
1.0
 40
1.0
 40
1.0
 10
47.529
 20
19.8989
 30
0.0
 10
50.152
 20
19.8989
 30
0.0
 10
52.279
 20
17.7719
 30
0.0
 10
52.279
 20
15.1489
 30
0.0
 10
52.279
 20
15.1489
 30
0.0
 10
52.279
 20
12.5259
 30
0.0
 10
50.152
 20
10.3989
 30
0.0
 10
47.529
 20
10.3989
 30
0.0
 10
47.529
 20
10.3989
 30
0.0
 10
44.906
 20
10.3989
 30
0.0
 10
42.779
 20
12.5259
 30
0.0
 10
42.779
 20
15.1489
 30
0.0
 10
42.779
 20
15.1489
 30
0.0
 10
42.779
 20
17.7719
 30
0.0
 10
44.906
 20
19.8989
 30
0.0
 10
47.529
 20
19.8989
 30
0.0
  0
SPLINE
  5
39
330
1F
100
AcDbEntity
  8
52
 62
   250
370
     5
100
AcDbSpline
210
0.0
220
0.0
230
1.0
 70
    11
 71
     3
 72
    20
 73
    16
 74
     0
 42
0.0000000001
 43
0.0000000001
 40
0.0
 40
0.0
 40
0.0
 40
0.0
 40
0.25
 40
0.25
 40
0.25
 40
0.25
 40
0.5
 40
0.5
 40
0.5
 40
0.5
 40
0.75
 40
0.75
 40
0.75
 40
0.75
 40
1.0
 40
1.0
 40
1.0
 40
1.0
 10
47.529
 20
50.1724
 30
0.0
 10
50.152
 20
50.1724
 30
0.0
 10
52.279
 20
48.0454
 30
0.0
 10
52.279
 20
45.4224
 30
0.0
 10
52.279
 20
45.4224
 30
0.0
 10
52.279
 20
42.7994
 30
0.0
 10
50.152
 20
40.6724
 30
0.0
 10
47.529
 20
40.6724
 30
0.0
 10
47.529
 20
40.6724
 30
0.0
 10
44.906
 20
40.6724
 30
0.0
 10
42.779
 20
42.7994
 30
0.0
 10
42.779
 20
45.4224
 30
0.0
 10
42.779
 20
45.4224
 30
0.0
 10
42.779
 20
48.0454
 30
0.0
 10
44.906
 20
50.1724
 30
0.0
 10
47.529
 20
50.1724
 30
0.0
  0
SPLINE
  5
3A
330
1F
100
AcDbEntity
  8
52
 62
   250
370
     5
100
AcDbSpline
210
0.0
220
0.0
230
1.0
 70
    24
 71
     3
 72
     8
 73
     4
 74
     0
 42
0.0000000001
 43
0.0000000001
 40
0.0
 40
0.0
 40
0.0
 40
0.0
 40
1.0
 40
1.0
 40
1.0
 40
1.0
 10
-132.0302
 20
95.17780000000001
 30
0.0
 10
-132.0302
 20
95.17780000000001
 30
0.0
 10
-185.934
 20
95.17780000000001
 30
0.0
 10
-185.934
 20
95.17780000000001
 30
0.0
  0
SPLINE
  5
3B
330
1F
100
AcDbEntity
  8
52
 62
   250
370
     5
100
AcDbSpline
210
0.0
220
0.0
230
1.0
 70
    24
 71
     3
 72
     8
 73
     4
 74
     0
 42
0.0000000001
 43
0.0000000001
 40
0.0
 40
0.0
 40
0.0
 40
0.0
 40
1.0
 40
1.0
 40
1.0
 40
1.0
 10
-114.6926
 20
-34.8222
 30
0.0
 10
-114.6926
 20
-34.8222
 30
0.0
 10
-185.934
 20
-34.8222
 30
0.0
 10
-185.934
 20
-34.8222
 30
0.0
  0
SPLINE
  5
3C
330
1F
100
AcDbEntity
  8
52
 62
   250
370
     5
100
AcDbSpline
210
0.0
220
0.0
230
1.0
 70
    24
 71
     3
 72
     8
 73
     4
 74
     0
 42
0.0000000001
 43
0.0000000001
 40
0.0
 40
0.0
 40
0.0
 40
0.0
 40
1.0
 40
1.0
 40
1.0
 40
1.0
 10
-180.854
 20
95.17780000000001
 30
0.0
 10
-180.854
 20
95.17780000000001
 30
0.0
 10
-180.854
 20
59.4892
 30
0.0
 10
-180.854
 20
59.4892
 30
0.0
  0
SPLINE
  5
3D
330
1F
100
AcDbEntity
  8
52
 62
   250
370
     5
100
AcDbSpline
210
0.0
220
0.0
230
1.0
 70
    24
 71
     3
 72
     8
 73
     4
 74
     0
 42
0.0000000001
 43
0.0000000001
 40
0.0
 40
0.0
 40
0.0
 40
0.0
 40
1.0
 40
1.0
 40
1.0
 40
1.0
 10
-180.854
 20
4.9806
 30
0.0
 10
-180.854
 20
4.9806
 30
0.0
 10
-180.854
 20
-34.8222
 30
0.0
 10
-180.854
 20
-34.8222
 30
0.0
  0
SPLINE
  5
3E
330
1F
100
AcDbEntity
  8
52
 62
   250
100
AcDbSpline
210
0.0
220
0.0
230
1.0
 70
    11
 71
     3
 72
    40
 73
    36
 74
     0
 42
0.0000000001
 43
0.0000000001
 40
0.0
 40
0.0
 40
0.0
 40
0.0
 40
0.1111111111111111
 40
0.1111111111111111
 40
0.1111111111111111
 40
0.1111111111111111
 40
0.2222222222222222
 40
0.2222222222222222
 40
0.2222222222222222
 40
0.2222222222222222
 40
0.3333333333333333
 40
0.3333333333333333
 40
0.3333333333333333
 40
0.3333333333333333
 40
0.4444444444444444
 40
0.4444444444444444
 40
0.4444444444444444
 40
0.4444444444444444
 40
0.5555555555555556
 40
0.5555555555555556
 40
0.5555555555555556
 40
0.5555555555555556
 40
0.6666666666666667
 40
0.6666666666666667
 40
0.6666666666666667
 40
0.6666666666666667
 40
0.7777777777777779
 40
0.7777777777777779
 40
0.7777777777777779
 40
0.7777777777777779
 40
0.8888888888888891
 40
0.8888888888888891
 40
0.8888888888888891
 40
0.8888888888888891
 40
1.0
 40
1.0
 40
1.0
 40
1.0
 10
-177.8646
 20
14.4844
 30
0.0
 10
-177.8646
 20
14.4844
 30
0.0
 10
-177.8646
 20
13.7408
 30
0.0
 10
-177.8646
 20
13.7408
 30
0.0
 10
-177.8646
 20
13.7408
 30
0.0
 10
-177.8646
 20
13.7408
 30
0.0
 10
-182.606
 20
13.7408
 30
0.0
 10
-182.606
 20
13.7408
 30
0.0
 10
-182.606
 20
13.7408
 30
0.0
 10
-182.4352
 20
13.5616
 30
0.0
 10
-182.2645
 20
13.3273
 30
0.0
 10
-182.0937
 20
13.0366
 30
0.0
 10
-182.0937
 20
13.0366
 30
0.0
 10
-181.923
 20
12.7445
 30
0.0
 10
-181.7946
 20
12.4835
 30
0.0
 10
-181.7099
 20
12.2521
 30
0.0
 10
-181.7099
 20
12.2521
 30
0.0
 10
-181.7099
 20
12.2521
 30
0.0
 10
-182.4282
 20
12.2521
 30
0.0
 10
-182.4282
 20
12.2521
 30
0.0
 10
-182.4282
 20
12.2521
 30
0.0
 10
-182.6243
 20
12.6683
 30
0.0
 10
-182.8614
 20
13.0324
 30
0.0
 10
-183.1394
 20
13.3443
 30
0.0
 10
-183.1394
 20
13.3443
 30
0.0
 10
-183.4188
 20
13.6547
 30
0.0
 10
-183.6883
 20
13.8763
 30
0.0
 10
-183.9493
 20
14.0061
 30
0.0
 10
-183.9493
 20
14.0061
 30
0.0
 10
-183.9493
 20
14.0061
 30
0.0
 10
-183.9493
 20
14.4844
 30
0.0
 10
-183.9493
 20
14.4844
 30
0.0
 10
-183.9493
 20
14.4844
 30
0.0
 10
-183.9493
 20
14.4844
 30
0.0
 10
-177.8646
 20
14.4844
 30
0.0
 10
-177.8646
 20
14.4844
 30
0.0
  0
SPLINE
  5
3F
330
1F
100
AcDbEntity
  8
52
 62
   250
100
AcDbSpline
210
0.0
220
0.0
230
1.0
 70
    11
 71
     3
 72
   124
 73
   120
 74
     0
 42
0.0000000001
 43
0.0000000001
 40
0.0
 40
0.0
 40
0.0
 40
0.0
 40
0.0333333333333333
 40
0.0333333333333333
 40
0.0333333333333333
 40
0.0333333333333333
 40
0.0666666666666667
 40
0.0666666666666667
 40
0.0666666666666667
 40
0.0666666666666667
 40
0.1
 40
0.1
 40
0.1
 40
0.1
 40
0.1333333333333333
 40
0.1333333333333333
 40
0.1333333333333333
 40
0.1333333333333333
 40
0.1666666666666667
 40
0.1666666666666667
 40
0.1666666666666667
 40
0.1666666666666667
 40
0.2
 40
0.2
 40
0.2
 40
0.2
 40
0.2333333333333333
 40
0.2333333333333333
 40
0.2333333333333333
 40
0.2333333333333333
 40
0.2666666666666667
 40
0.2666666666666667
 40
0.2666666666666667
 40
0.2666666666666667
 40
0.3
 40
0.3
 40
0.3
 40
0.3
 40
0.3333333333333333
 40
0.3333333333333333
 40
0.3333333333333333
 40
0.3333333333333333
 40
0.3666666666666666
 40
0.3666666666666666
 40
0.3666666666666666
 40
0.3666666666666666
 40
0.4
 40
0.4
 40
0.4
 40
0.4
 40
0.4333333333333333
 40
0.4333333333333333
 40
0.4333333333333333
 40
0.4333333333333333
 40
0.4666666666666666
 40
0.4666666666666666
 40
0.4666666666666666
 40
0.4666666666666666
 40
0.4999999999999999
 40
0.4999999999999999
 40
0.4999999999999999
 40
0.4999999999999999
 40
0.5333333333333333
 40
0.5333333333333333
 40
0.5333333333333333
 40
0.5333333333333333
 40
0.5666666666666667
 40
0.5666666666666667
 40
0.5666666666666667
 40
0.5666666666666667
 40
0.6
 40
0.6
 40
0.6
 40
0.6
 40
0.6333333333333333
 40
0.6333333333333333
 40
0.6333333333333333
 40
0.6333333333333333
 40
0.6666666666666666
 40
0.6666666666666666
 40
0.6666666666666666
 40
0.6666666666666666
 40
0.7
 40
0.7
 40
0.7
 40
0.7
 40
0.7333333333333333
 40
0.7333333333333333
 40
0.7333333333333333
 40
0.7333333333333333
 40
0.7666666666666666
 40
0.7666666666666666
 40
0.7666666666666666
 40
0.7666666666666666
 40
0.7999999999999999
 40
0.7999999999999999
 40
0.7999999999999999
 40
0.7999999999999999
 40
0.8333333333333333
 40
0.8333333333333333
 40
0.8333333333333333
 40
0.8333333333333333
 40
0.8666666666666666
 40
0.8666666666666666
 40
0.8666666666666666
 40
0.8666666666666666
 40
0.8999999999999999
 40
0.8999999999999999
 40
0.8999999999999999
 40
0.8999999999999999
 40
0.9333333333333332
 40
0.9333333333333332
 40
0.9333333333333332
 40
0.9333333333333332
 40
0.9666666666666666
 40
0.9666666666666666
 40
0.9666666666666666
 40
0.9666666666666666
 40
1.0
 40
1.0
 40
1.0
 40
1.0
 10
-179.4648
 20
16.3951
 30
0.0
 10
-179.4648
 20
16.3951
 30
0.0
 10
-179.5636
 20
17.1388
 30
0.0
 10
-179.5636
 20
17.1388
 30
0.0
 10
-179.5636
 20
17.1388
 30
0.0
 10
-179.1417
 20
17.2248
 30
0.0
 10
-178.8383
 20
17.3702
 30
0.0
 10
-178.652
 20
17.5748
 30
0.0
 10
-178.652
 20
17.5748
 30
0.0
 10
-178.4657
 20
17.7808
 30
0.0
 10
-178.3726
 20
18.0306
 30
0.0
 10
-178.3726
 20
18.3255
 30
0.0
 10
-178.3726
 20
18.3255
 30
0.0
 10
-178.3726
 20
18.6755
 30
0.0
 10
-178.494
 20
18.9718
 30
0.0
 10
-178.7367
 20
19.2131
 30
0.0
 10
-178.7367
 20
19.2131
 30
0.0
 10
-178.9794
 20
19.453
 30
0.0
 10
-179.28
 20
19.5743
 30
0.0
 10
-179.6384
 20
19.5743
 30
0.0
 10
-179.6384
 20
19.5743
 30
0.0
 10
-179.9799
 20
19.5743
 30
0.0
 10
-180.2621
 20
19.4629
 30
0.0
 10
-180.4836
 20
19.2399
 30
0.0
 10
-180.4836
 20
19.2399
 30
0.0
 10
-180.7052
 20
19.0155
 30
0.0
 10
-180.8167
 20
18.7319
 30
0.0
 10
-180.8167
 20
18.3876
 30
0.0
 10
-180.8167
 20
18.3876
 30
0.0
 10
-180.8167
 20
18.2465
 30
0.0
 10
-180.7884
 20
18.0715
 30
0.0
 10
-180.7334
 20
17.8627
 30
0.0
 10
-180.7334
 20
17.8627
 30
0.0
 10
-180.7334
 20
17.8627
 30
0.0
 10
-181.3867
 20
17.9459
 30
0.0
 10
-181.3867
 20
17.9459
 30
0.0
 10
-181.3867
 20
17.9459
 30
0.0
 10
-181.3811
 20
17.9953
 30
0.0
 10
-181.3783
 20
18.0348
 30
0.0
 10
-181.3783
 20
18.0659
 30
0.0
 10
-181.3783
 20
18.0659
 30
0.0
 10
-181.3783
 20
18.382
 30
0.0
 10
-181.4615
 20
18.667
 30
0.0
 10
-181.6266
 20
18.921
 30
0.0
 10
-181.6266
 20
18.921
 30
0.0
 10
-181.7917
 20
19.175
 30
0.0
 10
-182.0471
 20
19.302
 30
0.0
 10
-182.3915
 20
19.302
 30
0.0
 10
-182.3915
 20
19.302
 30
0.0
 10
-182.6638
 20
19.302
 30
0.0
 10
-182.891
 20
19.2089
 30
0.0
 10
-183.0688
 20
19.024
 30
0.0
 10
-183.0688
 20
19.024
 30
0.0
 10
-183.248
 20
18.8392
 30
0.0
 10
-183.3383
 20
18.6007
 30
0.0
 10
-183.3383
 20
18.3086
 30
0.0
 10
-183.3383
 20
18.3086
 30
0.0
 10
-183.3383
 20
18.0193
 30
0.0
 10
-183.2466
 20
17.778
 30
0.0
 10
-183.066
 20
17.5861
 30
0.0
 10
-183.066
 20
17.5861
 30
0.0
 10
-182.8839
 20
17.3928
 30
0.0
 10
-182.6102
 20
17.2686
 30
0.0
 10
-182.2461
 20
17.2135
 30
0.0
 10
-182.2461
 20
17.2135
 30
0.0
 10
-182.2461
 20
17.2135
 30
0.0
 10
-182.3788
 20
16.4699
 30
0.0
 10
-182.3788
 20
16.4699
 30
0.0
 10
-182.3788
 20
16.4699
 30
0.0
 10
-182.8783
 20
16.5602
 30
0.0
 10
-183.2649
 20
16.7676
 30
0.0
 10
-183.5387
 20
17.0894
 30
0.0
 10
-183.5387
 20
17.0894
 30
0.0
 10
-183.8125
 20
17.4125
 30
0.0
 10
-183.9493
 20
17.8133
 30
0.0
 10
-183.9493
 20
18.2931
 30
0.0
 10
-183.9493
 20
18.2931
 30
0.0
 10
-183.9493
 20
18.6233
 30
0.0
 10
-183.8788
 20
18.9281
 30
0.0
 10
-183.7377
 20
19.206
 30
0.0
 10
-183.7377
 20
19.206
 30
0.0
 10
-183.5951
 20
19.484
 30
0.0
 10
-183.4018
 20
19.6971
 30
0.0
 10
-183.1563
 20
19.8453
 30
0.0
 10
-183.1563
 20
19.8453
 30
0.0
 10
-182.9108
 20
19.992
 30
0.0
 10
-182.6511
 20
20.0668
 30
0.0
 10
-182.3745
 20
20.0668
 30
0.0
 10
-182.3745
 20
20.0668
 30
0.0
 10
-182.1135
 20
20.0668
 30
0.0
 10
-181.875
 20
19.9963
 30
0.0
 10
-181.6591
 20
19.8552
 30
0.0
 10
-181.6591
 20
19.8552
 30
0.0
 10
-181.4446
 20
19.714
 30
0.0
 10
-181.2739
 20
19.5066
 30
0.0
 10
-181.1469
 20
19.2314
 30
0.0
 10
-181.1469
 20
19.2314
 30
0.0
 10
-181.065
 20
19.5899
 30
0.0
 10
-180.8929
 20
19.8679
 30
0.0
 10
-180.6318
 20
20.0668
 30
0.0
 10
-180.6318
 20
20.0668
 30
0.0
 10
-180.3722
 20
20.2644
 30
0.0
 10
-180.0462
 20
20.3632
 30
0.0
 10
-179.6553
 20
20.3632
 30
0.0
 10
-179.6553
 20
20.3632
 30
0.0
 10
-179.1261
 20
20.3632
 30
0.0
 10
-178.6774
 20
20.1712
 30
0.0
 10
-178.3091
 20
19.7846
 30
0.0
 10
-178.3091
 20
19.7846
 30
0.0
 10
-177.9408
 20
19.3994
 30
0.0
 10
-177.7574
 20
18.9111
 30
0.0
 10
-177.7574
 20
18.3213
 30
0.0
 10
-177.7574
 20
18.3213
 30
0.0
 10
-177.7574
 20
17.7893
 30
0.0
 10
-177.9154
 20
17.3476
 30
0.0
 10
-178.2329
 20
16.9962
 30
0.0
 10
-178.2329
 20
16.9962
 30
0.0
 10
-178.549
 20
16.6449
 30
0.0
 10
-178.9596
 20
16.4445
 30
0.0
 10
-179.4648
 20
16.3951
 30
0.0
  0
SPLINE
  5
40
330
1F
100
AcDbEntity
  8
52
 62
   250
100
AcDbSpline
210
0.0
220
0.0
230
1.0
 70
    11
 71
     3
 72
    52
 73
    48
 74
     0
 42
0.0000000001
 43
0.0000000001
 40
0.0
 40
0.0
 40
0.0
 40
0.0
 40
0.0833333333333333
 40
0.0833333333333333
 40
0.0833333333333333
 40
0.0833333333333333
 40
0.1666666666666667
 40
0.1666666666666667
 40
0.1666666666666667
 40
0.1666666666666667
 40
0.25
 40
0.25
 40
0.25
 40
0.25
 40
0.3333333333333333
 40
0.3333333333333333
 40
0.3333333333333333
 40
0.3333333333333333
 40
0.4166666666666666
 40
0.4166666666666666
 40
0.4166666666666666
 40
0.4166666666666666
 40
0.4999999999999999
 40
0.4999999999999999
 40
0.4999999999999999
 40
0.4999999999999999
 40
0.5833333333333333
 40
0.5833333333333333
 40
0.5833333333333333
 40
0.5833333333333333
 40
0.6666666666666666
 40
0.6666666666666666
 40
0.6666666666666666
 40
0.6666666666666666
 40
0.75
 40
0.75
 40
0.75
 40
0.75
 40
0.8333333333333334
 40
0.8333333333333334
 40
0.8333333333333334
 40
0.8333333333333334
 40
0.9166666666666667
 40
0.9166666666666667
 40
0.9166666666666667
 40
0.9166666666666667
 40
1.0
 40
1.0
 40
1.0
 40
1.0
 10
-180.8533
 20
21.0998
 30
0.0
 10
-181.5702
 20
21.0998
 30
0.0
 10
-182.1473
 20
21.1731
 30
0.0
 10
-182.5834
 20
21.3213
 30
0.0
 10
-182.5834
 20
21.3213
 30
0.0
 10
-183.0208
 20
21.4681
 30
0.0
 10
-183.3581
 20
21.6882
 30
0.0
 10
-183.5951
 20
21.9789
 30
0.0
 10
-183.5951
 20
21.9789
 30
0.0
 10
-183.8322
 20
22.2696
 30
0.0
 10
-183.9493
 20
22.6351
 30
0.0
 10
-183.9493
 20
23.0753
 30
0.0
 10
-183.9493
 20
23.0753
 30
0.0
 10
-183.9493
 20
23.4013
 30
0.0
 10
-183.8844
 20
23.6863
 30
0.0
 10
-183.7532
 20
23.9319
 30
0.0
 10
-183.7532
 20
23.9319
 30
0.0
 10
-183.6234
 20
24.1774
 30
0.0
 10
-183.4343
 20
24.3792
 30
0.0
 10
-183.1873
 20
24.5401
 30
0.0
 10
-183.1873
 20
24.5401
 30
0.0
 10
-182.9404
 20
24.6995
 30
0.0
 10
-182.6398
 20
24.8251
 30
0.0
 10
-182.2856
 20
24.9154
 30
0.0
 10
-182.2856
 20
24.9154
 30
0.0
 10
-181.9314
 20
25.0072
 30
0.0
 10
-181.4545
 20
25.0523
 30
0.0
 10
-180.8533
 20
25.0523
 30
0.0
 10
-180.8533
 20
25.0523
 30
0.0
 10
-180.1421
 20
25.0523
 30
0.0
 10
-179.5692
 20
24.9789
 30
0.0
 10
-179.1318
 20
24.8336
 30
0.0
 10
-179.1318
 20
24.8336
 30
0.0
 10
-178.6943
 20
24.6868
 30
0.0
 10
-178.3571
 20
24.4681
 30
0.0
 10
-178.1186
 20
24.1774
 30
0.0
 10
-178.1186
 20
24.1774
 30
0.0
 10
-177.8801
 20
23.8867
 30
0.0
 10
-177.7616
 20
23.5198
 30
0.0
 10
-177.7616
 20
23.0753
 30
0.0
 10
-177.7616
 20
23.0753
 30
0.0
 10
-177.7616
 20
22.4911
 30
0.0
 10
-177.9704
 20
22.0325
 30
0.0
 10
-178.3895
 20
21.6995
 30
0.0
 10
-178.3895
 20
21.6995
 30
0.0
 10
-178.8933
 20
21.3001
 30
0.0
 10
-179.716
 20
21.0998
 30
0.0
 10
-180.8533
 20
21.0998
 30
0.0
  0
SPLINE
  5
41
330
1F
100
AcDbEntity
  8
52
 62
   250
100
AcDbSpline
210
0.0
220
0.0
230
1.0
 70
    11
 71
     3
 72
    36
 73
    32
 74
     0
 42
0.0000000001
 43
0.0000000001
 40
0.0
 40
0.0
 40
0.0
 40
0.0
 40
0.125
 40
0.125
 40
0.125
 40
0.125
 40
0.25
 40
0.25
 40
0.25
 40
0.25
 40
0.375
 40
0.375
 40
0.375
 40
0.375
 40
0.5
 40
0.5
 40
0.5
 40
0.5
 40
0.625
 40
0.625
 40
0.625
 40
0.625
 40
0.75
 40
0.75
 40
0.75
 40
0.75
 40
0.875
 40
0.875
 40
0.875
 40
0.875
 40
1.0
 40
1.0
 40
1.0
 40
1.0
 10
-180.8533
 20
21.8646
 30
0.0
 10
-179.8585
 20
21.8646
 30
0.0
 10
-179.1967
 20
21.9817
 30
0.0
 10
-178.8665
 20
22.2146
 30
0.0
 10
-178.8665
 20
22.2146
 30
0.0
 10
-178.5377
 20
22.4474
 30
0.0
 10
-178.3726
 20
22.7338
 30
0.0
 10
-178.3726
 20
23.0753
 30
0.0
 10
-178.3726
 20
23.0753
 30
0.0
 10
-178.3726
 20
23.4182
 30
0.0
 10
-178.5391
 20
23.7047
 30
0.0
 10
-178.8693
 20
23.9375
 30
0.0
 10
-178.8693
 20
23.9375
 30
0.0
 10
-179.1995
 20
24.1704
 30
0.0
 10
-179.8613
 20
24.2875
 30
0.0
 10
-180.8533
 20
24.2875
 30
0.0
 10
-180.8533
 20
24.2875
 30
0.0
 10
-181.851
 20
24.2875
 30
0.0
 10
-182.5142
 20
24.1704
 30
0.0
 10
-182.8416
 20
23.9375
 30
0.0
 10
-182.8416
 20
23.9375
 30
0.0
 10
-183.1704
 20
23.7047
 30
0.0
 10
-183.3341
 20
23.4154
 30
0.0
 10
-183.3341
 20
23.0683
 30
0.0
 10
-183.3341
 20
23.0683
 30
0.0
 10
-183.3341
 20
22.7254
 30
0.0
 10
-183.1887
 20
22.453
 30
0.0
 10
-182.8995
 20
22.2484
 30
0.0
 10
-182.8995
 20
22.2484
 30
0.0
 10
-182.5312
 20
21.993
 30
0.0
 10
-181.8482
 20
21.8646
 30
0.0
 10
-180.8533
 20
21.8646
 30
0.0
  0
SPLINE
  5
42
330
1F
100
AcDbEntity
  8
52
 62
   250
100
AcDbSpline
210
0.0
220
0.0
230
1.0
 70
    11
 71
     3
 72
    20
 73
    16
 74
     0
 42
0.0000000001
 43
0.0000000001
 40
0.0
 40
0.0
 40
0.0
 40
0.0
 40
0.25
 40
0.25
 40
0.25
 40
0.25
 40
0.5
 40
0.5
 40
0.5
 40
0.5
 40
0.75
 40
0.75
 40
0.75
 40
0.75
 40
1.0
 40
1.0
 40
1.0
 40
1.0
 10
-177.8646
 20
26.2264
 30
0.0
 10
-177.8646
 20
26.2264
 30
0.0
 10
-178.7127
 20
26.2264
 30
0.0
 10
-178.7127
 20
26.2264
 30
0.0
 10
-178.7127
 20
26.2264
 30
0.0
 10
-178.7127
 20
26.2264
 30
0.0
 10
-178.7127
 20
27.0744
 30
0.0
 10
-178.7127
 20
27.0744
 30
0.0
 10
-178.7127
 20
27.0744
 30
0.0
 10
-178.7127
 20
27.0744
 30
0.0
 10
-177.8646
 20
27.0744
 30
0.0
 10
-177.8646
 20
27.0744
 30
0.0
 10
-177.8646
 20
27.0744
 30
0.0
 10
-177.8646
 20
27.0744
 30
0.0
 10
-177.8646
 20
26.2264
 30
0.0
 10
-177.8646
 20
26.2264
 30
0.0
  0
SPLINE
  5
43
330
1F
100
AcDbEntity
  8
52
 62
   250
100
AcDbSpline
210
0.0
220
0.0
230
1.0
 70
    11
 71
     3
 72
    52
 73
    48
 74
     0
 42
0.0000000001
 43
0.0000000001
 40
0.0
 40
0.0
 40
0.0
 40
0.0
 40
0.0833333333333333
 40
0.0833333333333333
 40
0.0833333333333333
 40
0.0833333333333333
 40
0.1666666666666667
 40
0.1666666666666667
 40
0.1666666666666667
 40
0.1666666666666667
 40
0.25
 40
0.25
 40
0.25
 40
0.25
 40
0.3333333333333333
 40
0.3333333333333333
 40
0.3333333333333333
 40
0.3333333333333333
 40
0.4166666666666666
 40
0.4166666666666666
 40
0.4166666666666666
 40
0.4166666666666666
 40
0.4999999999999999
 40
0.4999999999999999
 40
0.4999999999999999
 40
0.4999999999999999
 40
0.5833333333333333
 40
0.5833333333333333
 40
0.5833333333333333
 40
0.5833333333333333
 40
0.6666666666666666
 40
0.6666666666666666
 40
0.6666666666666666
 40
0.6666666666666666
 40
0.75
 40
0.75
 40
0.75
 40
0.75
 40
0.8333333333333334
 40
0.8333333333333334
 40
0.8333333333333334
 40
0.8333333333333334
 40
0.9166666666666667
 40
0.9166666666666667
 40
0.9166666666666667
 40
0.9166666666666667
 40
1.0
 40
1.0
 40
1.0
 40
1.0
 10
-180.8533
 20
28.161
 30
0.0
 10
-181.5702
 20
28.161
 30
0.0
 10
-182.1473
 20
28.2343
 30
0.0
 10
-182.5834
 20
28.3825
 30
0.0
 10
-182.5834
 20
28.3825
 30
0.0
 10
-183.0208
 20
28.5293
 30
0.0
 10
-183.3581
 20
28.7494
 30
0.0
 10
-183.5951
 20
29.0401
 30
0.0
 10
-183.5951
 20
29.0401
 30
0.0
 10
-183.8322
 20
29.3308
 30
0.0
 10
-183.9493
 20
29.6963
 30
0.0
 10
-183.9493
 20
30.1365
 30
0.0
 10
-183.9493
 20
30.1365
 30
0.0
 10
-183.9493
 20
30.4625
 30
0.0
 10
-183.8844
 20
30.7475
 30
0.0
 10
-183.7532
 20
30.9931
 30
0.0
 10
-183.7532
 20
30.9931
 30
0.0
 10
-183.6234
 20
31.2386
 30
0.0
 10
-183.4343
 20
31.4404
 30
0.0
 10
-183.1873
 20
31.6013
 30
0.0
 10
-183.1873
 20
31.6013
 30
0.0
 10
-182.9404
 20
31.7607
 30
0.0
 10
-182.6398
 20
31.8863
 30
0.0
 10
-182.2856
 20
31.9766
 30
0.0
 10
-182.2856
 20
31.9766
 30
0.0
 10
-181.9314
 20
32.0684
 30
0.0
 10
-181.4545
 20
32.1135
 30
0.0
 10
-180.8533
 20
32.1135
 30
0.0
 10
-180.8533
 20
32.1135
 30
0.0
 10
-180.1421
 20
32.1135
 30
0.0
 10
-179.5692
 20
32.0401
 30
0.0
 10
-179.1318
 20
31.8948
 30
0.0
 10
-179.1318
 20
31.8948
 30
0.0
 10
-178.6943
 20
31.748
 30
0.0
 10
-178.3571
 20
31.5293
 30
0.0
 10
-178.1186
 20
31.2386
 30
0.0
 10
-178.1186
 20
31.2386
 30
0.0
 10
-177.8801
 20
30.9479
 30
0.0
 10
-177.7616
 20
30.581
 30
0.0
 10
-177.7616
 20
30.1365
 30
0.0
 10
-177.7616
 20
30.1365
 30
0.0
 10
-177.7616
 20
29.5523
 30
0.0
 10
-177.9704
 20
29.0937
 30
0.0
 10
-178.3895
 20
28.7607
 30
0.0
 10
-178.3895
 20
28.7607
 30
0.0
 10
-178.8933
 20
28.3613
 30
0.0
 10
-179.716
 20
28.161
 30
0.0
 10
-180.8533
 20
28.161
 30
0.0
  0
SPLINE
  5
44
330
1F
100
AcDbEntity
  8
52
 62
   250
100
AcDbSpline
210
0.0
220
0.0
230
1.0
 70
    11
 71
     3
 72
    36
 73
    32
 74
     0
 42
0.0000000001
 43
0.0000000001
 40
0.0
 40
0.0
 40
0.0
 40
0.0
 40
0.125
 40
0.125
 40
0.125
 40
0.125
 40
0.25
 40
0.25
 40
0.25
 40
0.25
 40
0.375
 40
0.375
 40
0.375
 40
0.375
 40
0.5
 40
0.5
 40
0.5
 40
0.5
 40
0.625
 40
0.625
 40
0.625
 40
0.625
 40
0.75
 40
0.75
 40
0.75
 40
0.75
 40
0.875
 40
0.875
 40
0.875
 40
0.875
 40
1.0
 40
1.0
 40
1.0
 40
1.0
 10
-180.8533
 20
28.9258
 30
0.0
 10
-179.8585
 20
28.9258
 30
0.0
 10
-179.1967
 20
29.0429
 30
0.0
 10
-178.8665
 20
29.2758
 30
0.0
 10
-178.8665
 20
29.2758
 30
0.0
 10
-178.5377
 20
29.5086
 30
0.0
 10
-178.3726
 20
29.795
 30
0.0
 10
-178.3726
 20
30.1365
 30
0.0
 10
-178.3726
 20
30.1365
 30
0.0
 10
-178.3726
 20
30.4794
 30
0.0
 10
-178.5391
 20
30.7659
 30
0.0
 10
-178.8693
 20
30.9987
 30
0.0
 10
-178.8693
 20
30.9987
 30
0.0
 10
-179.1995
 20
31.2316
 30
0.0
 10
-179.8613
 20
31.3487
 30
0.0
 10
-180.8533
 20
31.3487
 30
0.0
 10
-180.8533
 20
31.3487
 30
0.0
 10
-181.851
 20
31.3487
 30
0.0
 10
-182.5142
 20
31.2316
 30
0.0
 10
-182.8416
 20
30.9987
 30
0.0
 10
-182.8416
 20
30.9987
 30
0.0
 10
-183.1704
 20
30.7659
 30
0.0
 10
-183.3341
 20
30.4766
 30
0.0
 10
-183.3341
 20
30.1295
 30
0.0
 10
-183.3341
 20
30.1295
 30
0.0
 10
-183.3341
 20
29.7866
 30
0.0
 10
-183.1887
 20
29.5142
 30
0.0
 10
-182.8995
 20
29.3096
 30
0.0
 10
-182.8995
 20
29.3096
 30
0.0
 10
-182.5312
 20
29.0542
 30
0.0
 10
-181.8482
 20
28.9258
 30
0.0
 10
-180.8533
 20
28.9258
 30
0.0
  0
SPLINE
  5
45
330
1F
100
AcDbEntity
  8
52
 62
   250
100
AcDbSpline
210
0.0
220
0.0
230
1.0
 70
    11
 71
     3
 72
    52
 73
    48
 74
     0
 42
0.0000000001
 43
0.0000000001
 40
0.0
 40
0.0
 40
0.0
 40
0.0
 40
0.0833333333333333
 40
0.0833333333333333
 40
0.0833333333333333
 40
0.0833333333333333
 40
0.1666666666666667
 40
0.1666666666666667
 40
0.1666666666666667
 40
0.1666666666666667
 40
0.25
 40
0.25
 40
0.25
 40
0.25
 40
0.3333333333333333
 40
0.3333333333333333
 40
0.3333333333333333
 40
0.3333333333333333
 40
0.4166666666666666
 40
0.4166666666666666
 40
0.4166666666666666
 40
0.4166666666666666
 40
0.4999999999999999
 40
0.4999999999999999
 40
0.4999999999999999
 40
0.4999999999999999
 40
0.5833333333333333
 40
0.5833333333333333
 40
0.5833333333333333
 40
0.5833333333333333
 40
0.6666666666666666
 40
0.6666666666666666
 40
0.6666666666666666
 40
0.6666666666666666
 40
0.75
 40
0.75
 40
0.75
 40
0.75
 40
0.8333333333333334
 40
0.8333333333333334
 40
0.8333333333333334
 40
0.8333333333333334
 40
0.9166666666666667
 40
0.9166666666666667
 40
0.9166666666666667
 40
0.9166666666666667
 40
1.0
 40
1.0
 40
1.0
 40
1.0
 10
-180.8533
 20
32.8699
 30
0.0
 10
-181.5702
 20
32.8699
 30
0.0
 10
-182.1473
 20
32.9432
 30
0.0
 10
-182.5834
 20
33.0914
 30
0.0
 10
-182.5834
 20
33.0914
 30
0.0
 10
-183.0208
 20
33.2382
 30
0.0
 10
-183.3581
 20
33.4583
 30
0.0
 10
-183.5951
 20
33.749
 30
0.0
 10
-183.5951
 20
33.749
 30
0.0
 10
-183.8322
 20
34.0397
 30
0.0
 10
-183.9493
 20
34.4052
 30
0.0
 10
-183.9493
 20
34.84540000000001
 30
0.0
 10
-183.9493
 20
34.84540000000001
 30
0.0
 10
-183.9493
 20
35.1714
 30
0.0
 10
-183.8844
 20
35.4564
 30
0.0
 10
-183.7532
 20
35.702
 30
0.0
 10
-183.7532
 20
35.702
 30
0.0
 10
-183.6234
 20
35.94750000000001
 30
0.0
 10
-183.4343
 20
36.1493
 30
0.0
 10
-183.1873
 20
36.3102
 30
0.0
 10
-183.1873
 20
36.3102
 30
0.0
 10
-182.9404
 20
36.4696
 30
0.0
 10
-182.6398
 20
36.5952
 30
0.0
 10
-182.2856
 20
36.68550000000001
 30
0.0
 10
-182.2856
 20
36.68550000000001
 30
0.0
 10
-181.9314
 20
36.7773
 30
0.0
 10
-181.4545
 20
36.8224
 30
0.0
 10
-180.8533
 20
36.8224
 30
0.0
 10
-180.8533
 20
36.8224
 30
0.0
 10
-180.1421
 20
36.8224
 30
0.0
 10
-179.5692
 20
36.749
 30
0.0
 10
-179.1318
 20
36.6037
 30
0.0
 10
-179.1318
 20
36.6037
 30
0.0
 10
-178.6943
 20
36.45690000000001
 30
0.0
 10
-178.3571
 20
36.2382
 30
0.0
 10
-178.1186
 20
35.94750000000001
 30
0.0
 10
-178.1186
 20
35.94750000000001
 30
0.0
 10
-177.8801
 20
35.6568
 30
0.0
 10
-177.7616
 20
35.2899
 30
0.0
 10
-177.7616
 20
34.84540000000001
 30
0.0
 10
-177.7616
 20
34.84540000000001
 30
0.0
 10
-177.7616
 20
34.2612
 30
0.0
 10
-177.9704
 20
33.8026
 30
0.0
 10
-178.3895
 20
33.4696
 30
0.0
 10
-178.3895
 20
33.4696
 30
0.0
 10
-178.8933
 20
33.0702
 30
0.0
 10
-179.716
 20
32.8699
 30
0.0
 10
-180.8533
 20
32.8699
 30
0.0
  0
SPLINE
  5
46
330
1F
100
AcDbEntity
  8
52
 62
   250
100
AcDbSpline
210
0.0
220
0.0
230
1.0
 70
    11
 71
     3
 72
    36
 73
    32
 74
     0
 42
0.0000000001
 43
0.0000000001
 40
0.0
 40
0.0
 40
0.0
 40
0.0
 40
0.125
 40
0.125
 40
0.125
 40
0.125
 40
0.25
 40
0.25
 40
0.25
 40
0.25
 40
0.375
 40
0.375
 40
0.375
 40
0.375
 40
0.5
 40
0.5
 40
0.5
 40
0.5
 40
0.625
 40
0.625
 40
0.625
 40
0.625
 40
0.75
 40
0.75
 40
0.75
 40
0.75
 40
0.875
 40
0.875
 40
0.875
 40
0.875
 40
1.0
 40
1.0
 40
1.0
 40
1.0
 10
-180.8533
 20
33.6347
 30
0.0
 10
-179.8585
 20
33.6347
 30
0.0
 10
-179.1967
 20
33.7518
 30
0.0
 10
-178.8665
 20
33.9847
 30
0.0
 10
-178.8665
 20
33.9847
 30
0.0
 10
-178.5377
 20
34.2175
 30
0.0
 10
-178.3726
 20
34.5039
 30
0.0
 10
-178.3726
 20
34.84540000000001
 30
0.0
 10
-178.3726
 20
34.84540000000001
 30
0.0
 10
-178.3726
 20
35.1883
 30
0.0
 10
-178.5391
 20
35.4748
 30
0.0
 10
-178.8693
 20
35.7076
 30
0.0
 10
-178.8693
 20
35.7076
 30
0.0
 10
-179.1995
 20
35.9405
 30
0.0
 10
-179.8613
 20
36.0576
 30
0.0
 10
-180.8533
 20
36.0576
 30
0.0
 10
-180.8533
 20
36.0576
 30
0.0
 10
-181.851
 20
36.0576
 30
0.0
 10
-182.5142
 20
35.9405
 30
0.0
 10
-182.8416
 20
35.7076
 30
0.0
 10
-182.8416
 20
35.7076
 30
0.0
 10
-183.1704
 20
35.4748
 30
0.0
 10
-183.3341
 20
35.18550000000001
 30
0.0
 10
-183.3341
 20
34.8384
 30
0.0
 10
-183.3341
 20
34.8384
 30
0.0
 10
-183.3341
 20
34.4955
 30
0.0
 10
-183.1887
 20
34.2231
 30
0.0
 10
-182.8995
 20
34.0185
 30
0.0
 10
-182.8995
 20
34.0185
 30
0.0
 10
-182.5312
 20
33.7631
 30
0.0
 10
-181.8482
 20
33.6347
 30
0.0
 10
-180.8533
 20
33.6347
 30
0.0
  0
SPLINE
  5
47
330
1F
100
AcDbEntity
  8
52
 62
   250
100
AcDbSpline
210
0.0
220
0.0
230
1.0
 70
    11
 71
     3
 72
   116
 73
   112
 74
     0
 42
0.0000000001
 43
0.0000000001
 40
0.0
 40
0.0
 40
0.0
 40
0.0
 40
0.0357142857142857
 40
0.0357142857142857
 40
0.0357142857142857
 40
0.0357142857142857
 40
0.0714285714285714
 40
0.0714285714285714
 40
0.0714285714285714
 40
0.0714285714285714
 40
0.1071428571428571
 40
0.1071428571428571
 40
0.1071428571428571
 40
0.1071428571428571
 40
0.1428571428571429
 40
0.1428571428571429
 40
0.1428571428571429
 40
0.1428571428571429
 40
0.1785714285714286
 40
0.1785714285714286
 40
0.1785714285714286
 40
0.1785714285714286
 40
0.2142857142857143
 40
0.2142857142857143
 40
0.2142857142857143
 40
0.2142857142857143
 40
0.2499999999999999
 40
0.2499999999999999
 40
0.2499999999999999
 40
0.2499999999999999
 40
0.2857142857142856
 40
0.2857142857142856
 40
0.2857142857142856
 40
0.2857142857142856
 40
0.3214285714285713
 40
0.3214285714285713
 40
0.3214285714285713
 40
0.3214285714285713
 40
0.357142857142857
 40
0.357142857142857
 40
0.357142857142857
 40
0.357142857142857
 40
0.3928571428571427
 40
0.3928571428571427
 40
0.3928571428571427
 40
0.3928571428571427
 40
0.4285714285714284
 40
0.4285714285714284
 40
0.4285714285714284
 40
0.4285714285714284
 40
0.4642857142857141
 40
0.4642857142857141
 40
0.4642857142857141
 40
0.4642857142857141
 40
0.4999999999999998
 40
0.4999999999999998
 40
0.4999999999999998
 40
0.4999999999999998
 40
0.5357142857142856
 40
0.5357142857142856
 40
0.5357142857142856
 40
0.5357142857142856
 40
0.5714285714285713
 40
0.5714285714285713
 40
0.5714285714285713
 40
0.5714285714285713
 40
0.607142857142857
 40
0.607142857142857
 40
0.607142857142857
 40
0.607142857142857
 40
0.6428571428571427
 40
0.6428571428571427
 40
0.6428571428571427
 40
0.6428571428571427
 40
0.6785714285714284
 40
0.6785714285714284
 40
0.6785714285714284
 40
0.6785714285714284
 40
0.7142857142857141
 40
0.7142857142857141
 40
0.7142857142857141
 40
0.7142857142857141
 40
0.7499999999999998
 40
0.7499999999999998
 40
0.7499999999999998
 40
0.7499999999999998
 40
0.7857142857142855
 40
0.7857142857142855
 40
0.7857142857142855
 40
0.7857142857142855
 40
0.8214285714285712
 40
0.8214285714285712
 40
0.8214285714285712
 40
0.8214285714285712
 40
0.8571428571428569
 40
0.8571428571428569
 40
0.8571428571428569
 40
0.8571428571428569
 40
0.8928571428571426
 40
0.8928571428571426
 40
0.8928571428571426
 40
0.8928571428571426
 40
0.9285714285714283
 40
0.9285714285714283
 40
0.9285714285714283
 40
0.9285714285714283
 40
0.964285714285714
 40
0.964285714285714
 40
0.964285714285714
 40
0.964285714285714
 40
1.0
 40
1.0
 40
1.0
 40
1.0
 10
-177.8646
 20
40.1385
 30
0.0
 10
-177.8646
 20
40.1385
 30
0.0
 10
-182.2546
 20
40.1385
 30
0.0
 10
-182.2546
 20
40.1385
 30
0.0
 10
-182.2546
 20
40.1385
 30
0.0
 10
-182.2546
 20
40.1385
 30
0.0
 10
-182.2546
 20
40.8031
 30
0.0
 10
-182.2546
 20
40.8031
 30
0.0
 10
-182.2546
 20
40.8031
 30
0.0
 10
-182.2546
 20
40.8031
 30
0.0
 10
-181.6393
 20
40.8031
 30
0.0
 10
-181.6393
 20
40.8031
 30
0.0
 10
-181.6393
 20
40.8031
 30
0.0
 10
-181.8538
 20
40.9414
 30
0.0
 10
-182.0274
 20
41.1249
 30
0.0
 10
-182.1572
 20
41.3535
 30
0.0
 10
-182.1572
 20
41.3535
 30
0.0
 10
-182.2885
 20
41.5821
 30
0.0
 10
-182.3548
 20
41.8431
 30
0.0
 10
-182.3548
 20
42.13520000000001
 30
0.0
 10
-182.3548
 20
42.13520000000001
 30
0.0
 10
-182.3548
 20
42.4598
 30
0.0
 10
-182.287
 20
42.7265
 30
0.0
 10
-182.1516
 20
42.9339
 30
0.0
 10
-182.1516
 20
42.9339
 30
0.0
 10
-182.0161
 20
43.1428
 30
0.0
 10
-181.8284
 20
43.2895
 30
0.0
 10
-181.5857
 20
43.3742
 30
0.0
 10
-181.5857
 20
43.3742
 30
0.0
 10
-182.098
 20
43.7227
 30
0.0
 10
-182.3548
 20
44.1743
 30
0.0
 10
-182.3548
 20
44.7303
 30
0.0
 10
-182.3548
 20
44.7303
 30
0.0
 10
-182.3548
 20
45.1663
 30
0.0
 10
-182.2334
 20
45.5007
 30
0.0
 10
-181.9921
 20
45.735
 30
0.0
 10
-181.9921
 20
45.735
 30
0.0
 10
-181.7508
 20
45.9692
 30
0.0
 10
-181.3797
 20
46.08640000000001
 30
0.0
 10
-180.8787
 20
46.08640000000001
 30
0.0
 10
-180.8787
 20
46.08640000000001
 30
0.0
 10
-180.8787
 20
46.08640000000001
 30
0.0
 10
-177.8646
 20
46.08640000000001
 30
0.0
 10
-177.8646
 20
46.08640000000001
 30
0.0
 10
-177.8646
 20
46.08640000000001
 30
0.0
 10
-177.8646
 20
46.08640000000001
 30
0.0
 10
-177.8646
 20
45.34690000000001
 30
0.0
 10
-177.8646
 20
45.34690000000001
 30
0.0
 10
-177.8646
 20
45.34690000000001
 30
0.0
 10
-177.8646
 20
45.34690000000001
 30
0.0
 10
-180.6304
 20
45.34690000000001
 30
0.0
 10
-180.6304
 20
45.34690000000001
 30
0.0
 10
-180.6304
 20
45.34690000000001
 30
0.0
 10
-180.9281
 20
45.34690000000001
 30
0.0
 10
-181.1426
 20
45.3229
 30
0.0
 10
-181.2739
 20
45.27500000000001
 30
0.0
 10
-181.2739
 20
45.27500000000001
 30
0.0
 10
-181.4037
 20
45.2256
 30
0.0
 10
-181.5095
 20
45.1381
 30
0.0
 10
-181.5899
 20
45.0125
 30
0.0
 10
-181.5899
 20
45.0125
 30
0.0
 10
-181.669
 20
44.8855
 30
0.0
 10
-181.7099
 20
44.7359
 30
0.0
 10
-181.7099
 20
44.5652
 30
0.0
 10
-181.7099
 20
44.5652
 30
0.0
 10
-181.7099
 20
44.2561
 30
0.0
 10
-181.6069
 20
44.0007
 30
0.0
 10
-181.4009
 20
43.7961
 30
0.0
 10
-181.4009
 20
43.7961
 30
0.0
 10
-181.1962
 20
43.5929
 30
0.0
 10
-180.8675
 20
43.4899
 30
0.0
 10
-180.4159
 20
43.4899
 30
0.0
 10
-180.4159
 20
43.4899
 30
0.0
 10
-180.4159
 20
43.4899
 30
0.0
 10
-177.8646
 20
43.4899
 30
0.0
 10
-177.8646
 20
43.4899
 30
0.0
 10
-177.8646
 20
43.4899
 30
0.0
 10
-177.8646
 20
43.4899
 30
0.0
 10
-177.8646
 20
42.7462
 30
0.0
 10
-177.8646
 20
42.7462
 30
0.0
 10
-177.8646
 20
42.7462
 30
0.0
 10
-177.8646
 20
42.7462
 30
0.0
 10
-180.7165
 20
42.7462
 30
0.0
 10
-180.7165
 20
42.7462
 30
0.0
 10
-180.7165
 20
42.7462
 30
0.0
 10
-181.0481
 20
42.7462
 30
0.0
 10
-181.2964
 20
42.6856
 30
0.0
 10
-181.4615
 20
42.5642
 30
0.0
 10
-181.4615
 20
42.5642
 30
0.0
 10
-181.6266
 20
42.4429
 30
0.0
 10
-181.7099
 20
42.2453
 30
0.0
 10
-181.7099
 20
41.96870000000001
 30
0.0
 10
-181.7099
 20
41.96870000000001
 30
0.0
 10
-181.7099
 20
41.7599
 30
0.0
 10
-181.6549
 20
41.5666
 30
0.0
 10
-181.5434
 20
41.3888
 30
0.0
 10
-181.5434
 20
41.3888
 30
0.0
 10
-181.4333
 20
41.211
 30
0.0
 10
-181.2724
 20
41.0811
 30
0.0
 10
-181.0608
 20
41.0021
 30
0.0
 10
-181.0608
 20
41.0021
 30
0.0
 10
-180.8477
 20
40.9217
 30
0.0
 10
-180.5415
 20
40.88220000000001
 30
0.0
 10
-180.1421
 20
40.88220000000001
 30
0.0
 10
-180.1421
 20
40.88220000000001
 30
0.0
 10
-180.1421
 20
40.88220000000001
 30
0.0
 10
-177.8646
 20
40.88220000000001
 30
0.0
 10
-177.8646
 20
40.88220000000001
 30
0.0
 10
-177.8646
 20
40.88220000000001
 30
0.0
 10
-177.8646
 20
40.88220000000001
 30
0.0
 10
-177.8646
 20
40.1385
 30
0.0
 10
-177.8646
 20
40.1385
 30
0.0
  0
SPLINE
  5
48
330
1F
100
AcDbEntity
  8
52
 62
   250
100
AcDbSpline
210
0.0
220
0.0
230
1.0
 70
    11
 71
     3
 72
   116
 73
   112
 74
     0
 42
0.0000000001
 43
0.0000000001
 40
0.0
 40
0.0
 40
0.0
 40
0.0
 40
0.0357142857142857
 40
0.0357142857142857
 40
0.0357142857142857
 40
0.0357142857142857
 40
0.0714285714285714
 40
0.0714285714285714
 40
0.0714285714285714
 40
0.0714285714285714
 40
0.1071428571428571
 40
0.1071428571428571
 40
0.1071428571428571
 40
0.1071428571428571
 40
0.1428571428571429
 40
0.1428571428571429
 40
0.1428571428571429
 40
0.1428571428571429
 40
0.1785714285714286
 40
0.1785714285714286
 40
0.1785714285714286
 40
0.1785714285714286
 40
0.2142857142857143
 40
0.2142857142857143
 40
0.2142857142857143
 40
0.2142857142857143
 40
0.2499999999999999
 40
0.2499999999999999
 40
0.2499999999999999
 40
0.2499999999999999
 40
0.2857142857142856
 40
0.2857142857142856
 40
0.2857142857142856
 40
0.2857142857142856
 40
0.3214285714285713
 40
0.3214285714285713
 40
0.3214285714285713
 40
0.3214285714285713
 40
0.357142857142857
 40
0.357142857142857
 40
0.357142857142857
 40
0.357142857142857
 40
0.3928571428571427
 40
0.3928571428571427
 40
0.3928571428571427
 40
0.3928571428571427
 40
0.4285714285714284
 40
0.4285714285714284
 40
0.4285714285714284
 40
0.4285714285714284
 40
0.4642857142857141
 40
0.4642857142857141
 40
0.4642857142857141
 40
0.4642857142857141
 40
0.4999999999999998
 40
0.4999999999999998
 40
0.4999999999999998
 40
0.4999999999999998
 40
0.5357142857142856
 40
0.5357142857142856
 40
0.5357142857142856
 40
0.5357142857142856
 40
0.5714285714285713
 40
0.5714285714285713
 40
0.5714285714285713
 40
0.5714285714285713
 40
0.607142857142857
 40
0.607142857142857
 40
0.607142857142857
 40
0.607142857142857
 40
0.6428571428571427
 40
0.6428571428571427
 40
0.6428571428571427
 40
0.6428571428571427
 40
0.6785714285714284
 40
0.6785714285714284
 40
0.6785714285714284
 40
0.6785714285714284
 40
0.7142857142857141
 40
0.7142857142857141
 40
0.7142857142857141
 40
0.7142857142857141
 40
0.7499999999999998
 40
0.7499999999999998
 40
0.7499999999999998
 40
0.7499999999999998
 40
0.7857142857142855
 40
0.7857142857142855
 40
0.7857142857142855
 40
0.7857142857142855
 40
0.8214285714285712
 40
0.8214285714285712
 40
0.8214285714285712
 40
0.8214285714285712
 40
0.8571428571428569
 40
0.8571428571428569
 40
0.8571428571428569
 40
0.8571428571428569
 40
0.8928571428571426
 40
0.8928571428571426
 40
0.8928571428571426
 40
0.8928571428571426
 40
0.9285714285714283
 40
0.9285714285714283
 40
0.9285714285714283
 40
0.9285714285714283
 40
0.964285714285714
 40
0.964285714285714
 40
0.964285714285714
 40
0.964285714285714
 40
1.0
 40
1.0
 40
1.0
 40
1.0
 10
-177.8646
 20
47.19130000000001
 30
0.0
 10
-177.8646
 20
47.19130000000001
 30
0.0
 10
-182.2546
 20
47.19130000000001
 30
0.0
 10
-182.2546
 20
47.19130000000001
 30
0.0
 10
-182.2546
 20
47.19130000000001
 30
0.0
 10
-182.2546
 20
47.19130000000001
 30
0.0
 10
-182.2546
 20
47.85590000000001
 30
0.0
 10
-182.2546
 20
47.85590000000001
 30
0.0
 10
-182.2546
 20
47.85590000000001
 30
0.0
 10
-182.2546
 20
47.85590000000001
 30
0.0
 10
-181.6393
 20
47.85590000000001
 30
0.0
 10
-181.6393
 20
47.85590000000001
 30
0.0
 10
-181.6393
 20
47.85590000000001
 30
0.0
 10
-181.8538
 20
47.9942
 30
0.0
 10
-182.0274
 20
48.1777
 30
0.0
 10
-182.1572
 20
48.4063
 30
0.0
 10
-182.1572
 20
48.4063
 30
0.0
 10
-182.2885
 20
48.6349
 30
0.0
 10
-182.3548
 20
48.89590000000001
 30
0.0
 10
-182.3548
 20
49.188
 30
0.0
 10
-182.3548
 20
49.188
 30
0.0
 10
-182.3548
 20
49.5126
 30
0.0
 10
-182.287
 20
49.7793
 30
0.0
 10
-182.1516
 20
49.9867
 30
0.0
 10
-182.1516
 20
49.9867
 30
0.0
 10
-182.0161
 20
50.1956
 30
0.0
 10
-181.8284
 20
50.3423
 30
0.0
 10
-181.5857
 20
50.427
 30
0.0
 10
-181.5857
 20
50.427
 30
0.0
 10
-182.098
 20
50.7755
 30
0.0
 10
-182.3548
 20
51.2271
 30
0.0
 10
-182.3548
 20
51.78310000000001
 30
0.0
 10
-182.3548
 20
51.78310000000001
 30
0.0
 10
-182.3548
 20
52.21910000000001
 30
0.0
 10
-182.2334
 20
52.5535
 30
0.0
 10
-181.9921
 20
52.7878
 30
0.0
 10
-181.9921
 20
52.7878
 30
0.0
 10
-181.7508
 20
53.02200000000001
 30
0.0
 10
-181.3797
 20
53.1392
 30
0.0
 10
-180.8787
 20
53.1392
 30
0.0
 10
-180.8787
 20
53.1392
 30
0.0
 10
-180.8787
 20
53.1392
 30
0.0
 10
-177.8646
 20
53.1392
 30
0.0
 10
-177.8646
 20
53.1392
 30
0.0
 10
-177.8646
 20
53.1392
 30
0.0
 10
-177.8646
 20
53.1392
 30
0.0
 10
-177.8646
 20
52.3997
 30
0.0
 10
-177.8646
 20
52.3997
 30
0.0
 10
-177.8646
 20
52.3997
 30
0.0
 10
-177.8646
 20
52.3997
 30
0.0
 10
-180.6304
 20
52.3997
 30
0.0
 10
-180.6304
 20
52.3997
 30
0.0
 10
-180.6304
 20
52.3997
 30
0.0
 10
-180.9281
 20
52.3997
 30
0.0
 10
-181.1426
 20
52.3757
 30
0.0
 10
-181.2739
 20
52.3278
 30
0.0
 10
-181.2739
 20
52.3278
 30
0.0
 10
-181.4037
 20
52.27840000000001
 30
0.0
 10
-181.5095
 20
52.1909
 30
0.0
 10
-181.5899
 20
52.0653
 30
0.0
 10
-181.5899
 20
52.0653
 30
0.0
 10
-181.669
 20
51.93830000000001
 30
0.0
 10
-181.7099
 20
51.78870000000001
 30
0.0
 10
-181.7099
 20
51.618
 30
0.0
 10
-181.7099
 20
51.618
 30
0.0
 10
-181.7099
 20
51.3089
 30
0.0
 10
-181.6069
 20
51.0535
 30
0.0
 10
-181.4009
 20
50.8489
 30
0.0
 10
-181.4009
 20
50.8489
 30
0.0
 10
-181.1962
 20
50.64570000000001
 30
0.0
 10
-180.8675
 20
50.5427
 30
0.0
 10
-180.4159
 20
50.5427
 30
0.0
 10
-180.4159
 20
50.5427
 30
0.0
 10
-180.4159
 20
50.5427
 30
0.0
 10
-177.8646
 20
50.5427
 30
0.0
 10
-177.8646
 20
50.5427
 30
0.0
 10
-177.8646
 20
50.5427
 30
0.0
 10
-177.8646
 20
50.5427
 30
0.0
 10
-177.8646
 20
49.799
 30
0.0
 10
-177.8646
 20
49.799
 30
0.0
 10
-177.8646
 20
49.799
 30
0.0
 10
-177.8646
 20
49.799
 30
0.0
 10
-180.7165
 20
49.799
 30
0.0
 10
-180.7165
 20
49.799
 30
0.0
 10
-180.7165
 20
49.799
 30
0.0
 10
-181.0481
 20
49.799
 30
0.0
 10
-181.2964
 20
49.73840000000001
 30
0.0
 10
-181.4615
 20
49.617
 30
0.0
 10
-181.4615
 20
49.617
 30
0.0
 10
-181.6266
 20
49.4957
 30
0.0
 10
-181.7099
 20
49.29810000000001
 30
0.0
 10
-181.7099
 20
49.0215
 30
0.0
 10
-181.7099
 20
49.0215
 30
0.0
 10
-181.7099
 20
48.8127
 30
0.0
 10
-181.6549
 20
48.6194
 30
0.0
 10
-181.5434
 20
48.4416
 30
0.0
 10
-181.5434
 20
48.4416
 30
0.0
 10
-181.4333
 20
48.2638
 30
0.0
 10
-181.2724
 20
48.1339
 30
0.0
 10
-181.0608
 20
48.0549
 30
0.0
 10
-181.0608
 20
48.0549
 30
0.0
 10
-180.8477
 20
47.9745
 30
0.0
 10
-180.5415
 20
47.935
 30
0.0
 10
-180.1421
 20
47.935
 30
0.0
 10
-180.1421
 20
47.935
 30
0.0
 10
-180.1421
 20
47.935
 30
0.0
 10
-177.8646
 20
47.935
 30
0.0
 10
-177.8646
 20
47.935
 30
0.0
 10
-177.8646
 20
47.935
 30
0.0
 10
-177.8646
 20
47.935
 30
0.0
 10
-177.8646
 20
47.19130000000001
 30
0.0
 10
-177.8646
 20
47.19130000000001
 30
0.0
  0
SPLINE
  5
49
330
1F
100
AcDbEntity
  8
52
 62
   250
370
     5
100
AcDbSpline
210
0.0
220
0.0
230
1.0
 70
    24
 71
     3
 72
     8
 73
     4
 74
     0
 42
0.0000000001
 43
0.0000000001
 40
0.0
 40
0.0
 40
0.0
 40
0.0
 40
1.0
 40
1.0
 40
1.0
 40
1.0
 10
158.9898
 20
89.24820000000001
 30
0.0
 10
158.9898
 20
89.24820000000001
 30
0.0
 10
186.1461
 20
89.24820000000001
 30
0.0
 10
186.1461
 20
89.24820000000001
 30
0.0
  0
SPLINE
  5
4A
330
1F
100
AcDbEntity
  8
52
 62
   250
370
     5
100
AcDbSpline
210
0.0
220
0.0
230
1.0
 70
    24
 71
     3
 72
     8
 73
     4
 74
     0
 42
0.0000000001
 43
0.0000000001
 40
0.0
 40
0.0
 40
0.0
 40
0.0
 40
1.0
 40
1.0
 40
1.0
 40
1.0
 10
158.99
 20
-28.8925
 30
0.0
 10
158.99
 20
-28.8925
 30
0.0
 10
186.1461
 20
-28.8925
 30
0.0
 10
186.1461
 20
-28.8925
 30
0.0
  0
SPLINE
  5
4B
330
1F
100
AcDbEntity
  8
52
 62
   250
370
     5
100
AcDbSpline
210
0.0
220
0.0
230
1.0
 70
    24
 71
     3
 72
     8
 73
     4
 74
     0
 42
0.0000000001
 43
0.0000000001
 40
0.0
 40
0.0
 40
0.0
 40
0.0
 40
1.0
 40
1.0
 40
1.0
 40
1.0
 10
181.0661
 20
89.24820000000001
 30
0.0
 10
181.0661
 20
89.24820000000001
 30
0.0
 10
181.0661
 20
61.7424
 30
0.0
 10
181.0661
 20
61.7424
 30
0.0
  0
SPLINE
  5
4C
330
1F
100
AcDbEntity
  8
52
 62
   250
370
     5
100
AcDbSpline
210
0.0
220
0.0
230
1.0
 70
    24
 71
     3
 72
     8
 73
     4
 74
     0
 42
0.0000000001
 43
0.0000000001
 40
0.0
 40
0.0
 40
0.0
 40
0.0
 40
1.0
 40
1.0
 40
1.0
 40
1.0
 10
181.0661
 20
7.861800000000001
 30
0.0
 10
181.0661
 20
7.861800000000001
 30
0.0
 10
181.0661
 20
-28.8925
 30
0.0
 10
181.0661
 20
-28.8925
 30
0.0
  0
SPLINE
  5
4D
330
1F
100
AcDbEntity
  8
52
 62
   250
100
AcDbSpline
210
0.0
220
0.0
230
1.0
 70
    11
 71
     3
 72
    40
 73
    36
 74
     0
 42
0.0000000001
 43
0.0000000001
 40
0.0
 40
0.0
 40
0.0
 40
0.0
 40
0.1111111111111111
 40
0.1111111111111111
 40
0.1111111111111111
 40
0.1111111111111111
 40
0.2222222222222222
 40
0.2222222222222222
 40
0.2222222222222222
 40
0.2222222222222222
 40
0.3333333333333333
 40
0.3333333333333333
 40
0.3333333333333333
 40
0.3333333333333333
 40
0.4444444444444444
 40
0.4444444444444444
 40
0.4444444444444444
 40
0.4444444444444444
 40
0.5555555555555556
 40
0.5555555555555556
 40
0.5555555555555556
 40
0.5555555555555556
 40
0.6666666666666667
 40
0.6666666666666667
 40
0.6666666666666667
 40
0.6666666666666667
 40
0.7777777777777779
 40
0.7777777777777779
 40
0.7777777777777779
 40
0.7777777777777779
 40
0.8888888888888891
 40
0.8888888888888891
 40
0.8888888888888891
 40
0.8888888888888891
 40
1.0
 40
1.0
 40
1.0
 40
1.0
 10
184.0577
 20
17.3656
 30
0.0
 10
184.0577
 20
17.3656
 30
0.0
 10
184.0577
 20
16.622
 30
0.0
 10
184.0577
 20
16.622
 30
0.0
 10
184.0577
 20
16.622
 30
0.0
 10
184.0577
 20
16.622
 30
0.0
 10
179.3163
 20
16.622
 30
0.0
 10
179.3163
 20
16.622
 30
0.0
 10
179.3163
 20
16.622
 30
0.0
 10
179.4871
 20
16.4428
 30
0.0
 10
179.6578
 20
16.2085
 30
0.0
 10
179.8286
 20
15.9178
 30
0.0
 10
179.8286
 20
15.9178
 30
0.0
 10
179.9993
 20
15.6257
 30
0.0
 10
180.1277
 20
15.3647
 30
0.0
 10
180.2124
 20
15.1333
 30
0.0
 10
180.2124
 20
15.1333
 30
0.0
 10
180.2124
 20
15.1333
 30
0.0
 10
179.4941
 20
15.1333
 30
0.0
 10
179.4941
 20
15.1333
 30
0.0
 10
179.4941
 20
15.1333
 30
0.0
 10
179.298
 20
15.5495
 30
0.0
 10
179.0609
 20
15.9136
 30
0.0
 10
178.7829
 20
16.2255
 30
0.0
 10
178.7829
 20
16.2255
 30
0.0
 10
178.5035
 20
16.5359
 30
0.0
 10
178.234
 20
16.7575
 30
0.0
 10
177.973
 20
16.8873
 30
0.0
 10
177.973
 20
16.8873
 30
0.0
 10
177.973
 20
16.8873
 30
0.0
 10
177.973
 20
17.3656
 30
0.0
 10
177.973
 20
17.3656
 30
0.0
 10
177.973
 20
17.3656
 30
0.0
 10
177.973
 20
17.3656
 30
0.0
 10
184.0577
 20
17.3656
 30
0.0
 10
184.0577
 20
17.3656
 30
0.0
  0
SPLINE
  5
4E
330
1F
100
AcDbEntity
  8
52
 62
   250
100
AcDbSpline
210
0.0
220
0.0
230
1.0
 70
    11
 71
     3
 72
    40
 73
    36
 74
     0
 42
0.0000000001
 43
0.0000000001
 40
0.0
 40
0.0
 40
0.0
 40
0.0
 40
0.1111111111111111
 40
0.1111111111111111
 40
0.1111111111111111
 40
0.1111111111111111
 40
0.2222222222222222
 40
0.2222222222222222
 40
0.2222222222222222
 40
0.2222222222222222
 40
0.3333333333333333
 40
0.3333333333333333
 40
0.3333333333333333
 40
0.3333333333333333
 40
0.4444444444444444
 40
0.4444444444444444
 40
0.4444444444444444
 40
0.4444444444444444
 40
0.5555555555555556
 40
0.5555555555555556
 40
0.5555555555555556
 40
0.5555555555555556
 40
0.6666666666666667
 40
0.6666666666666667
 40
0.6666666666666667
 40
0.6666666666666667
 40
0.7777777777777779
 40
0.7777777777777779
 40
0.7777777777777779
 40
0.7777777777777779
 40
0.8888888888888891
 40
0.8888888888888891
 40
0.8888888888888891
 40
0.8888888888888891
 40
1.0
 40
1.0
 40
1.0
 40
1.0
 10
184.0577
 20
21.4466
 30
0.0
 10
184.0577
 20
21.4466
 30
0.0
 10
184.0577
 20
20.703
 30
0.0
 10
184.0577
 20
20.703
 30
0.0
 10
184.0577
 20
20.703
 30
0.0
 10
184.0577
 20
20.703
 30
0.0
 10
179.3163
 20
20.703
 30
0.0
 10
179.3163
 20
20.703
 30
0.0
 10
179.3163
 20
20.703
 30
0.0
 10
179.4871
 20
20.5238
 30
0.0
 10
179.6578
 20
20.2895
 30
0.0
 10
179.8286
 20
19.9988
 30
0.0
 10
179.8286
 20
19.9988
 30
0.0
 10
179.9993
 20
19.7067
 30
0.0
 10
180.1277
 20
19.4457
 30
0.0
 10
180.2124
 20
19.2143
 30
0.0
 10
180.2124
 20
19.2143
 30
0.0
 10
180.2124
 20
19.2143
 30
0.0
 10
179.4941
 20
19.2143
 30
0.0
 10
179.4941
 20
19.2143
 30
0.0
 10
179.4941
 20
19.2143
 30
0.0
 10
179.298
 20
19.6305
 30
0.0
 10
179.0609
 20
19.9946
 30
0.0
 10
178.7829
 20
20.3065
 30
0.0
 10
178.7829
 20
20.3065
 30
0.0
 10
178.5035
 20
20.6169
 30
0.0
 10
178.234
 20
20.8385
 30
0.0
 10
177.973
 20
20.9683
 30
0.0
 10
177.973
 20
20.9683
 30
0.0
 10
177.973
 20
20.9683
 30
0.0
 10
177.973
 20
21.4466
 30
0.0
 10
177.973
 20
21.4466
 30
0.0
 10
177.973
 20
21.4466
 30
0.0
 10
177.973
 20
21.4466
 30
0.0
 10
184.0577
 20
21.4466
 30
0.0
 10
184.0577
 20
21.4466
 30
0.0
  0
SPLINE
  5
4F
330
1F
100
AcDbEntity
  8
52
 62
   250
100
AcDbSpline
210
0.0
220
0.0
230
1.0
 70
    11
 71
     3
 72
    68
 73
    64
 74
     0
 42
0.0000000001
 43
0.0000000001
 40
0.0
 40
0.0
 40
0.0
 40
0.0
 40
0.0625
 40
0.0625
 40
0.0625
 40
0.0625
 40
0.125
 40
0.125
 40
0.125
 40
0.125
 40
0.1875
 40
0.1875
 40
0.1875
 40
0.1875
 40
0.25
 40
0.25
 40
0.25
 40
0.25
 40
0.3125
 40
0.3125
 40
0.3125
 40
0.3125
 40
0.375
 40
0.375
 40
0.375
 40
0.375
 40
0.4375
 40
0.4375
 40
0.4375
 40
0.4375
 40
0.5
 40
0.5
 40
0.5
 40
0.5
 40
0.5625
 40
0.5625
 40
0.5625
 40
0.5625
 40
0.625
 40
0.625
 40
0.625
 40
0.625
 40
0.6875
 40
0.6875
 40
0.6875
 40
0.6875
 40
0.75
 40
0.75
 40
0.75
 40
0.75
 40
0.8125
 40
0.8125
 40
0.8125
 40
0.8125
 40
0.875
 40
0.875
 40
0.875
 40
0.875
 40
0.9375
 40
0.9375
 40
0.9375
 40
0.9375
 40
1.0
 40
1.0
 40
1.0
 40
1.0
 10
180.7712
 20
24.4989
 30
0.0
 10
180.6583
 20
24.1899
 30
0.0
 10
180.4975
 20
23.9613
 30
0.0
 10
180.2872
 20
23.8117
 30
0.0
 10
180.2872
 20
23.8117
 30
0.0
 10
180.0784
 20
23.6635
 30
0.0
 10
179.8272
 20
23.5887
 30
0.0
 10
179.5351
 20
23.5887
 30
0.0
 10
179.5351
 20
23.5887
 30
0.0
 10
179.0934
 20
23.5887
 30
0.0
 10
178.7237
 20
23.7468
 30
0.0
 10
178.4231
 20
24.0643
 30
0.0
 10
178.4231
 20
24.0643
 30
0.0
 10
178.1225
 20
24.3818
 30
0.0
 10
177.973
 20
24.8023
 30
0.0
 10
177.973
 20
25.3286
 30
0.0
 10
177.973
 20
25.3286
 30
0.0
 10
177.973
 20
25.8578
 30
0.0
 10
178.1254
 20
26.284
 30
0.0
 10
178.433
 20
26.6071
 30
0.0
 10
178.433
 20
26.6071
 30
0.0
 10
178.7406
 20
26.9288
 30
0.0
 10
179.1146
 20
27.0897
 30
0.0
 10
179.5562
 20
27.0897
 30
0.0
 10
179.5562
 20
27.0897
 30
0.0
 10
179.8371
 20
27.0897
 30
0.0
 10
180.0812
 20
27.0163
 30
0.0
 10
180.29
 20
26.8696
 30
0.0
 10
180.29
 20
26.8696
 30
0.0
 10
180.4975
 20
26.7214
 30
0.0
 10
180.6583
 20
26.4984
 30
0.0
 10
180.7712
 20
26.1979
 30
0.0
 10
180.7712
 20
26.1979
 30
0.0
 10
180.8926
 20
26.569
 30
0.0
 10
181.0887
 20
26.8526
 30
0.0
 10
181.3582
 20
27.0474
 30
0.0
 10
181.3582
 20
27.0474
 30
0.0
 10
181.6278
 20
27.2407
 30
0.0
 10
181.9509
 20
27.3381
 30
0.0
 10
182.3248
 20
27.3381
 30
0.0
 10
182.3248
 20
27.3381
 30
0.0
 10
182.8441
 20
27.3381
 30
0.0
 10
183.2788
 20
27.1546
 30
0.0
 10
183.6315
 20
26.7891
 30
0.0
 10
183.6315
 20
26.7891
 30
0.0
 10
183.9843
 20
26.4222
 30
0.0
 10
184.1607
 20
25.9396
 30
0.0
 10
184.1607
 20
25.3413
 30
0.0
 10
184.1607
 20
25.3413
 30
0.0
 10
184.1607
 20
24.743
 30
0.0
 10
183.9843
 20
24.2618
 30
0.0
 10
183.6301
 20
23.8949
 30
0.0
 10
183.6301
 20
23.8949
 30
0.0
 10
183.2759
 20
23.528
 30
0.0
 10
182.8343
 20
23.3446
 30
0.0
 10
182.3051
 20
23.3446
 30
0.0
 10
182.3051
 20
23.3446
 30
0.0
 10
181.9114
 20
23.3446
 30
0.0
 10
181.5812
 20
23.4448
 30
0.0
 10
181.3145
 20
23.6452
 30
0.0
 10
181.3145
 20
23.6452
 30
0.0
 10
181.0492
 20
23.8441
 30
0.0
 10
180.8672
 20
24.1292
 30
0.0
 10
180.7712
 20
24.4989
 30
0.0
  0
SPLINE
  5
50
330
1F
100
AcDbEntity
  8
52
 62
   250
100
AcDbSpline
210
0.0
220
0.0
230
1.0
 70
    11
 71
     3
 72
    36
 73
    32
 74
     0
 42
0.0000000001
 43
0.0000000001
 40
0.0
 40
0.0
 40
0.0
 40
0.0
 40
0.125
 40
0.125
 40
0.125
 40
0.125
 40
0.25
 40
0.25
 40
0.25
 40
0.25
 40
0.375
 40
0.375
 40
0.375
 40
0.375
 40
0.5
 40
0.5
 40
0.5
 40
0.5
 40
0.625
 40
0.625
 40
0.625
 40
0.625
 40
0.75
 40
0.75
 40
0.75
 40
0.75
 40
0.875
 40
0.875
 40
0.875
 40
0.875
 40
1.0
 40
1.0
 40
1.0
 40
1.0
 10
179.5097
 20
24.3493
 30
0.0
 10
179.7961
 20
24.3493
 30
0.0
 10
180.0304
 20
24.4425
 30
0.0
 10
180.2124
 20
24.6259
 30
0.0
 10
180.2124
 20
24.6259
 30
0.0
 10
180.3944
 20
24.8108
 30
0.0
 10
180.4862
 20
25.0506
 30
0.0
 10
180.4862
 20
25.3456
 30
0.0
 10
180.4862
 20
25.3456
 30
0.0
 10
180.4862
 20
25.632
 30
0.0
 10
180.3959
 20
25.8677
 30
0.0
 10
180.2152
 20
26.0511
 30
0.0
 10
180.2152
 20
26.0511
 30
0.0
 10
180.0346
 20
26.2346
 30
0.0
 10
179.8131
 20
26.3249
 30
0.0
 10
179.552
 20
26.3249
 30
0.0
 10
179.552
 20
26.3249
 30
0.0
 10
179.2782
 20
26.3249
 30
0.0
 10
179.0496
 20
26.2317
 30
0.0
 10
178.8634
 20
26.0427
 30
0.0
 10
178.8634
 20
26.0427
 30
0.0
 10
178.6771
 20
25.8536
 30
0.0
 10
178.584
 20
25.6193
 30
0.0
 10
178.584
 20
25.3371
 30
0.0
 10
178.584
 20
25.3371
 30
0.0
 10
178.584
 20
25.0535
 30
0.0
 10
178.6757
 20
24.8178
 30
0.0
 10
178.8563
 20
24.6301
 30
0.0
 10
178.8563
 20
24.6301
 30
0.0
 10
179.0384
 20
24.4425
 30
0.0
 10
179.2571
 20
24.3493
 30
0.0
 10
179.5097
 20
24.3493
 30
0.0
  0
SPLINE
  5
51
330
1F
100
AcDbEntity
  8
52
 62
   250
100
AcDbSpline
210
0.0
220
0.0
230
1.0
 70
    11
 71
     3
 72
    40
 73
    36
 74
     0
 42
0.0000000001
 43
0.0000000001
 40
0.0
 40
0.0
 40
0.0
 40
0.0
 40
0.1111111111111111
 40
0.1111111111111111
 40
0.1111111111111111
 40
0.1111111111111111
 40
0.2222222222222222
 40
0.2222222222222222
 40
0.2222222222222222
 40
0.2222222222222222
 40
0.3333333333333333
 40
0.3333333333333333
 40
0.3333333333333333
 40
0.3333333333333333
 40
0.4444444444444444
 40
0.4444444444444444
 40
0.4444444444444444
 40
0.4444444444444444
 40
0.5555555555555556
 40
0.5555555555555556
 40
0.5555555555555556
 40
0.5555555555555556
 40
0.6666666666666667
 40
0.6666666666666667
 40
0.6666666666666667
 40
0.6666666666666667
 40
0.7777777777777779
 40
0.7777777777777779
 40
0.7777777777777779
 40
0.7777777777777779
 40
0.8888888888888891
 40
0.8888888888888891
 40
0.8888888888888891
 40
0.8888888888888891
 40
1.0
 40
1.0
 40
1.0
 40
1.0
 10
182.3093
 20
24.1094
 30
0.0
 10
182.521
 20
24.1094
 30
0.0
 10
182.727
 20
24.1602
 30
0.0
 10
182.9246
 20
24.2604
 30
0.0
 10
182.9246
 20
24.2604
 30
0.0
 10
183.1235
 20
24.3606
 30
0.0
 10
183.2774
 20
24.5102
 30
0.0
 10
183.386
 20
24.7092
 30
0.0
 10
183.386
 20
24.7092
 30
0.0
 10
183.4947
 20
24.9081
 30
0.0
 10
183.5497
 20
25.1212
 30
0.0
 10
183.5497
 20
25.3498
 30
0.0
 10
183.5497
 20
25.3498
 30
0.0
 10
183.5497
 20
25.7054
 30
0.0
 10
183.4354
 20
25.9989
 30
0.0
 10
183.2054
 20
26.2303
 30
0.0
 10
183.2054
 20
26.2303
 30
0.0
 10
182.9768
 20
26.4618
 30
0.0
 10
182.6861
 20
26.5775
 30
0.0
 10
182.3333
 20
26.5775
 30
0.0
 10
182.3333
 20
26.5775
 30
0.0
 10
181.9749
 20
26.5775
 30
0.0
 10
181.6786
 20
26.4589
 30
0.0
 10
181.4443
 20
26.2205
 30
0.0
 10
181.4443
 20
26.2205
 30
0.0
 10
181.2101
 20
25.982
 30
0.0
 10
181.0929
 20
25.6828
 30
0.0
 10
181.0929
 20
25.3244
 30
0.0
 10
181.0929
 20
25.3244
 30
0.0
 10
181.0929
 20
24.9744
 30
0.0
 10
181.2087
 20
24.6852
 30
0.0
 10
181.4415
 20
24.4552
 30
0.0
 10
181.4415
 20
24.4552
 30
0.0
 10
181.6729
 20
24.2251
 30
0.0
 10
181.9622
 20
24.1094
 30
0.0
 10
182.3093
 20
24.1094
 30
0.0
  0
SPLINE
  5
52
330
1F
100
AcDbEntity
  8
52
 62
   250
100
AcDbSpline
210
0.0
220
0.0
230
1.0
 70
    11
 71
     3
 72
    20
 73
    16
 74
     0
 42
0.0000000001
 43
0.0000000001
 40
0.0
 40
0.0
 40
0.0
 40
0.0
 40
0.25
 40
0.25
 40
0.25
 40
0.25
 40
0.5
 40
0.5
 40
0.5
 40
0.5
 40
0.75
 40
0.75
 40
0.75
 40
0.75
 40
1.0
 40
1.0
 40
1.0
 40
1.0
 10
184.0577
 20
28.4797
 30
0.0
 10
184.0577
 20
28.4797
 30
0.0
 10
183.2096
 20
28.4797
 30
0.0
 10
183.2096
 20
28.4797
 30
0.0
 10
183.2096
 20
28.4797
 30
0.0
 10
183.2096
 20
28.4797
 30
0.0
 10
183.2096
 20
29.3277
 30
0.0
 10
183.2096
 20
29.3277
 30
0.0
 10
183.2096
 20
29.3277
 30
0.0
 10
183.2096
 20
29.3277
 30
0.0
 10
184.0577
 20
29.3277
 30
0.0
 10
184.0577
 20
29.3277
 30
0.0
 10
184.0577
 20
29.3277
 30
0.0
 10
184.0577
 20
29.3277
 30
0.0
 10
184.0577
 20
28.4797
 30
0.0
 10
184.0577
 20
28.4797
 30
0.0
  0
SPLINE
  5
53
330
1F
100
AcDbEntity
  8
52
 62
   250
100
AcDbSpline
210
0.0
220
0.0
230
1.0
 70
    11
 71
     3
 72
    40
 73
    36
 74
     0
 42
0.0000000001
 43
0.0000000001
 40
0.0
 40
0.0
 40
0.0
 40
0.0
 40
0.1111111111111111
 40
0.1111111111111111
 40
0.1111111111111111
 40
0.1111111111111111
 40
0.2222222222222222
 40
0.2222222222222222
 40
0.2222222222222222
 40
0.2222222222222222
 40
0.3333333333333333
 40
0.3333333333333333
 40
0.3333333333333333
 40
0.3333333333333333
 40
0.4444444444444444
 40
0.4444444444444444
 40
0.4444444444444444
 40
0.4444444444444444
 40
0.5555555555555556
 40
0.5555555555555556
 40
0.5555555555555556
 40
0.5555555555555556
 40
0.6666666666666667
 40
0.6666666666666667
 40
0.6666666666666667
 40
0.6666666666666667
 40
0.7777777777777779
 40
0.7777777777777779
 40
0.7777777777777779
 40
0.7777777777777779
 40
0.8888888888888891
 40
0.8888888888888891
 40
0.8888888888888891
 40
0.8888888888888891
 40
1.0
 40
1.0
 40
1.0
 40
1.0
 10
184.0577
 20
33.2167
 30
0.0
 10
184.0577
 20
33.2167
 30
0.0
 10
184.0577
 20
32.4731
 30
0.0
 10
184.0577
 20
32.4731
 30
0.0
 10
184.0577
 20
32.4731
 30
0.0
 10
184.0577
 20
32.4731
 30
0.0
 10
179.3163
 20
32.4731
 30
0.0
 10
179.3163
 20
32.4731
 30
0.0
 10
179.3163
 20
32.4731
 30
0.0
 10
179.4871
 20
32.2939
 30
0.0
 10
179.6578
 20
32.0596
 30
0.0
 10
179.8286
 20
31.7689
 30
0.0
 10
179.8286
 20
31.7689
 30
0.0
 10
179.9993
 20
31.4768
 30
0.0
 10
180.1277
 20
31.2158
 30
0.0
 10
180.2124
 20
30.9844
 30
0.0
 10
180.2124
 20
30.9844
 30
0.0
 10
180.2124
 20
30.9844
 30
0.0
 10
179.4941
 20
30.9844
 30
0.0
 10
179.4941
 20
30.9844
 30
0.0
 10
179.4941
 20
30.9844
 30
0.0
 10
179.298
 20
31.4006
 30
0.0
 10
179.0609
 20
31.7647
 30
0.0
 10
178.7829
 20
32.0766
 30
0.0
 10
178.7829
 20
32.0766
 30
0.0
 10
178.5035
 20
32.387
 30
0.0
 10
178.234
 20
32.6086
 30
0.0
 10
177.973
 20
32.7384
 30
0.0
 10
177.973
 20
32.7384
 30
0.0
 10
177.973
 20
32.7384
 30
0.0
 10
177.973
 20
33.2167
 30
0.0
 10
177.973
 20
33.2167
 30
0.0
 10
177.973
 20
33.2167
 30
0.0
 10
177.973
 20
33.2167
 30
0.0
 10
184.0577
 20
33.2167
 30
0.0
 10
184.0577
 20
33.2167
 30
0.0
  0
SPLINE
  5
54
330
1F
100
AcDbEntity
  8
52
 62
   250
100
AcDbSpline
210
0.0
220
0.0
230
1.0
 70
    11
 71
     3
 72
    48
 73
    44
 74
     0
 42
0.0000000001
 43
0.0000000001
 40
0.0
 40
0.0
 40
0.0
 40
0.0
 40
0.0909090909090909
 40
0.0909090909090909
 40
0.0909090909090909
 40
0.0909090909090909
 40
0.1818181818181818
 40
0.1818181818181818
 40
0.1818181818181818
 40
0.1818181818181818
 40
0.2727272727272727
 40
0.2727272727272727
 40
0.2727272727272727
 40
0.2727272727272727
 40
0.3636363636363637
 40
0.3636363636363637
 40
0.3636363636363637
 40
0.3636363636363637
 40
0.4545454545454546
 40
0.4545454545454546
 40
0.4545454545454546
 40
0.4545454545454546
 40
0.5454545454545455
 40
0.5454545454545455
 40
0.5454545454545455
 40
0.5454545454545455
 40
0.6363636363636365
 40
0.6363636363636365
 40
0.6363636363636365
 40
0.6363636363636365
 40
0.7272727272727274
 40
0.7272727272727274
 40
0.7272727272727274
 40
0.7272727272727274
 40
0.8181818181818183
 40
0.8181818181818183
 40
0.8181818181818183
 40
0.8181818181818183
 40
0.9090909090909093
 40
0.9090909090909093
 40
0.9090909090909093
 40
0.9090909090909093
 40
1.0
 40
1.0
 40
1.0
 40
1.0
 10
184.0577
 20
37.508
 30
0.0
 10
184.0577
 20
37.508
 30
0.0
 10
182.6071
 20
37.508
 30
0.0
 10
182.6071
 20
37.508
 30
0.0
 10
182.6071
 20
37.508
 30
0.0
 10
182.6071
 20
37.508
 30
0.0
 10
182.6071
 20
34.87900000000001
 30
0.0
 10
182.6071
 20
34.87900000000001
 30
0.0
 10
182.6071
 20
34.87900000000001
 30
0.0
 10
182.6071
 20
34.87900000000001
 30
0.0
 10
181.9241
 20
34.87900000000001
 30
0.0
 10
181.9241
 20
34.87900000000001
 30
0.0
 10
181.9241
 20
34.87900000000001
 30
0.0
 10
181.9241
 20
34.87900000000001
 30
0.0
 10
177.997
 20
37.6448
 30
0.0
 10
177.997
 20
37.6448
 30
0.0
 10
177.997
 20
37.6448
 30
0.0
 10
177.997
 20
37.6448
 30
0.0
 10
177.997
 20
38.253
 30
0.0
 10
177.997
 20
38.253
 30
0.0
 10
177.997
 20
38.253
 30
0.0
 10
177.997
 20
38.253
 30
0.0
 10
181.9241
 20
38.253
 30
0.0
 10
181.9241
 20
38.253
 30
0.0
 10
181.9241
 20
38.253
 30
0.0
 10
181.9241
 20
38.253
 30
0.0
 10
181.9241
 20
39.0715
 30
0.0
 10
181.9241
 20
39.0715
 30
0.0
 10
181.9241
 20
39.0715
 30
0.0
 10
181.9241
 20
39.0715
 30
0.0
 10
182.6071
 20
39.0715
 30
0.0
 10
182.6071
 20
39.0715
 30
0.0
 10
182.6071
 20
39.0715
 30
0.0
 10
182.6071
 20
39.0715
 30
0.0
 10
182.6071
 20
38.253
 30
0.0
 10
182.6071
 20
38.253
 30
0.0
 10
182.6071
 20
38.253
 30
0.0
 10
182.6071
 20
38.253
 30
0.0
 10
184.0577
 20
38.253
 30
0.0
 10
184.0577
 20
38.253
 30
0.0
 10
184.0577
 20
38.253
 30
0.0
 10
184.0577
 20
38.253
 30
0.0
 10
184.0577
 20
37.508
 30
0.0
 10
184.0577
 20
37.508
 30
0.0
  0
SPLINE
  5
55
330
1F
100
AcDbEntity
  8
52
 62
   250
100
AcDbSpline
210
0.0
220
0.0
230
1.0
 70
    11
 71
     3
 72
    16
 73
    12
 74
     0
 42
0.0000000001
 43
0.0000000001
 40
0.0
 40
0.0
 40
0.0
 40
0.0
 40
0.3333333333333333
 40
0.3333333333333333
 40
0.3333333333333333
 40
0.3333333333333333
 40
0.6666666666666666
 40
0.6666666666666666
 40
0.6666666666666666
 40
0.6666666666666666
 40
1.0
 40
1.0
 40
1.0
 40
1.0
 10
181.9241
 20
37.508
 30
0.0
 10
181.9241
 20
37.508
 30
0.0
 10
179.1922
 20
37.508
 30
0.0
 10
179.1922
 20
37.508
 30
0.0
 10
179.1922
 20
37.508
 30
0.0
 10
179.1922
 20
37.508
 30
0.0
 10
181.9241
 20
35.6114
 30
0.0
 10
181.9241
 20
35.6114
 30
0.0
 10
181.9241
 20
35.6114
 30
0.0
 10
181.9241
 20
35.6114
 30
0.0
 10
181.9241
 20
37.508
 30
0.0
 10
181.9241
 20
37.508
 30
0.0
  0
SPLINE
  5
56
330
1F
100
AcDbEntity
  8
52
 62
   250
100
AcDbSpline
210
0.0
220
0.0
230
1.0
 70
    11
 71
     3
 72
   116
 73
   112
 74
     0
 42
0.0000000001
 43
0.0000000001
 40
0.0
 40
0.0
 40
0.0
 40
0.0
 40
0.0357142857142857
 40
0.0357142857142857
 40
0.0357142857142857
 40
0.0357142857142857
 40
0.0714285714285714
 40
0.0714285714285714
 40
0.0714285714285714
 40
0.0714285714285714
 40
0.1071428571428571
 40
0.1071428571428571
 40
0.1071428571428571
 40
0.1071428571428571
 40
0.1428571428571429
 40
0.1428571428571429
 40
0.1428571428571429
 40
0.1428571428571429
 40
0.1785714285714286
 40
0.1785714285714286
 40
0.1785714285714286
 40
0.1785714285714286
 40
0.2142857142857143
 40
0.2142857142857143
 40
0.2142857142857143
 40
0.2142857142857143
 40
0.2499999999999999
 40
0.2499999999999999
 40
0.2499999999999999
 40
0.2499999999999999
 40
0.2857142857142856
 40
0.2857142857142856
 40
0.2857142857142856
 40
0.2857142857142856
 40
0.3214285714285713
 40
0.3214285714285713
 40
0.3214285714285713
 40
0.3214285714285713
 40
0.357142857142857
 40
0.357142857142857
 40
0.357142857142857
 40
0.357142857142857
 40
0.3928571428571427
 40
0.3928571428571427
 40
0.3928571428571427
 40
0.3928571428571427
 40
0.4285714285714284
 40
0.4285714285714284
 40
0.4285714285714284
 40
0.4285714285714284
 40
0.4642857142857141
 40
0.4642857142857141
 40
0.4642857142857141
 40
0.4642857142857141
 40
0.4999999999999998
 40
0.4999999999999998
 40
0.4999999999999998
 40
0.4999999999999998
 40
0.5357142857142856
 40
0.5357142857142856
 40
0.5357142857142856
 40
0.5357142857142856
 40
0.5714285714285713
 40
0.5714285714285713
 40
0.5714285714285713
 40
0.5714285714285713
 40
0.607142857142857
 40
0.607142857142857
 40
0.607142857142857
 40
0.607142857142857
 40
0.6428571428571427
 40
0.6428571428571427
 40
0.6428571428571427
 40
0.6428571428571427
 40
0.6785714285714284
 40
0.6785714285714284
 40
0.6785714285714284
 40
0.6785714285714284
 40
0.7142857142857141
 40
0.7142857142857141
 40
0.7142857142857141
 40
0.7142857142857141
 40
0.7499999999999998
 40
0.7499999999999998
 40
0.7499999999999998
 40
0.7499999999999998
 40
0.7857142857142855
 40
0.7857142857142855
 40
0.7857142857142855
 40
0.7857142857142855
 40
0.8214285714285712
 40
0.8214285714285712
 40
0.8214285714285712
 40
0.8214285714285712
 40
0.8571428571428569
 40
0.8571428571428569
 40
0.8571428571428569
 40
0.8571428571428569
 40
0.8928571428571426
 40
0.8928571428571426
 40
0.8928571428571426
 40
0.8928571428571426
 40
0.9285714285714283
 40
0.9285714285714283
 40
0.9285714285714283
 40
0.9285714285714283
 40
0.964285714285714
 40
0.964285714285714
 40
0.964285714285714
 40
0.964285714285714
 40
1.0
 40
1.0
 40
1.0
 40
1.0
 10
184.0577
 20
42.3918
 30
0.0
 10
184.0577
 20
42.3918
 30
0.0
 10
179.6677
 20
42.3918
 30
0.0
 10
179.6677
 20
42.3918
 30
0.0
 10
179.6677
 20
42.3918
 30
0.0
 10
179.6677
 20
42.3918
 30
0.0
 10
179.6677
 20
43.0564
 30
0.0
 10
179.6677
 20
43.0564
 30
0.0
 10
179.6677
 20
43.0564
 30
0.0
 10
179.6677
 20
43.0564
 30
0.0
 10
180.283
 20
43.0564
 30
0.0
 10
180.283
 20
43.0564
 30
0.0
 10
180.283
 20
43.0564
 30
0.0
 10
180.0685
 20
43.19470000000001
 30
0.0
 10
179.8949
 20
43.3782
 30
0.0
 10
179.7651
 20
43.6068
 30
0.0
 10
179.7651
 20
43.6068
 30
0.0
 10
179.6338
 20
43.8354
 30
0.0
 10
179.5675
 20
44.0964
 30
0.0
 10
179.5675
 20
44.3885
 30
0.0
 10
179.5675
 20
44.3885
 30
0.0
 10
179.5675
 20
44.7131
 30
0.0
 10
179.6353
 20
44.9798
 30
0.0
 10
179.7707
 20
45.1872
 30
0.0
 10
179.7707
 20
45.1872
 30
0.0
 10
179.9062
 20
45.3961
 30
0.0
 10
180.0939
 20
45.5428
 30
0.0
 10
180.3366
 20
45.62750000000001
 30
0.0
 10
180.3366
 20
45.62750000000001
 30
0.0
 10
179.8243
 20
45.976
 30
0.0
 10
179.5675
 20
46.42760000000001
 30
0.0
 10
179.5675
 20
46.9836
 30
0.0
 10
179.5675
 20
46.9836
 30
0.0
 10
179.5675
 20
47.4196
 30
0.0
 10
179.6889
 20
47.75400000000001
 30
0.0
 10
179.9302
 20
47.9883
 30
0.0
 10
179.9302
 20
47.9883
 30
0.0
 10
180.1715
 20
48.2225
 30
0.0
 10
180.5426
 20
48.3397
 30
0.0
 10
181.0436
 20
48.3397
 30
0.0
 10
181.0436
 20
48.3397
 30
0.0
 10
181.0436
 20
48.3397
 30
0.0
 10
184.0577
 20
48.3397
 30
0.0
 10
184.0577
 20
48.3397
 30
0.0
 10
184.0577
 20
48.3397
 30
0.0
 10
184.0577
 20
48.3397
 30
0.0
 10
184.0577
 20
47.6002
 30
0.0
 10
184.0577
 20
47.6002
 30
0.0
 10
184.0577
 20
47.6002
 30
0.0
 10
184.0577
 20
47.6002
 30
0.0
 10
181.2919
 20
47.6002
 30
0.0
 10
181.2919
 20
47.6002
 30
0.0
 10
181.2919
 20
47.6002
 30
0.0
 10
180.9942
 20
47.6002
 30
0.0
 10
180.7797
 20
47.5762
 30
0.0
 10
180.6484
 20
47.5283
 30
0.0
 10
180.6484
 20
47.5283
 30
0.0
 10
180.5186
 20
47.4789
 30
0.0
 10
180.4128
 20
47.3914
 30
0.0
 10
180.3324
 20
47.26580000000001
 30
0.0
 10
180.3324
 20
47.26580000000001
 30
0.0
 10
180.2533
 20
47.1388
 30
0.0
 10
180.2124
 20
46.9892
 30
0.0
 10
180.2124
 20
46.8185
 30
0.0
 10
180.2124
 20
46.8185
 30
0.0
 10
180.2124
 20
46.5094
 30
0.0
 10
180.3154
 20
46.25400000000001
 30
0.0
 10
180.5214
 20
46.04940000000001
 30
0.0
 10
180.5214
 20
46.04940000000001
 30
0.0
 10
180.7261
 20
45.8462
 30
0.0
 10
181.0548
 20
45.7432
 30
0.0
 10
181.5064
 20
45.7432
 30
0.0
 10
181.5064
 20
45.7432
 30
0.0
 10
181.5064
 20
45.7432
 30
0.0
 10
184.0577
 20
45.7432
 30
0.0
 10
184.0577
 20
45.7432
 30
0.0
 10
184.0577
 20
45.7432
 30
0.0
 10
184.0577
 20
45.7432
 30
0.0
 10
184.0577
 20
44.99950000000001
 30
0.0
 10
184.0577
 20
44.99950000000001
 30
0.0
 10
184.0577
 20
44.99950000000001
 30
0.0
 10
184.0577
 20
44.99950000000001
 30
0.0
 10
181.2058
 20
44.99950000000001
 30
0.0
 10
181.2058
 20
44.99950000000001
 30
0.0
 10
181.2058
 20
44.99950000000001
 30
0.0
 10
180.8742
 20
44.99950000000001
 30
0.0
 10
180.6259
 20
44.9389
 30
0.0
 10
180.4608
 20
44.8175
 30
0.0
 10
180.4608
 20
44.8175
 30
0.0
 10
180.2957
 20
44.69620000000001
 30
0.0
 10
180.2124
 20
44.4986
 30
0.0
 10
180.2124
 20
44.222
 30
0.0
 10
180.2124
 20
44.222
 30
0.0
 10
180.2124
 20
44.01320000000001
 30
0.0
 10
180.2674
 20
43.8199
 30
0.0
 10
180.3789
 20
43.6421
 30
0.0
 10
180.3789
 20
43.6421
 30
0.0
 10
180.489
 20
43.4643
 30
0.0
 10
180.6499
 20
43.3344
 30
0.0
 10
180.8615
 20
43.2554
 30
0.0
 10
180.8615
 20
43.2554
 30
0.0
 10
181.0746
 20
43.175
 30
0.0
 10
181.3808
 20
43.1355
 30
0.0
 10
181.7802
 20
43.1355
 30
0.0
 10
181.7802
 20
43.1355
 30
0.0
 10
181.7802
 20
43.1355
 30
0.0
 10
184.0577
 20
43.1355
 30
0.0
 10
184.0577
 20
43.1355
 30
0.0
 10
184.0577
 20
43.1355
 30
0.0
 10
184.0577
 20
43.1355
 30
0.0
 10
184.0577
 20
42.3918
 30
0.0
 10
184.0577
 20
42.3918
 30
0.0
  0
SPLINE
  5
57
330
1F
100
AcDbEntity
  8
52
 62
   250
100
AcDbSpline
210
0.0
220
0.0
230
1.0
 70
    11
 71
     3
 72
   116
 73
   112
 74
     0
 42
0.0000000001
 43
0.0000000001
 40
0.0
 40
0.0
 40
0.0
 40
0.0
 40
0.0357142857142857
 40
0.0357142857142857
 40
0.0357142857142857
 40
0.0357142857142857
 40
0.0714285714285714
 40
0.0714285714285714
 40
0.0714285714285714
 40
0.0714285714285714
 40
0.1071428571428571
 40
0.1071428571428571
 40
0.1071428571428571
 40
0.1071428571428571
 40
0.1428571428571429
 40
0.1428571428571429
 40
0.1428571428571429
 40
0.1428571428571429
 40
0.1785714285714286
 40
0.1785714285714286
 40
0.1785714285714286
 40
0.1785714285714286
 40
0.2142857142857143
 40
0.2142857142857143
 40
0.2142857142857143
 40
0.2142857142857143
 40
0.2499999999999999
 40
0.2499999999999999
 40
0.2499999999999999
 40
0.2499999999999999
 40
0.2857142857142856
 40
0.2857142857142856
 40
0.2857142857142856
 40
0.2857142857142856
 40
0.3214285714285713
 40
0.3214285714285713
 40
0.3214285714285713
 40
0.3214285714285713
 40
0.357142857142857
 40
0.357142857142857
 40
0.357142857142857
 40
0.357142857142857
 40
0.3928571428571427
 40
0.3928571428571427
 40
0.3928571428571427
 40
0.3928571428571427
 40
0.4285714285714284
 40
0.4285714285714284
 40
0.4285714285714284
 40
0.4285714285714284
 40
0.4642857142857141
 40
0.4642857142857141
 40
0.4642857142857141
 40
0.4642857142857141
 40
0.4999999999999998
 40
0.4999999999999998
 40
0.4999999999999998
 40
0.4999999999999998
 40
0.5357142857142856
 40
0.5357142857142856
 40
0.5357142857142856
 40
0.5357142857142856
 40
0.5714285714285713
 40
0.5714285714285713
 40
0.5714285714285713
 40
0.5714285714285713
 40
0.607142857142857
 40
0.607142857142857
 40
0.607142857142857
 40
0.607142857142857
 40
0.6428571428571427
 40
0.6428571428571427
 40
0.6428571428571427
 40
0.6428571428571427
 40
0.6785714285714284
 40
0.6785714285714284
 40
0.6785714285714284
 40
0.6785714285714284
 40
0.7142857142857141
 40
0.7142857142857141
 40
0.7142857142857141
 40
0.7142857142857141
 40
0.7499999999999998
 40
0.7499999999999998
 40
0.7499999999999998
 40
0.7499999999999998
 40
0.7857142857142855
 40
0.7857142857142855
 40
0.7857142857142855
 40
0.7857142857142855
 40
0.8214285714285712
 40
0.8214285714285712
 40
0.8214285714285712
 40
0.8214285714285712
 40
0.8571428571428569
 40
0.8571428571428569
 40
0.8571428571428569
 40
0.8571428571428569
 40
0.8928571428571426
 40
0.8928571428571426
 40
0.8928571428571426
 40
0.8928571428571426
 40
0.9285714285714283
 40
0.9285714285714283
 40
0.9285714285714283
 40
0.9285714285714283
 40
0.964285714285714
 40
0.964285714285714
 40
0.964285714285714
 40
0.964285714285714
 40
1.0
 40
1.0
 40
1.0
 40
1.0
 10
184.0577
 20
49.4446
 30
0.0
 10
184.0577
 20
49.4446
 30
0.0
 10
179.6677
 20
49.4446
 30
0.0
 10
179.6677
 20
49.4446
 30
0.0
 10
179.6677
 20
49.4446
 30
0.0
 10
179.6677
 20
49.4446
 30
0.0
 10
179.6677
 20
50.1092
 30
0.0
 10
179.6677
 20
50.1092
 30
0.0
 10
179.6677
 20
50.1092
 30
0.0
 10
179.6677
 20
50.1092
 30
0.0
 10
180.283
 20
50.1092
 30
0.0
 10
180.283
 20
50.1092
 30
0.0
 10
180.283
 20
50.1092
 30
0.0
 10
180.0685
 20
50.2475
 30
0.0
 10
179.8949
 20
50.431
 30
0.0
 10
179.7651
 20
50.65960000000001
 30
0.0
 10
179.7651
 20
50.65960000000001
 30
0.0
 10
179.6338
 20
50.88820000000001
 30
0.0
 10
179.5675
 20
51.1492
 30
0.0
 10
179.5675
 20
51.44130000000001
 30
0.0
 10
179.5675
 20
51.44130000000001
 30
0.0
 10
179.5675
 20
51.7659
 30
0.0
 10
179.6353
 20
52.0326
 30
0.0
 10
179.7707
 20
52.24
 30
0.0
 10
179.7707
 20
52.24
 30
0.0
 10
179.9062
 20
52.4489
 30
0.0
 10
180.0939
 20
52.59560000000001
 30
0.0
 10
180.3366
 20
52.6803
 30
0.0
 10
180.3366
 20
52.6803
 30
0.0
 10
179.8243
 20
53.0288
 30
0.0
 10
179.5675
 20
53.4804
 30
0.0
 10
179.5675
 20
54.0364
 30
0.0
 10
179.5675
 20
54.0364
 30
0.0
 10
179.5675
 20
54.4724
 30
0.0
 10
179.6889
 20
54.8068
 30
0.0
 10
179.9302
 20
55.0411
 30
0.0
 10
179.9302
 20
55.0411
 30
0.0
 10
180.1715
 20
55.2753
 30
0.0
 10
180.5426
 20
55.39250000000001
 30
0.0
 10
181.0436
 20
55.39250000000001
 30
0.0
 10
181.0436
 20
55.39250000000001
 30
0.0
 10
181.0436
 20
55.39250000000001
 30
0.0
 10
184.0577
 20
55.39250000000001
 30
0.0
 10
184.0577
 20
55.39250000000001
 30
0.0
 10
184.0577
 20
55.39250000000001
 30
0.0
 10
184.0577
 20
55.39250000000001
 30
0.0
 10
184.0577
 20
54.65300000000001
 30
0.0
 10
184.0577
 20
54.65300000000001
 30
0.0
 10
184.0577
 20
54.65300000000001
 30
0.0
 10
184.0577
 20
54.65300000000001
 30
0.0
 10
181.2919
 20
54.65300000000001
 30
0.0
 10
181.2919
 20
54.65300000000001
 30
0.0
 10
181.2919
 20
54.65300000000001
 30
0.0
 10
180.9942
 20
54.65300000000001
 30
0.0
 10
180.7797
 20
54.62900000000001
 30
0.0
 10
180.6484
 20
54.5811
 30
0.0
 10
180.6484
 20
54.5811
 30
0.0
 10
180.5186
 20
54.5317
 30
0.0
 10
180.4128
 20
54.4442
 30
0.0
 10
180.3324
 20
54.3186
 30
0.0
 10
180.3324
 20
54.3186
 30
0.0
 10
180.2533
 20
54.1916
 30
0.0
 10
180.2124
 20
54.042
 30
0.0
 10
180.2124
 20
53.87130000000001
 30
0.0
 10
180.2124
 20
53.87130000000001
 30
0.0
 10
180.2124
 20
53.5622
 30
0.0
 10
180.3154
 20
53.3068
 30
0.0
 10
180.5214
 20
53.1022
 30
0.0
 10
180.5214
 20
53.1022
 30
0.0
 10
180.7261
 20
52.899
 30
0.0
 10
181.0548
 20
52.796
 30
0.0
 10
181.5064
 20
52.796
 30
0.0
 10
181.5064
 20
52.796
 30
0.0
 10
181.5064
 20
52.796
 30
0.0
 10
184.0577
 20
52.796
 30
0.0
 10
184.0577
 20
52.796
 30
0.0
 10
184.0577
 20
52.796
 30
0.0
 10
184.0577
 20
52.796
 30
0.0
 10
184.0577
 20
52.0523
 30
0.0
 10
184.0577
 20
52.0523
 30
0.0
 10
184.0577
 20
52.0523
 30
0.0
 10
184.0577
 20
52.0523
 30
0.0
 10
181.2058
 20
52.0523
 30
0.0
 10
181.2058
 20
52.0523
 30
0.0
 10
181.2058
 20
52.0523
 30
0.0
 10
180.8742
 20
52.0523
 30
0.0
 10
180.6259
 20
51.9917
 30
0.0
 10
180.4608
 20
51.8703
 30
0.0
 10
180.4608
 20
51.8703
 30
0.0
 10
180.2957
 20
51.749
 30
0.0
 10
180.2124
 20
51.5514
 30
0.0
 10
180.2124
 20
51.2748
 30
0.0
 10
180.2124
 20
51.2748
 30
0.0
 10
180.2124
 20
51.066
 30
0.0
 10
180.2674
 20
50.8727
 30
0.0
 10
180.3789
 20
50.6949
 30
0.0
 10
180.3789
 20
50.6949
 30
0.0
 10
180.489
 20
50.5171
 30
0.0
 10
180.6499
 20
50.3872
 30
0.0
 10
180.8615
 20
50.3082
 30
0.0
 10
180.8615
 20
50.3082
 30
0.0
 10
181.0746
 20
50.2278
 30
0.0
 10
181.3808
 20
50.18830000000001
 30
0.0
 10
181.7802
 20
50.18830000000001
 30
0.0
 10
181.7802
 20
50.18830000000001
 30
0.0
 10
181.7802
 20
50.18830000000001
 30
0.0
 10
184.0577
 20
50.18830000000001
 30
0.0
 10
184.0577
 20
50.18830000000001
 30
0.0
 10
184.0577
 20
50.18830000000001
 30
0.0
 10
184.0577
 20
50.18830000000001
 30
0.0
 10
184.0577
 20
49.4446
 30
0.0
 10
184.0577
 20
49.4446
 30
0.0
  0
SPLINE
  5
58
330
1F
100
AcDbEntity
  8
52
 62
   250
370
     5
100
AcDbSpline
210
0.0
220
0.0
230
1.0
 70
    24
 71
     3
 72
     8
 73
     4
 74
     0
 42
0.0000000001
 43
0.0000000001
 40
0.0
 40
0.0
 40
0.0
 40
0.0
 40
1.0
 40
1.0
 40
1.0
 40
1.0
 10
-151.3333
 20
29.0882
 30
0.0
 10
-151.3333
 20
29.0882
 30
0.0
 10
-151.3333
 20
143.1318
 30
0.0
 10
-151.3333
 20
143.1318
 30
0.0
  0
SPLINE
  5
59
330
1F
100
AcDbEntity
  8
52
 62
   250
370
     5
100
AcDbSpline
210
0.0
220
0.0
230
1.0
 70
    24
 71
     3
 72
     8
 73
     4
 74
     0
 42
0.0000000001
 43
0.0000000001
 40
0.0
 40
0.0
 40
0.0
 40
0.0
 40
1.0
 40
1.0
 40
1.0
 40
1.0
 10
161.6666
 20
44.8004
 30
0.0
 10
161.6666
 20
44.8004
 30
0.0
 10
161.6666
 20
143.1318
 30
0.0
 10
161.6666
 20
143.1318
 30
0.0
  0
SPLINE
  5
5A
330
1F
100
AcDbEntity
  8
52
 62
   250
370
     5
100
AcDbSpline
210
0.0
220
0.0
230
1.0
 70
    24
 71
     3
 72
     8
 73
     4
 74
     0
 42
0.0000000001
 43
0.0000000001
 40
0.0
 40
0.0
 40
0.0
 40
0.0
 40
1.0
 40
1.0
 40
1.0
 40
1.0
 10
-151.3333
 20
138.0518
 30
0.0
 10
-151.3333
 20
138.0518
 30
0.0
 10
-26.4438
 20
138.0518
 30
0.0
 10
-26.4438
 20
138.0518
 30
0.0
  0
SPLINE
  5
5B
330
1F
100
AcDbEntity
  8
52
 62
   250
370
     5
100
AcDbSpline
210
0.0
220
0.0
230
1.0
 70
    24
 71
     3
 72
     8
 73
     4
 74
     0
 42
0.0000000001
 43
0.0000000001
 40
0.0
 40
0.0
 40
0.0
 40
0.0
 40
1.0
 40
1.0
 40
1.0
 40
1.0
 10
28.0648
 20
138.0518
 30
0.0
 10
28.0648
 20
138.0518
 30
0.0
 10
161.6666
 20
138.0518
 30
0.0
 10
161.6666
 20
138.0518
 30
0.0
  0
SPLINE
  5
5C
330
1F
100
AcDbEntity
  8
52
 62
   250
100
AcDbSpline
210
0.0
220
0.0
230
1.0
 70
    11
 71
     3
 72
   124
 73
   120
 74
     0
 42
0.0000000001
 43
0.0000000001
 40
0.0
 40
0.0
 40
0.0
 40
0.0
 40
0.0333333333333333
 40
0.0333333333333333
 40
0.0333333333333333
 40
0.0333333333333333
 40
0.0666666666666667
 40
0.0666666666666667
 40
0.0666666666666667
 40
0.0666666666666667
 40
0.1
 40
0.1
 40
0.1
 40
0.1
 40
0.1333333333333333
 40
0.1333333333333333
 40
0.1333333333333333
 40
0.1333333333333333
 40
0.1666666666666667
 40
0.1666666666666667
 40
0.1666666666666667
 40
0.1666666666666667
 40
0.2
 40
0.2
 40
0.2
 40
0.2
 40
0.2333333333333333
 40
0.2333333333333333
 40
0.2333333333333333
 40
0.2333333333333333
 40
0.2666666666666667
 40
0.2666666666666667
 40
0.2666666666666667
 40
0.2666666666666667
 40
0.3
 40
0.3
 40
0.3
 40
0.3
 40
0.3333333333333333
 40
0.3333333333333333
 40
0.3333333333333333
 40
0.3333333333333333
 40
0.3666666666666666
 40
0.3666666666666666
 40
0.3666666666666666
 40
0.3666666666666666
 40
0.4
 40
0.4
 40
0.4
 40
0.4
 40
0.4333333333333333
 40
0.4333333333333333
 40
0.4333333333333333
 40
0.4333333333333333
 40
0.4666666666666666
 40
0.4666666666666666
 40
0.4666666666666666
 40
0.4666666666666666
 40
0.4999999999999999
 40
0.4999999999999999
 40
0.4999999999999999
 40
0.4999999999999999
 40
0.5333333333333333
 40
0.5333333333333333
 40
0.5333333333333333
 40
0.5333333333333333
 40
0.5666666666666667
 40
0.5666666666666667
 40
0.5666666666666667
 40
0.5666666666666667
 40
0.6
 40
0.6
 40
0.6
 40
0.6
 40
0.6333333333333333
 40
0.6333333333333333
 40
0.6333333333333333
 40
0.6333333333333333
 40
0.6666666666666666
 40
0.6666666666666666
 40
0.6666666666666666
 40
0.6666666666666666
 40
0.7
 40
0.7
 40
0.7
 40
0.7
 40
0.7333333333333333
 40
0.7333333333333333
 40
0.7333333333333333
 40
0.7333333333333333
 40
0.7666666666666666
 40
0.7666666666666666
 40
0.7666666666666666
 40
0.7666666666666666
 40
0.7999999999999999
 40
0.7999999999999999
 40
0.7999999999999999
 40
0.7999999999999999
 40
0.8333333333333333
 40
0.8333333333333333
 40
0.8333333333333333
 40
0.8333333333333333
 40
0.8666666666666666
 40
0.8666666666666666
 40
0.8666666666666666
 40
0.8666666666666666
 40
0.8999999999999999
 40
0.8999999999999999
 40
0.8999999999999999
 40
0.8999999999999999
 40
0.9333333333333332
 40
0.9333333333333332
 40
0.9333333333333332
 40
0.9333333333333332
 40
0.9666666666666666
 40
0.9666666666666666
 40
0.9666666666666666
 40
0.9666666666666666
 40
1.0
 40
1.0
 40
1.0
 40
1.0
 10
-19.7382
 20
136.6626
 30
0.0
 10
-19.7382
 20
136.6626
 30
0.0
 10
-18.9945
 20
136.7614
 30
0.0
 10
-18.9945
 20
136.7614
 30
0.0
 10
-18.9945
 20
136.7614
 30
0.0
 10
-18.9085
 20
136.3395
 30
0.0
 10
-18.7631
 20
136.0361
 30
0.0
 10
-18.5585
 20
135.8498
 30
0.0
 10
-18.5585
 20
135.8498
 30
0.0
 10
-18.3525
 20
135.6635
 30
0.0
 10
-18.1027
 20
135.5704
 30
0.0
 10
-17.8078
 20
135.5704
 30
0.0
 10
-17.8078
 20
135.5704
 30
0.0
 10
-17.4578
 20
135.5704
 30
0.0
 10
-17.1615
 20
135.6918
 30
0.0
 10
-16.9202
 20
135.9345
 30
0.0
 10
-16.9202
 20
135.9345
 30
0.0
 10
-16.6803
 20
136.1772
 30
0.0
 10
-16.559
 20
136.4778
 30
0.0
 10
-16.559
 20
136.8362
 30
0.0
 10
-16.559
 20
136.8362
 30
0.0
 10
-16.559
 20
137.1777
 30
0.0
 10
-16.6704
 20
137.4599
 30
0.0
 10
-16.8934
 20
137.6814
 30
0.0
 10
-16.8934
 20
137.6814
 30
0.0
 10
-17.1178
 20
137.903
 30
0.0
 10
-17.4014
 20
138.0145
 30
0.0
 10
-17.7457
 20
138.0145
 30
0.0
 10
-17.7457
 20
138.0145
 30
0.0
 10
-17.8868
 20
138.0145
 30
0.0
 10
-18.0618
 20
137.9862
 30
0.0
 10
-18.2706
 20
137.9312
 30
0.0
 10
-18.2706
 20
137.9312
 30
0.0
 10
-18.2706
 20
137.9312
 30
0.0
 10
-18.1874
 20
138.5845
 30
0.0
 10
-18.1874
 20
138.5845
 30
0.0
 10
-18.1874
 20
138.5845
 30
0.0
 10
-18.138
 20
138.5789
 30
0.0
 10
-18.0985
 20
138.5761
 30
0.0
 10
-18.0674
 20
138.5761
 30
0.0
 10
-18.0674
 20
138.5761
 30
0.0
 10
-17.7513
 20
138.5761
 30
0.0
 10
-17.4663
 20
138.6593
 30
0.0
 10
-17.2123
 20
138.8244
 30
0.0
 10
-17.2123
 20
138.8244
 30
0.0
 10
-16.9583
 20
138.9895
 30
0.0
 10
-16.8313
 20
139.2449
 30
0.0
 10
-16.8313
 20
139.5893
 30
0.0
 10
-16.8313
 20
139.5893
 30
0.0
 10
-16.8313
 20
139.8616
 30
0.0
 10
-16.9244
 20
140.0888
 30
0.0
 10
-17.1093
 20
140.2666
 30
0.0
 10
-17.1093
 20
140.2666
 30
0.0
 10
-17.2941
 20
140.4458
 30
0.0
 10
-17.5326
 20
140.5361
 30
0.0
 10
-17.8247
 20
140.5361
 30
0.0
 10
-17.8247
 20
140.5361
 30
0.0
 10
-18.114
 20
140.5361
 30
0.0
 10
-18.3553
 20
140.4444
 30
0.0
 10
-18.5472
 20
140.2638
 30
0.0
 10
-18.5472
 20
140.2638
 30
0.0
 10
-18.7405
 20
140.0817
 30
0.0
 10
-18.8647
 20
139.808
 30
0.0
 10
-18.9198
 20
139.4439
 30
0.0
 10
-18.9198
 20
139.4439
 30
0.0
 10
-18.9198
 20
139.4439
 30
0.0
 10
-19.6634
 20
139.5766
 30
0.0
 10
-19.6634
 20
139.5766
 30
0.0
 10
-19.6634
 20
139.5766
 30
0.0
 10
-19.5731
 20
140.0761
 30
0.0
 10
-19.3657
 20
140.4627
 30
0.0
 10
-19.0439
 20
140.7365
 30
0.0
 10
-19.0439
 20
140.7365
 30
0.0
 10
-18.7208
 20
141.0103
 30
0.0
 10
-18.32
 20
141.1485
 30
0.0
 10
-17.8402
 20
141.1485
 30
0.0
 10
-17.8402
 20
141.1485
 30
0.0
 10
-17.51
 20
141.1485
 30
0.0
 10
-17.2052
 20
141.0766
 30
0.0
 10
-16.9273
 20
140.9355
 30
0.0
 10
-16.9273
 20
140.9355
 30
0.0
 10
-16.6493
 20
140.7929
 30
0.0
 10
-16.4362
 20
140.5996
 30
0.0
 10
-16.288
 20
140.3541
 30
0.0
 10
-16.288
 20
140.3541
 30
0.0
 10
-16.1413
 20
140.1086
 30
0.0
 10
-16.0665
 20
139.8489
 30
0.0
 10
-16.0665
 20
139.5723
 30
0.0
 10
-16.0665
 20
139.5723
 30
0.0
 10
-16.0665
 20
139.3113
 30
0.0
 10
-16.137
 20
139.0728
 30
0.0
 10
-16.2781
 20
138.8569
 30
0.0
 10
-16.2781
 20
138.8569
 30
0.0
 10
-16.4193
 20
138.6424
 30
0.0
 10
-16.6267
 20
138.4717
 30
0.0
 10
-16.9019
 20
138.3447
 30
0.0
 10
-16.9019
 20
138.3447
 30
0.0
 10
-16.5434
 20
138.2628
 30
0.0
 10
-16.2654
 20
138.0907
 30
0.0
 10
-16.0665
 20
137.8296
 30
0.0
 10
-16.0665
 20
137.8296
 30
0.0
 10
-15.8689
 20
137.57
 30
0.0
 10
-15.7701
 20
137.244
 30
0.0
 10
-15.7701
 20
136.8531
 30
0.0
 10
-15.7701
 20
136.8531
 30
0.0
 10
-15.7701
 20
136.3239
 30
0.0
 10
-15.9621
 20
135.8752
 30
0.0
 10
-16.3487
 20
135.5069
 30
0.0
 10
-16.3487
 20
135.5069
 30
0.0
 10
-16.7339
 20
135.1386
 30
0.0
 10
-17.2222
 20
134.9552
 30
0.0
 10
-17.812
 20
134.9552
 30
0.0
 10
-17.812
 20
134.9552
 30
0.0
 10
-18.344
 20
134.9552
 30
0.0
 10
-18.7857
 20
135.1132
 30
0.0
 10
-19.1371
 20
135.4307
 30
0.0
 10
-19.1371
 20
135.4307
 30
0.0
 10
-19.4884
 20
135.7468
 30
0.0
 10
-19.6888
 20
136.1574
 30
0.0
 10
-19.7382
 20
136.6626
 30
0.0
  0
SPLINE
  5
5D
330
1F
100
AcDbEntity
  8
52
 62
   250
100
AcDbSpline
210
0.0
220
0.0
230
1.0
 70
    11
 71
     3
 72
    40
 73
    36
 74
     0
 42
0.0000000001
 43
0.0000000001
 40
0.0
 40
0.0
 40
0.0
 40
0.0
 40
0.1111111111111111
 40
0.1111111111111111
 40
0.1111111111111111
 40
0.1111111111111111
 40
0.2222222222222222
 40
0.2222222222222222
 40
0.2222222222222222
 40
0.2222222222222222
 40
0.3333333333333333
 40
0.3333333333333333
 40
0.3333333333333333
 40
0.3333333333333333
 40
0.4444444444444444
 40
0.4444444444444444
 40
0.4444444444444444
 40
0.4444444444444444
 40
0.5555555555555556
 40
0.5555555555555556
 40
0.5555555555555556
 40
0.5555555555555556
 40
0.6666666666666667
 40
0.6666666666666667
 40
0.6666666666666667
 40
0.6666666666666667
 40
0.7777777777777779
 40
0.7777777777777779
 40
0.7777777777777779
 40
0.7777777777777779
 40
0.8888888888888891
 40
0.8888888888888891
 40
0.8888888888888891
 40
0.8888888888888891
 40
1.0
 40
1.0
 40
1.0
 40
1.0
 10
-12.2311
 20
135.0624
 30
0.0
 10
-12.2311
 20
135.0624
 30
0.0
 10
-12.9747
 20
135.0624
 30
0.0
 10
-12.9747
 20
135.0624
 30
0.0
 10
-12.9747
 20
135.0624
 30
0.0
 10
-12.9747
 20
135.0624
 30
0.0
 10
-12.9747
 20
139.8038
 30
0.0
 10
-12.9747
 20
139.8038
 30
0.0
 10
-12.9747
 20
139.8038
 30
0.0
 10
-13.1539
 20
139.633
 30
0.0
 10
-13.3882
 20
139.4623
 30
0.0
 10
-13.6789
 20
139.2915
 30
0.0
 10
-13.6789
 20
139.2915
 30
0.0
 10
-13.971
 20
139.1208
 30
0.0
 10
-14.232
 20
138.9924
 30
0.0
 10
-14.4634
 20
138.9077
 30
0.0
 10
-14.4634
 20
138.9077
 30
0.0
 10
-14.4634
 20
138.9077
 30
0.0
 10
-14.4634
 20
139.626
 30
0.0
 10
-14.4634
 20
139.626
 30
0.0
 10
-14.4634
 20
139.626
 30
0.0
 10
-14.0472
 20
139.8221
 30
0.0
 10
-13.6831
 20
140.0592
 30
0.0
 10
-13.3712
 20
140.3372
 30
0.0
 10
-13.3712
 20
140.3372
 30
0.0
 10
-13.0608
 20
140.6166
 30
0.0
 10
-12.8392
 20
140.8861
 30
0.0
 10
-12.7094
 20
141.1485
 30
0.0
 10
-12.7094
 20
141.1485
 30
0.0
 10
-12.7094
 20
141.1485
 30
0.0
 10
-12.2311
 20
141.1485
 30
0.0
 10
-12.2311
 20
141.1485
 30
0.0
 10
-12.2311
 20
141.1485
 30
0.0
 10
-12.2311
 20
141.1485
 30
0.0
 10
-12.2311
 20
135.0624
 30
0.0
 10
-12.2311
 20
135.0624
 30
0.0
  0
SPLINE
  5
5E
330
1F
100
AcDbEntity
  8
52
 62
   250
100
AcDbSpline
210
0.0
220
0.0
230
1.0
 70
    11
 71
     3
 72
   124
 73
   120
 74
     0
 42
0.0000000001
 43
0.0000000001
 40
0.0
 40
0.0
 40
0.0
 40
0.0
 40
0.0333333333333333
 40
0.0333333333333333
 40
0.0333333333333333
 40
0.0333333333333333
 40
0.0666666666666667
 40
0.0666666666666667
 40
0.0666666666666667
 40
0.0666666666666667
 40
0.1
 40
0.1
 40
0.1
 40
0.1
 40
0.1333333333333333
 40
0.1333333333333333
 40
0.1333333333333333
 40
0.1333333333333333
 40
0.1666666666666667
 40
0.1666666666666667
 40
0.1666666666666667
 40
0.1666666666666667
 40
0.2
 40
0.2
 40
0.2
 40
0.2
 40
0.2333333333333333
 40
0.2333333333333333
 40
0.2333333333333333
 40
0.2333333333333333
 40
0.2666666666666667
 40
0.2666666666666667
 40
0.2666666666666667
 40
0.2666666666666667
 40
0.3
 40
0.3
 40
0.3
 40
0.3
 40
0.3333333333333333
 40
0.3333333333333333
 40
0.3333333333333333
 40
0.3333333333333333
 40
0.3666666666666666
 40
0.3666666666666666
 40
0.3666666666666666
 40
0.3666666666666666
 40
0.4
 40
0.4
 40
0.4
 40
0.4
 40
0.4333333333333333
 40
0.4333333333333333
 40
0.4333333333333333
 40
0.4333333333333333
 40
0.4666666666666666
 40
0.4666666666666666
 40
0.4666666666666666
 40
0.4666666666666666
 40
0.4999999999999999
 40
0.4999999999999999
 40
0.4999999999999999
 40
0.4999999999999999
 40
0.5333333333333333
 40
0.5333333333333333
 40
0.5333333333333333
 40
0.5333333333333333
 40
0.5666666666666667
 40
0.5666666666666667
 40
0.5666666666666667
 40
0.5666666666666667
 40
0.6
 40
0.6
 40
0.6
 40
0.6
 40
0.6333333333333333
 40
0.6333333333333333
 40
0.6333333333333333
 40
0.6333333333333333
 40
0.6666666666666666
 40
0.6666666666666666
 40
0.6666666666666666
 40
0.6666666666666666
 40
0.7
 40
0.7
 40
0.7
 40
0.7
 40
0.7333333333333333
 40
0.7333333333333333
 40
0.7333333333333333
 40
0.7333333333333333
 40
0.7666666666666666
 40
0.7666666666666666
 40
0.7666666666666666
 40
0.7666666666666666
 40
0.7999999999999999
 40
0.7999999999999999
 40
0.7999999999999999
 40
0.7999999999999999
 40
0.8333333333333333
 40
0.8333333333333333
 40
0.8333333333333333
 40
0.8333333333333333
 40
0.8666666666666666
 40
0.8666666666666666
 40
0.8666666666666666
 40
0.8666666666666666
 40
0.8999999999999999
 40
0.8999999999999999
 40
0.8999999999999999
 40
0.8999999999999999
 40
0.9333333333333332
 40
0.9333333333333332
 40
0.9333333333333332
 40
0.9333333333333332
 40
0.9666666666666666
 40
0.9666666666666666
 40
0.9666666666666666
 40
0.9666666666666666
 40
1.0
 40
1.0
 40
1.0
 40
1.0
 10
-10.3204
 20
136.6626
 30
0.0
 10
-10.3204
 20
136.6626
 30
0.0
 10
-9.576700000000001
 20
136.7614
 30
0.0
 10
-9.576700000000001
 20
136.7614
 30
0.0
 10
-9.576700000000001
 20
136.7614
 30
0.0
 10
-9.4907
 20
136.3395
 30
0.0
 10
-9.3453
 20
136.0361
 30
0.0
 10
-9.140700000000001
 20
135.8498
 30
0.0
 10
-9.140700000000001
 20
135.8498
 30
0.0
 10
-8.934700000000001
 20
135.6635
 30
0.0
 10
-8.684900000000001
 20
135.5704
 30
0.0
 10
-8.390000000000001
 20
135.5704
 30
0.0
 10
-8.390000000000001
 20
135.5704
 30
0.0
 10
-8.040000000000001
 20
135.5704
 30
0.0
 10
-7.743700000000001
 20
135.6918
 30
0.0
 10
-7.502400000000001
 20
135.9345
 30
0.0
 10
-7.502400000000001
 20
135.9345
 30
0.0
 10
-7.2625
 20
136.1772
 30
0.0
 10
-7.1412
 20
136.4778
 30
0.0
 10
-7.1412
 20
136.8362
 30
0.0
 10
-7.1412
 20
136.8362
 30
0.0
 10
-7.1412
 20
137.1777
 30
0.0
 10
-7.2526
 20
137.4599
 30
0.0
 10
-7.4756
 20
137.6814
 30
0.0
 10
-7.4756
 20
137.6814
 30
0.0
 10
-7.7
 20
137.903
 30
0.0
 10
-7.9836
 20
138.0145
 30
0.0
 10
-8.3279
 20
138.0145
 30
0.0
 10
-8.3279
 20
138.0145
 30
0.0
 10
-8.469000000000001
 20
138.0145
 30
0.0
 10
-8.644
 20
137.9862
 30
0.0
 10
-8.8528
 20
137.9312
 30
0.0
 10
-8.8528
 20
137.9312
 30
0.0
 10
-8.8528
 20
137.9312
 30
0.0
 10
-8.769600000000001
 20
138.5845
 30
0.0
 10
-8.769600000000001
 20
138.5845
 30
0.0
 10
-8.769600000000001
 20
138.5845
 30
0.0
 10
-8.7202
 20
138.5789
 30
0.0
 10
-8.6807
 20
138.5761
 30
0.0
 10
-8.649600000000001
 20
138.5761
 30
0.0
 10
-8.649600000000001
 20
138.5761
 30
0.0
 10
-8.333500000000001
 20
138.5761
 30
0.0
 10
-8.048500000000001
 20
138.6593
 30
0.0
 10
-7.7945
 20
138.8244
 30
0.0
 10
-7.7945
 20
138.8244
 30
0.0
 10
-7.540500000000001
 20
138.9895
 30
0.0
 10
-7.4135
 20
139.2449
 30
0.0
 10
-7.4135
 20
139.5893
 30
0.0
 10
-7.4135
 20
139.5893
 30
0.0
 10
-7.4135
 20
139.8616
 30
0.0
 10
-7.506600000000001
 20
140.0888
 30
0.0
 10
-7.6915
 20
140.2666
 30
0.0
 10
-7.6915
 20
140.2666
 30
0.0
 10
-7.876300000000001
 20
140.4458
 30
0.0
 10
-8.114800000000001
 20
140.5361
 30
0.0
 10
-8.4069
 20
140.5361
 30
0.0
 10
-8.4069
 20
140.5361
 30
0.0
 10
-8.696200000000001
 20
140.5361
 30
0.0
 10
-8.9375
 20
140.4444
 30
0.0
 10
-9.1294
 20
140.2638
 30
0.0
 10
-9.1294
 20
140.2638
 30
0.0
 10
-9.322700000000001
 20
140.0817
 30
0.0
 10
-9.446900000000001
 20
139.808
 30
0.0
 10
-9.502000000000001
 20
139.4439
 30
0.0
 10
-9.502000000000001
 20
139.4439
 30
0.0
 10
-9.502000000000001
 20
139.4439
 30
0.0
 10
-10.2456
 20
139.5766
 30
0.0
 10
-10.2456
 20
139.5766
 30
0.0
 10
-10.2456
 20
139.5766
 30
0.0
 10
-10.1553
 20
140.0761
 30
0.0
 10
-9.947900000000001
 20
140.4627
 30
0.0
 10
-9.626100000000001
 20
140.7365
 30
0.0
 10
-9.626100000000001
 20
140.7365
 30
0.0
 10
-9.303000000000001
 20
141.0103
 30
0.0
 10
-8.902200000000001
 20
141.1485
 30
0.0
 10
-8.4224
 20
141.1485
 30
0.0
 10
-8.4224
 20
141.1485
 30
0.0
 10
-8.0922
 20
141.1485
 30
0.0
 10
-7.787400000000001
 20
141.0766
 30
0.0
 10
-7.5095
 20
140.9355
 30
0.0
 10
-7.5095
 20
140.9355
 30
0.0
 10
-7.231500000000001
 20
140.7929
 30
0.0
 10
-7.018400000000001
 20
140.5996
 30
0.0
 10
-6.870200000000001
 20
140.3541
 30
0.0
 10
-6.870200000000001
 20
140.3541
 30
0.0
 10
-6.723500000000001
 20
140.1086
 30
0.0
 10
-6.648700000000001
 20
139.8489
 30
0.0
 10
-6.648700000000001
 20
139.5723
 30
0.0
 10
-6.648700000000001
 20
139.5723
 30
0.0
 10
-6.648700000000001
 20
139.3113
 30
0.0
 10
-6.719200000000001
 20
139.0728
 30
0.0
 10
-6.860300000000001
 20
138.8569
 30
0.0
 10
-6.860300000000001
 20
138.8569
 30
0.0
 10
-7.0015
 20
138.6424
 30
0.0
 10
-7.208900000000001
 20
138.4717
 30
0.0
 10
-7.484100000000001
 20
138.3447
 30
0.0
 10
-7.484100000000001
 20
138.3447
 30
0.0
 10
-7.1256
 20
138.2628
 30
0.0
 10
-6.8476
 20
138.0907
 30
0.0
 10
-6.648700000000001
 20
137.8296
 30
0.0
 10
-6.648700000000001
 20
137.8296
 30
0.0
 10
-6.4511
 20
137.57
 30
0.0
 10
-6.352300000000001
 20
137.244
 30
0.0
 10
-6.352300000000001
 20
136.8531
 30
0.0
 10
-6.352300000000001
 20
136.8531
 30
0.0
 10
-6.352300000000001
 20
136.3239
 30
0.0
 10
-6.544300000000001
 20
135.8752
 30
0.0
 10
-6.9309
 20
135.5069
 30
0.0
 10
-6.9309
 20
135.5069
 30
0.0
 10
-7.316100000000001
 20
135.1386
 30
0.0
 10
-7.8044
 20
134.9552
 30
0.0
 10
-8.3942
 20
134.9552
 30
0.0
 10
-8.3942
 20
134.9552
 30
0.0
 10
-8.9262
 20
134.9552
 30
0.0
 10
-9.367900000000001
 20
135.1132
 30
0.0
 10
-9.719300000000001
 20
135.4307
 30
0.0
 10
-9.719300000000001
 20
135.4307
 30
0.0
 10
-10.0706
 20
135.7468
 30
0.0
 10
-10.271
 20
136.1574
 30
0.0
 10
-10.3204
 20
136.6626
 30
0.0
  0
SPLINE
  5
5F
330
1F
100
AcDbEntity
  8
52
 62
   250
100
AcDbSpline
210
0.0
220
0.0
230
1.0
 70
    11
 71
     3
 72
    20
 73
    16
 74
     0
 42
0.0000000001
 43
0.0000000001
 40
0.0
 40
0.0
 40
0.0
 40
0.0
 40
0.25
 40
0.25
 40
0.25
 40
0.25
 40
0.5
 40
0.5
 40
0.5
 40
0.5
 40
0.75
 40
0.75
 40
0.75
 40
0.75
 40
1.0
 40
1.0
 40
1.0
 40
1.0
 10
-5.198
 20
135.0624
 30
0.0
 10
-5.198
 20
135.0624
 30
0.0
 10
-5.198
 20
135.9105
 30
0.0
 10
-5.198
 20
135.9105
 30
0.0
 10
-5.198
 20
135.9105
 30
0.0
 10
-5.198
 20
135.9105
 30
0.0
 10
-4.350000000000001
 20
135.9105
 30
0.0
 10
-4.350000000000001
 20
135.9105
 30
0.0
 10
-4.350000000000001
 20
135.9105
 30
0.0
 10
-4.350000000000001
 20
135.9105
 30
0.0
 10
-4.350000000000001
 20
135.0624
 30
0.0
 10
-4.350000000000001
 20
135.0624
 30
0.0
 10
-4.350000000000001
 20
135.0624
 30
0.0
 10
-4.350000000000001
 20
135.0624
 30
0.0
 10
-5.198
 20
135.0624
 30
0.0
 10
-5.198
 20
135.0624
 30
0.0
  0
SPLINE
  5
60
330
1F
100
AcDbEntity
  8
52
 62
   250
100
AcDbSpline
210
0.0
220
0.0
230
1.0
 70
    11
 71
     3
 72
    52
 73
    48
 74
     0
 42
0.0000000001
 43
0.0000000001
 40
0.0
 40
0.0
 40
0.0
 40
0.0
 40
0.0833333333333333
 40
0.0833333333333333
 40
0.0833333333333333
 40
0.0833333333333333
 40
0.1666666666666667
 40
0.1666666666666667
 40
0.1666666666666667
 40
0.1666666666666667
 40
0.25
 40
0.25
 40
0.25
 40
0.25
 40
0.3333333333333333
 40
0.3333333333333333
 40
0.3333333333333333
 40
0.3333333333333333
 40
0.4166666666666666
 40
0.4166666666666666
 40
0.4166666666666666
 40
0.4166666666666666
 40
0.4999999999999999
 40
0.4999999999999999
 40
0.4999999999999999
 40
0.4999999999999999
 40
0.5833333333333333
 40
0.5833333333333333
 40
0.5833333333333333
 40
0.5833333333333333
 40
0.6666666666666666
 40
0.6666666666666666
 40
0.6666666666666666
 40
0.6666666666666666
 40
0.75
 40
0.75
 40
0.75
 40
0.75
 40
0.8333333333333334
 40
0.8333333333333334
 40
0.8333333333333334
 40
0.8333333333333334
 40
0.9166666666666667
 40
0.9166666666666667
 40
0.9166666666666667
 40
0.9166666666666667
 40
1.0
 40
1.0
 40
1.0
 40
1.0
 10
-3.2634
 20
138.0511
 30
0.0
 10
-3.2634
 20
138.768
 30
0.0
 10
-3.1901
 20
139.3451
 30
0.0
 10
-3.0419
 20
139.7812
 30
0.0
 10
-3.0419
 20
139.7812
 30
0.0
 10
-2.8951
 20
140.2186
 30
0.0
 10
-2.675
 20
140.5559
 30
0.0
 10
-2.3843
 20
140.7929
 30
0.0
 10
-2.3843
 20
140.7929
 30
0.0
 10
-2.0936
 20
141.03
 30
0.0
 10
-1.7281
 20
141.1485
 30
0.0
 10
-1.2879
 20
141.1485
 30
0.0
 10
-1.2879
 20
141.1485
 30
0.0
 10
-0.9619000000000001
 20
141.1485
 30
0.0
 10
-0.6769000000000001
 20
141.0822
 30
0.0
 10
-0.4313
 20
140.951
 30
0.0
 10
-0.4313
 20
140.951
 30
0.0
 10
-0.1858
 20
140.8212
 30
0.0
 10
0.016
 20
140.6321
 30
0.0
 10
0.1769
 20
140.3851
 30
0.0
 10
0.1769
 20
140.3851
 30
0.0
 10
0.3363
 20
140.1382
 30
0.0
 10
0.4619
 20
139.8376
 30
0.0
 10
0.5522
 20
139.4834
 30
0.0
 10
0.5522
 20
139.4834
 30
0.0
 10
0.644
 20
139.1292
 30
0.0
 10
0.6891000000000001
 20
138.6523
 30
0.0
 10
0.6891000000000001
 20
138.0511
 30
0.0
 10
0.6891000000000001
 20
138.0511
 30
0.0
 10
0.6891000000000001
 20
137.3399
 30
0.0
 10
0.6157
 20
136.767
 30
0.0
 10
0.4704
 20
136.3296
 30
0.0
 10
0.4704
 20
136.3296
 30
0.0
 10
0.3236
 20
135.8921
 30
0.0
 10
0.1049
 20
135.5549
 30
0.0
 10
-0.1858
 20
135.3164
 30
0.0
 10
-0.1858
 20
135.3164
 30
0.0
 10
-0.4765
 20
135.0779
 30
0.0
 10
-0.8434
 20
134.9594
 30
0.0
 10
-1.2879
 20
134.9594
 30
0.0
 10
-1.2879
 20
134.9594
 30
0.0
 10
-1.8721
 20
134.9594
 30
0.0
 10
-2.3307
 20
135.1682
 30
0.0
 10
-2.6637
 20
135.5873
 30
0.0
 10
-2.6637
 20
135.5873
 30
0.0
 10
-3.0631
 20
136.0911
 30
0.0
 10
-3.2634
 20
136.9138
 30
0.0
 10
-3.2634
 20
138.0511
 30
0.0
  0
SPLINE
  5
61
330
1F
100
AcDbEntity
  8
52
 62
   250
100
AcDbSpline
210
0.0
220
0.0
230
1.0
 70
    11
 71
     3
 72
    36
 73
    32
 74
     0
 42
0.0000000001
 43
0.0000000001
 40
0.0
 40
0.0
 40
0.0
 40
0.0
 40
0.125
 40
0.125
 40
0.125
 40
0.125
 40
0.25
 40
0.25
 40
0.25
 40
0.25
 40
0.375
 40
0.375
 40
0.375
 40
0.375
 40
0.5
 40
0.5
 40
0.5
 40
0.5
 40
0.625
 40
0.625
 40
0.625
 40
0.625
 40
0.75
 40
0.75
 40
0.75
 40
0.75
 40
0.875
 40
0.875
 40
0.875
 40
0.875
 40
1.0
 40
1.0
 40
1.0
 40
1.0
 10
-2.4986
 20
138.0511
 30
0.0
 10
-2.4986
 20
137.0563
 30
0.0
 10
-2.3815
 20
136.3945
 30
0.0
 10
-2.1486
 20
136.0643
 30
0.0
 10
-2.1486
 20
136.0643
 30
0.0
 10
-1.9158
 20
135.7355
 30
0.0
 10
-1.6294
 20
135.5704
 30
0.0
 10
-1.2879
 20
135.5704
 30
0.0
 10
-1.2879
 20
135.5704
 30
0.0
 10
-0.9450000000000001
 20
135.5704
 30
0.0
 10
-0.6585000000000001
 20
135.7369
 30
0.0
 10
-0.4257
 20
136.0671
 30
0.0
 10
-0.4257
 20
136.0671
 30
0.0
 10
-0.1928
 20
136.3973
 30
0.0
 10
-0.0757
 20
137.0591
 30
0.0
 10
-0.0757
 20
138.0511
 30
0.0
 10
-0.0757
 20
138.0511
 30
0.0
 10
-0.0757
 20
139.0488
 30
0.0
 10
-0.1928
 20
139.712
 30
0.0
 10
-0.4257
 20
140.0394
 30
0.0
 10
-0.4257
 20
140.0394
 30
0.0
 10
-0.6585000000000001
 20
140.3682
 30
0.0
 10
-0.9478000000000001
 20
140.5319
 30
0.0
 10
-1.2949
 20
140.5319
 30
0.0
 10
-1.2949
 20
140.5319
 30
0.0
 10
-1.6378
 20
140.5319
 30
0.0
 10
-1.9102
 20
140.3865
 30
0.0
 10
-2.1148
 20
140.0973
 30
0.0
 10
-2.1148
 20
140.0973
 30
0.0
 10
-2.3702
 20
139.729
 30
0.0
 10
-2.4986
 20
139.046
 30
0.0
 10
-2.4986
 20
138.0511
 30
0.0
  0
SPLINE
  5
62
330
1F
100
AcDbEntity
  8
52
 62
   250
100
AcDbSpline
210
0.0
220
0.0
230
1.0
 70
    11
 71
     3
 72
    52
 73
    48
 74
     0
 42
0.0000000001
 43
0.0000000001
 40
0.0
 40
0.0
 40
0.0
 40
0.0
 40
0.0833333333333333
 40
0.0833333333333333
 40
0.0833333333333333
 40
0.0833333333333333
 40
0.1666666666666667
 40
0.1666666666666667
 40
0.1666666666666667
 40
0.1666666666666667
 40
0.25
 40
0.25
 40
0.25
 40
0.25
 40
0.3333333333333333
 40
0.3333333333333333
 40
0.3333333333333333
 40
0.3333333333333333
 40
0.4166666666666666
 40
0.4166666666666666
 40
0.4166666666666666
 40
0.4166666666666666
 40
0.4999999999999999
 40
0.4999999999999999
 40
0.4999999999999999
 40
0.4999999999999999
 40
0.5833333333333333
 40
0.5833333333333333
 40
0.5833333333333333
 40
0.5833333333333333
 40
0.6666666666666666
 40
0.6666666666666666
 40
0.6666666666666666
 40
0.6666666666666666
 40
0.75
 40
0.75
 40
0.75
 40
0.75
 40
0.8333333333333334
 40
0.8333333333333334
 40
0.8333333333333334
 40
0.8333333333333334
 40
0.9166666666666667
 40
0.9166666666666667
 40
0.9166666666666667
 40
0.9166666666666667
 40
1.0
 40
1.0
 40
1.0
 40
1.0
 10
1.4455
 20
138.0511
 30
0.0
 10
1.4455
 20
138.768
 30
0.0
 10
1.5188
 20
139.3451
 30
0.0
 10
1.667
 20
139.7812
 30
0.0
 10
1.667
 20
139.7812
 30
0.0
 10
1.8138
 20
140.2186
 30
0.0
 10
2.0339
 20
140.5559
 30
0.0
 10
2.3246
 20
140.7929
 30
0.0
 10
2.3246
 20
140.7929
 30
0.0
 10
2.6153
 20
141.03
 30
0.0
 10
2.9808
 20
141.1485
 30
0.0
 10
3.421
 20
141.1485
 30
0.0
 10
3.421
 20
141.1485
 30
0.0
 10
3.747
 20
141.1485
 30
0.0
 10
4.032
 20
141.0822
 30
0.0
 10
4.277600000000001
 20
140.951
 30
0.0
 10
4.277600000000001
 20
140.951
 30
0.0
 10
4.5231
 20
140.8212
 30
0.0
 10
4.7249
 20
140.6321
 30
0.0
 10
4.885800000000001
 20
140.3851
 30
0.0
 10
4.885800000000001
 20
140.3851
 30
0.0
 10
5.0452
 20
140.1382
 30
0.0
 10
5.1708
 20
139.8376
 30
0.0
 10
5.2611
 20
139.4834
 30
0.0
 10
5.2611
 20
139.4834
 30
0.0
 10
5.3529
 20
139.1292
 30
0.0
 10
5.398000000000001
 20
138.6523
 30
0.0
 10
5.398000000000001
 20
138.0511
 30
0.0
 10
5.398000000000001
 20
138.0511
 30
0.0
 10
5.398000000000001
 20
137.3399
 30
0.0
 10
5.3246
 20
136.767
 30
0.0
 10
5.179300000000001
 20
136.3296
 30
0.0
 10
5.179300000000001
 20
136.3296
 30
0.0
 10
5.032500000000001
 20
135.8921
 30
0.0
 10
4.813800000000001
 20
135.5549
 30
0.0
 10
4.5231
 20
135.3164
 30
0.0
 10
4.5231
 20
135.3164
 30
0.0
 10
4.2324
 20
135.0779
 30
0.0
 10
3.8655
 20
134.9594
 30
0.0
 10
3.421
 20
134.9594
 30
0.0
 10
3.421
 20
134.9594
 30
0.0
 10
2.8368
 20
134.9594
 30
0.0
 10
2.3782
 20
135.1682
 30
0.0
 10
2.0452
 20
135.5873
 30
0.0
 10
2.0452
 20
135.5873
 30
0.0
 10
1.6458
 20
136.0911
 30
0.0
 10
1.4455
 20
136.9138
 30
0.0
 10
1.4455
 20
138.0511
 30
0.0
  0
SPLINE
  5
63
330
1F
100
AcDbEntity
  8
52
 62
   250
100
AcDbSpline
210
0.0
220
0.0
230
1.0
 70
    11
 71
     3
 72
    36
 73
    32
 74
     0
 42
0.0000000001
 43
0.0000000001
 40
0.0
 40
0.0
 40
0.0
 40
0.0
 40
0.125
 40
0.125
 40
0.125
 40
0.125
 40
0.25
 40
0.25
 40
0.25
 40
0.25
 40
0.375
 40
0.375
 40
0.375
 40
0.375
 40
0.5
 40
0.5
 40
0.5
 40
0.5
 40
0.625
 40
0.625
 40
0.625
 40
0.625
 40
0.75
 40
0.75
 40
0.75
 40
0.75
 40
0.875
 40
0.875
 40
0.875
 40
0.875
 40
1.0
 40
1.0
 40
1.0
 40
1.0
 10
2.2103
 20
138.0511
 30
0.0
 10
2.2103
 20
137.0563
 30
0.0
 10
2.3274
 20
136.3945
 30
0.0
 10
2.5603
 20
136.0643
 30
0.0
 10
2.5603
 20
136.0643
 30
0.0
 10
2.7931
 20
135.7355
 30
0.0
 10
3.0795
 20
135.5704
 30
0.0
 10
3.421
 20
135.5704
 30
0.0
 10
3.421
 20
135.5704
 30
0.0
 10
3.7639
 20
135.5704
 30
0.0
 10
4.0504
 20
135.7369
 30
0.0
 10
4.2832
 20
136.0671
 30
0.0
 10
4.2832
 20
136.0671
 30
0.0
 10
4.5161
 20
136.3973
 30
0.0
 10
4.6332
 20
137.0591
 30
0.0
 10
4.6332
 20
138.0511
 30
0.0
 10
4.6332
 20
138.0511
 30
0.0
 10
4.6332
 20
139.0488
 30
0.0
 10
4.5161
 20
139.712
 30
0.0
 10
4.2832
 20
140.0394
 30
0.0
 10
4.2832
 20
140.0394
 30
0.0
 10
4.0504
 20
140.3682
 30
0.0
 10
3.7611
 20
140.5319
 30
0.0
 10
3.414
 20
140.5319
 30
0.0
 10
3.414
 20
140.5319
 30
0.0
 10
3.0711
 20
140.5319
 30
0.0
 10
2.7987
 20
140.3865
 30
0.0
 10
2.5941
 20
140.0973
 30
0.0
 10
2.5941
 20
140.0973
 30
0.0
 10
2.3387
 20
139.729
 30
0.0
 10
2.2103
 20
139.046
 30
0.0
 10
2.2103
 20
138.0511
 30
0.0
  0
SPLINE
  5
64
330
1F
100
AcDbEntity
  8
52
 62
   250
100
AcDbSpline
210
0.0
220
0.0
230
1.0
 70
    11
 71
     3
 72
   116
 73
   112
 74
     0
 42
0.0000000001
 43
0.0000000001
 40
0.0
 40
0.0
 40
0.0
 40
0.0
 40
0.0357142857142857
 40
0.0357142857142857
 40
0.0357142857142857
 40
0.0357142857142857
 40
0.0714285714285714
 40
0.0714285714285714
 40
0.0714285714285714
 40
0.0714285714285714
 40
0.1071428571428571
 40
0.1071428571428571
 40
0.1071428571428571
 40
0.1071428571428571
 40
0.1428571428571429
 40
0.1428571428571429
 40
0.1428571428571429
 40
0.1428571428571429
 40
0.1785714285714286
 40
0.1785714285714286
 40
0.1785714285714286
 40
0.1785714285714286
 40
0.2142857142857143
 40
0.2142857142857143
 40
0.2142857142857143
 40
0.2142857142857143
 40
0.2499999999999999
 40
0.2499999999999999
 40
0.2499999999999999
 40
0.2499999999999999
 40
0.2857142857142856
 40
0.2857142857142856
 40
0.2857142857142856
 40
0.2857142857142856
 40
0.3214285714285713
 40
0.3214285714285713
 40
0.3214285714285713
 40
0.3214285714285713
 40
0.357142857142857
 40
0.357142857142857
 40
0.357142857142857
 40
0.357142857142857
 40
0.3928571428571427
 40
0.3928571428571427
 40
0.3928571428571427
 40
0.3928571428571427
 40
0.4285714285714284
 40
0.4285714285714284
 40
0.4285714285714284
 40
0.4285714285714284
 40
0.4642857142857141
 40
0.4642857142857141
 40
0.4642857142857141
 40
0.4642857142857141
 40
0.4999999999999998
 40
0.4999999999999998
 40
0.4999999999999998
 40
0.4999999999999998
 40
0.5357142857142856
 40
0.5357142857142856
 40
0.5357142857142856
 40
0.5357142857142856
 40
0.5714285714285713
 40
0.5714285714285713
 40
0.5714285714285713
 40
0.5714285714285713
 40
0.607142857142857
 40
0.607142857142857
 40
0.607142857142857
 40
0.607142857142857
 40
0.6428571428571427
 40
0.6428571428571427
 40
0.6428571428571427
 40
0.6428571428571427
 40
0.6785714285714284
 40
0.6785714285714284
 40
0.6785714285714284
 40
0.6785714285714284
 40
0.7142857142857141
 40
0.7142857142857141
 40
0.7142857142857141
 40
0.7142857142857141
 40
0.7499999999999998
 40
0.7499999999999998
 40
0.7499999999999998
 40
0.7499999999999998
 40
0.7857142857142855
 40
0.7857142857142855
 40
0.7857142857142855
 40
0.7857142857142855
 40
0.8214285714285712
 40
0.8214285714285712
 40
0.8214285714285712
 40
0.8214285714285712
 40
0.8571428571428569
 40
0.8571428571428569
 40
0.8571428571428569
 40
0.8571428571428569
 40
0.8928571428571426
 40
0.8928571428571426
 40
0.8928571428571426
 40
0.8928571428571426
 40
0.9285714285714283
 40
0.9285714285714283
 40
0.9285714285714283
 40
0.9285714285714283
 40
0.964285714285714
 40
0.964285714285714
 40
0.964285714285714
 40
0.964285714285714
 40
1.0
 40
1.0
 40
1.0
 40
1.0
 10
8.7141
 20
135.0624
 30
0.0
 10
8.7141
 20
135.0624
 30
0.0
 10
8.7141
 20
139.4524
 30
0.0
 10
8.7141
 20
139.4524
 30
0.0
 10
8.7141
 20
139.4524
 30
0.0
 10
8.7141
 20
139.4524
 30
0.0
 10
9.3787
 20
139.4524
 30
0.0
 10
9.3787
 20
139.4524
 30
0.0
 10
9.3787
 20
139.4524
 30
0.0
 10
9.3787
 20
139.4524
 30
0.0
 10
9.3787
 20
138.8371
 30
0.0
 10
9.3787
 20
138.8371
 30
0.0
 10
9.3787
 20
138.8371
 30
0.0
 10
9.517000000000001
 20
139.0516
 30
0.0
 10
9.7005
 20
139.2252
 30
0.0
 10
9.9291
 20
139.355
 30
0.0
 10
9.9291
 20
139.355
 30
0.0
 10
10.1577
 20
139.4863
 30
0.0
 10
10.4187
 20
139.5526
 30
0.0
 10
10.7108
 20
139.5526
 30
0.0
 10
10.7108
 20
139.5526
 30
0.0
 10
11.0354
 20
139.5526
 30
0.0
 10
11.3021
 20
139.4848
 30
0.0
 10
11.5095
 20
139.3494
 30
0.0
 10
11.5095
 20
139.3494
 30
0.0
 10
11.7184
 20
139.2139
 30
0.0
 10
11.8651
 20
139.0262
 30
0.0
 10
11.9498
 20
138.7835
 30
0.0
 10
11.9498
 20
138.7835
 30
0.0
 10
12.2983
 20
139.2958
 30
0.0
 10
12.7499
 20
139.5526
 30
0.0
 10
13.3059
 20
139.5526
 30
0.0
 10
13.3059
 20
139.5526
 30
0.0
 10
13.7419
 20
139.5526
 30
0.0
 10
14.0763
 20
139.4312
 30
0.0
 10
14.3106
 20
139.1899
 30
0.0
 10
14.3106
 20
139.1899
 30
0.0
 10
14.5448
 20
138.9486
 30
0.0
 10
14.662
 20
138.5775
 30
0.0
 10
14.662
 20
138.0765
 30
0.0
 10
14.662
 20
138.0765
 30
0.0
 10
14.662
 20
138.0765
 30
0.0
 10
14.662
 20
135.0624
 30
0.0
 10
14.662
 20
135.0624
 30
0.0
 10
14.662
 20
135.0624
 30
0.0
 10
14.662
 20
135.0624
 30
0.0
 10
13.9225
 20
135.0624
 30
0.0
 10
13.9225
 20
135.0624
 30
0.0
 10
13.9225
 20
135.0624
 30
0.0
 10
13.9225
 20
135.0624
 30
0.0
 10
13.9225
 20
137.8282
 30
0.0
 10
13.9225
 20
137.8282
 30
0.0
 10
13.9225
 20
137.8282
 30
0.0
 10
13.9225
 20
138.1259
 30
0.0
 10
13.8985
 20
138.3404
 30
0.0
 10
13.8506
 20
138.4717
 30
0.0
 10
13.8506
 20
138.4717
 30
0.0
 10
13.8012
 20
138.6015
 30
0.0
 10
13.7137
 20
138.7073
 30
0.0
 10
13.5881
 20
138.7877
 30
0.0
 10
13.5881
 20
138.7877
 30
0.0
 10
13.4611
 20
138.8668
 30
0.0
 10
13.3115
 20
138.9077
 30
0.0
 10
13.1408
 20
138.9077
 30
0.0
 10
13.1408
 20
138.9077
 30
0.0
 10
12.8317
 20
138.9077
 30
0.0
 10
12.5763
 20
138.8047
 30
0.0
 10
12.3717
 20
138.5987
 30
0.0
 10
12.3717
 20
138.5987
 30
0.0
 10
12.1685
 20
138.394
 30
0.0
 10
12.0655
 20
138.0653
 30
0.0
 10
12.0655
 20
137.6137
 30
0.0
 10
12.0655
 20
137.6137
 30
0.0
 10
12.0655
 20
137.6137
 30
0.0
 10
12.0655
 20
135.0624
 30
0.0
 10
12.0655
 20
135.0624
 30
0.0
 10
12.0655
 20
135.0624
 30
0.0
 10
12.0655
 20
135.0624
 30
0.0
 10
11.3218
 20
135.0624
 30
0.0
 10
11.3218
 20
135.0624
 30
0.0
 10
11.3218
 20
135.0624
 30
0.0
 10
11.3218
 20
135.0624
 30
0.0
 10
11.3218
 20
137.9143
 30
0.0
 10
11.3218
 20
137.9143
 30
0.0
 10
11.3218
 20
137.9143
 30
0.0
 10
11.3218
 20
138.2459
 30
0.0
 10
11.2612
 20
138.4942
 30
0.0
 10
11.1398
 20
138.6593
 30
0.0
 10
11.1398
 20
138.6593
 30
0.0
 10
11.0185
 20
138.8244
 30
0.0
 10
10.8209
 20
138.9077
 30
0.0
 10
10.5443
 20
138.9077
 30
0.0
 10
10.5443
 20
138.9077
 30
0.0
 10
10.3355
 20
138.9077
 30
0.0
 10
10.1422
 20
138.8527
 30
0.0
 10
9.964400000000001
 20
138.7412
 30
0.0
 10
9.964400000000001
 20
138.7412
 30
0.0
 10
9.7866
 20
138.6311
 30
0.0
 10
9.656700000000001
 20
138.4702
 30
0.0
 10
9.5777
 20
138.2586
 30
0.0
 10
9.5777
 20
138.2586
 30
0.0
 10
9.497300000000001
 20
138.0455
 30
0.0
 10
9.457800000000001
 20
137.7393
 30
0.0
 10
9.457800000000001
 20
137.3399
 30
0.0
 10
9.457800000000001
 20
137.3399
 30
0.0
 10
9.457800000000001
 20
137.3399
 30
0.0
 10
9.457800000000001
 20
135.0624
 30
0.0
 10
9.457800000000001
 20
135.0624
 30
0.0
 10
9.457800000000001
 20
135.0624
 30
0.0
 10
9.457800000000001
 20
135.0624
 30
0.0
 10
8.7141
 20
135.0624
 30
0.0
 10
8.7141
 20
135.0624
 30
0.0
  0
SPLINE
  5
65
330
1F
100
AcDbEntity
  8
52
 62
   250
100
AcDbSpline
210
0.0
220
0.0
230
1.0
 70
    11
 71
     3
 72
   116
 73
   112
 74
     0
 42
0.0000000001
 43
0.0000000001
 40
0.0
 40
0.0
 40
0.0
 40
0.0
 40
0.0357142857142857
 40
0.0357142857142857
 40
0.0357142857142857
 40
0.0357142857142857
 40
0.0714285714285714
 40
0.0714285714285714
 40
0.0714285714285714
 40
0.0714285714285714
 40
0.1071428571428571
 40
0.1071428571428571
 40
0.1071428571428571
 40
0.1071428571428571
 40
0.1428571428571429
 40
0.1428571428571429
 40
0.1428571428571429
 40
0.1428571428571429
 40
0.1785714285714286
 40
0.1785714285714286
 40
0.1785714285714286
 40
0.1785714285714286
 40
0.2142857142857143
 40
0.2142857142857143
 40
0.2142857142857143
 40
0.2142857142857143
 40
0.2499999999999999
 40
0.2499999999999999
 40
0.2499999999999999
 40
0.2499999999999999
 40
0.2857142857142856
 40
0.2857142857142856
 40
0.2857142857142856
 40
0.2857142857142856
 40
0.3214285714285713
 40
0.3214285714285713
 40
0.3214285714285713
 40
0.3214285714285713
 40
0.357142857142857
 40
0.357142857142857
 40
0.357142857142857
 40
0.357142857142857
 40
0.3928571428571427
 40
0.3928571428571427
 40
0.3928571428571427
 40
0.3928571428571427
 40
0.4285714285714284
 40
0.4285714285714284
 40
0.4285714285714284
 40
0.4285714285714284
 40
0.4642857142857141
 40
0.4642857142857141
 40
0.4642857142857141
 40
0.4642857142857141
 40
0.4999999999999998
 40
0.4999999999999998
 40
0.4999999999999998
 40
0.4999999999999998
 40
0.5357142857142856
 40
0.5357142857142856
 40
0.5357142857142856
 40
0.5357142857142856
 40
0.5714285714285713
 40
0.5714285714285713
 40
0.5714285714285713
 40
0.5714285714285713
 40
0.607142857142857
 40
0.607142857142857
 40
0.607142857142857
 40
0.607142857142857
 40
0.6428571428571427
 40
0.6428571428571427
 40
0.6428571428571427
 40
0.6428571428571427
 40
0.6785714285714284
 40
0.6785714285714284
 40
0.6785714285714284
 40
0.6785714285714284
 40
0.7142857142857141
 40
0.7142857142857141
 40
0.7142857142857141
 40
0.7142857142857141
 40
0.7499999999999998
 40
0.7499999999999998
 40
0.7499999999999998
 40
0.7499999999999998
 40
0.7857142857142855
 40
0.7857142857142855
 40
0.7857142857142855
 40
0.7857142857142855
 40
0.8214285714285712
 40
0.8214285714285712
 40
0.8214285714285712
 40
0.8214285714285712
 40
0.8571428571428569
 40
0.8571428571428569
 40
0.8571428571428569
 40
0.8571428571428569
 40
0.8928571428571426
 40
0.8928571428571426
 40
0.8928571428571426
 40
0.8928571428571426
 40
0.9285714285714283
 40
0.9285714285714283
 40
0.9285714285714283
 40
0.9285714285714283
 40
0.964285714285714
 40
0.964285714285714
 40
0.964285714285714
 40
0.964285714285714
 40
1.0
 40
1.0
 40
1.0
 40
1.0
 10
15.7669
 20
135.0624
 30
0.0
 10
15.7669
 20
135.0624
 30
0.0
 10
15.7669
 20
139.4524
 30
0.0
 10
15.7669
 20
139.4524
 30
0.0
 10
15.7669
 20
139.4524
 30
0.0
 10
15.7669
 20
139.4524
 30
0.0
 10
16.4315
 20
139.4524
 30
0.0
 10
16.4315
 20
139.4524
 30
0.0
 10
16.4315
 20
139.4524
 30
0.0
 10
16.4315
 20
139.4524
 30
0.0
 10
16.4315
 20
138.8371
 30
0.0
 10
16.4315
 20
138.8371
 30
0.0
 10
16.4315
 20
138.8371
 30
0.0
 10
16.5698
 20
139.0516
 30
0.0
 10
16.7533
 20
139.2252
 30
0.0
 10
16.9819
 20
139.355
 30
0.0
 10
16.9819
 20
139.355
 30
0.0
 10
17.2105
 20
139.4863
 30
0.0
 10
17.4715
 20
139.5526
 30
0.0
 10
17.7636
 20
139.5526
 30
0.0
 10
17.7636
 20
139.5526
 30
0.0
 10
18.0882
 20
139.5526
 30
0.0
 10
18.3549
 20
139.4848
 30
0.0
 10
18.5623
 20
139.3494
 30
0.0
 10
18.5623
 20
139.3494
 30
0.0
 10
18.7712
 20
139.2139
 30
0.0
 10
18.9179
 20
139.0262
 30
0.0
 10
19.0026
 20
138.7835
 30
0.0
 10
19.0026
 20
138.7835
 30
0.0
 10
19.3511
 20
139.2958
 30
0.0
 10
19.8027
 20
139.5526
 30
0.0
 10
20.3587
 20
139.5526
 30
0.0
 10
20.3587
 20
139.5526
 30
0.0
 10
20.7947
 20
139.5526
 30
0.0
 10
21.1291
 20
139.4312
 30
0.0
 10
21.3634
 20
139.1899
 30
0.0
 10
21.3634
 20
139.1899
 30
0.0
 10
21.5976
 20
138.9486
 30
0.0
 10
21.7148
 20
138.5775
 30
0.0
 10
21.7148
 20
138.0765
 30
0.0
 10
21.7148
 20
138.0765
 30
0.0
 10
21.7148
 20
138.0765
 30
0.0
 10
21.7148
 20
135.0624
 30
0.0
 10
21.7148
 20
135.0624
 30
0.0
 10
21.7148
 20
135.0624
 30
0.0
 10
21.7148
 20
135.0624
 30
0.0
 10
20.9753
 20
135.0624
 30
0.0
 10
20.9753
 20
135.0624
 30
0.0
 10
20.9753
 20
135.0624
 30
0.0
 10
20.9753
 20
135.0624
 30
0.0
 10
20.9753
 20
137.8282
 30
0.0
 10
20.9753
 20
137.8282
 30
0.0
 10
20.9753
 20
137.8282
 30
0.0
 10
20.9753
 20
138.1259
 30
0.0
 10
20.9513
 20
138.3404
 30
0.0
 10
20.9034
 20
138.4717
 30
0.0
 10
20.9034
 20
138.4717
 30
0.0
 10
20.854
 20
138.6015
 30
0.0
 10
20.7665
 20
138.7073
 30
0.0
 10
20.6409
 20
138.7877
 30
0.0
 10
20.6409
 20
138.7877
 30
0.0
 10
20.5139
 20
138.8668
 30
0.0
 10
20.3643
 20
138.9077
 30
0.0
 10
20.1936
 20
138.9077
 30
0.0
 10
20.1936
 20
138.9077
 30
0.0
 10
19.8845
 20
138.9077
 30
0.0
 10
19.6291
 20
138.8047
 30
0.0
 10
19.4245
 20
138.5987
 30
0.0
 10
19.4245
 20
138.5987
 30
0.0
 10
19.2213
 20
138.394
 30
0.0
 10
19.1183
 20
138.0653
 30
0.0
 10
19.1183
 20
137.6137
 30
0.0
 10
19.1183
 20
137.6137
 30
0.0
 10
19.1183
 20
137.6137
 30
0.0
 10
19.1183
 20
135.0624
 30
0.0
 10
19.1183
 20
135.0624
 30
0.0
 10
19.1183
 20
135.0624
 30
0.0
 10
19.1183
 20
135.0624
 30
0.0
 10
18.3746
 20
135.0624
 30
0.0
 10
18.3746
 20
135.0624
 30
0.0
 10
18.3746
 20
135.0624
 30
0.0
 10
18.3746
 20
135.0624
 30
0.0
 10
18.3746
 20
137.9143
 30
0.0
 10
18.3746
 20
137.9143
 30
0.0
 10
18.3746
 20
137.9143
 30
0.0
 10
18.3746
 20
138.2459
 30
0.0
 10
18.314
 20
138.4942
 30
0.0
 10
18.1926
 20
138.6593
 30
0.0
 10
18.1926
 20
138.6593
 30
0.0
 10
18.0713
 20
138.8244
 30
0.0
 10
17.8737
 20
138.9077
 30
0.0
 10
17.5971
 20
138.9077
 30
0.0
 10
17.5971
 20
138.9077
 30
0.0
 10
17.3883
 20
138.9077
 30
0.0
 10
17.195
 20
138.8527
 30
0.0
 10
17.0172
 20
138.7412
 30
0.0
 10
17.0172
 20
138.7412
 30
0.0
 10
16.8394
 20
138.6311
 30
0.0
 10
16.7095
 20
138.4702
 30
0.0
 10
16.6305
 20
138.2586
 30
0.0
 10
16.6305
 20
138.2586
 30
0.0
 10
16.5501
 20
138.0455
 30
0.0
 10
16.5106
 20
137.7393
 30
0.0
 10
16.5106
 20
137.3399
 30
0.0
 10
16.5106
 20
137.3399
 30
0.0
 10
16.5106
 20
137.3399
 30
0.0
 10
16.5106
 20
135.0624
 30
0.0
 10
16.5106
 20
135.0624
 30
0.0
 10
16.5106
 20
135.0624
 30
0.0
 10
16.5106
 20
135.0624
 30
0.0
 10
15.7669
 20
135.0624
 30
0.0
 10
15.7669
 20
135.0624
 30
0.0
  0
SPLINE
  5
66
330
1F
100
AcDbEntity
  8
52
 62
   250
370
     5
100
AcDbSpline
210
0.0
220
0.0
230
1.0
 70
    24
 71
     3
 72
     8
 73
     4
 74
     0
 42
0.0000000001
 43
0.0000000001
 40
0.0
 40
0.0
 40
0.0
 40
0.0
 40
1.0
 40
1.0
 40
1.0
 40
1.0
 10
-146.1164
 20
91.7882
 30
0.0
 10
-146.1164
 20
91.7882
 30
0.0
 10
-146.1164
 20
125.2566
 30
0.0
 10
-146.1164
 20
125.2566
 30
0.0
  0
SPLINE
  5
67
330
1F
100
AcDbEntity
  8
52
 62
   250
370
     5
100
AcDbSpline
210
0.0
220
0.0
230
1.0
 70
    24
 71
     3
 72
     8
 73
     4
 74
     0
 42
0.0000000001
 43
0.0000000001
 40
0.0
 40
0.0
 40
0.0
 40
0.0
 40
1.0
 40
1.0
 40
1.0
 40
1.0
 10
5.1668
 20
91.8086
 30
0.0
 10
5.1668
 20
91.8086
 30
0.0
 10
5.1668
 20
125.2566
 30
0.0
 10
5.1668
 20
125.2566
 30
0.0
  0
SPLINE
  5
68
330
1F
100
AcDbEntity
  8
52
 62
   250
370
     5
100
AcDbSpline
210
0.0
220
0.0
230
1.0
 70
    24
 71
     3
 72
     8
 73
     4
 74
     0
 42
0.0000000001
 43
0.0000000001
 40
0.0
 40
0.0
 40
0.0
 40
0.0
 40
1.0
 40
1.0
 40
1.0
 40
1.0
 10
-146.1164
 20
120.1766
 30
0.0
 10
-146.1164
 20
120.1766
 30
0.0
 10
-99.045
 20
120.1766
 30
0.0
 10
-99.045
 20
120.1766
 30
0.0
  0
SPLINE
  5
69
330
1F
100
AcDbEntity
  8
52
 62
   250
370
     5
100
AcDbSpline
210
0.0
220
0.0
230
1.0
 70
    24
 71
     3
 72
     8
 73
     4
 74
     0
 42
0.0000000001
 43
0.0000000001
 40
0.0
 40
0.0
 40
0.0
 40
0.0
 40
1.0
 40
1.0
 40
1.0
 40
1.0
 10
-44.5364
 20
120.1766
 30
0.0
 10
-44.5364
 20
120.1766
 30
0.0
 10
5.1668
 20
120.1766
 30
0.0
 10
5.1668
 20
120.1766
 30
0.0
  0
SPLINE
  5
6A
330
1F
100
AcDbEntity
  8
52
 62
   250
100
AcDbSpline
210
0.0
220
0.0
230
1.0
 70
    11
 71
     3
 72
    40
 73
    36
 74
     0
 42
0.0000000001
 43
0.0000000001
 40
0.0
 40
0.0
 40
0.0
 40
0.0
 40
0.1111111111111111
 40
0.1111111111111111
 40
0.1111111111111111
 40
0.1111111111111111
 40
0.2222222222222222
 40
0.2222222222222222
 40
0.2222222222222222
 40
0.2222222222222222
 40
0.3333333333333333
 40
0.3333333333333333
 40
0.3333333333333333
 40
0.3333333333333333
 40
0.4444444444444444
 40
0.4444444444444444
 40
0.4444444444444444
 40
0.4444444444444444
 40
0.5555555555555556
 40
0.5555555555555556
 40
0.5555555555555556
 40
0.5555555555555556
 40
0.6666666666666667
 40
0.6666666666666667
 40
0.6666666666666667
 40
0.6666666666666667
 40
0.7777777777777779
 40
0.7777777777777779
 40
0.7777777777777779
 40
0.7777777777777779
 40
0.8888888888888891
 40
0.8888888888888891
 40
0.8888888888888891
 40
0.8888888888888891
 40
1.0
 40
1.0
 40
1.0
 40
1.0
 10
-89.5412
 20
117.1851
 30
0.0
 10
-89.5412
 20
117.1851
 30
0.0
 10
-90.2848
 20
117.1851
 30
0.0
 10
-90.2848
 20
117.1851
 30
0.0
 10
-90.2848
 20
117.1851
 30
0.0
 10
-90.2848
 20
117.1851
 30
0.0
 10
-90.2848
 20
121.9265
 30
0.0
 10
-90.2848
 20
121.9265
 30
0.0
 10
-90.2848
 20
121.9265
 30
0.0
 10
-90.464
 20
121.7557
 30
0.0
 10
-90.6983
 20
121.585
 30
0.0
 10
-90.989
 20
121.4142
 30
0.0
 10
-90.989
 20
121.4142
 30
0.0
 10
-91.28110000000001
 20
121.2435
 30
0.0
 10
-91.54210000000001
 20
121.1151
 30
0.0
 10
-91.7735
 20
121.0304
 30
0.0
 10
-91.7735
 20
121.0304
 30
0.0
 10
-91.7735
 20
121.0304
 30
0.0
 10
-91.7735
 20
121.7487
 30
0.0
 10
-91.7735
 20
121.7487
 30
0.0
 10
-91.7735
 20
121.7487
 30
0.0
 10
-91.35730000000001
 20
121.9448
 30
0.0
 10
-90.9932
 20
122.1819
 30
0.0
 10
-90.68130000000001
 20
122.4599
 30
0.0
 10
-90.68130000000001
 20
122.4599
 30
0.0
 10
-90.37090000000001
 20
122.7393
 30
0.0
 10
-90.14930000000001
 20
123.0088
 30
0.0
 10
-90.01950000000001
 20
123.2712
 30
0.0
 10
-90.01950000000001
 20
123.2712
 30
0.0
 10
-90.01950000000001
 20
123.2712
 30
0.0
 10
-89.5412
 20
123.2712
 30
0.0
 10
-89.5412
 20
123.2712
 30
0.0
 10
-89.5412
 20
123.2712
 30
0.0
 10
-89.5412
 20
123.2712
 30
0.0
 10
-89.5412
 20
117.1851
 30
0.0
 10
-89.5412
 20
117.1851
 30
0.0
  0
SPLINE
  5
6B
330
1F
100
AcDbEntity
  8
52
 62
   250
100
AcDbSpline
210
0.0
220
0.0
230
1.0
 70
    11
 71
     3
 72
    92
 73
    88
 74
     0
 42
0.0000000001
 43
0.0000000001
 40
0.0
 40
0.0
 40
0.0
 40
0.0
 40
0.0454545454545455
 40
0.0454545454545455
 40
0.0454545454545455
 40
0.0454545454545455
 40
0.0909090909090909
 40
0.0909090909090909
 40
0.0909090909090909
 40
0.0909090909090909
 40
0.1363636363636364
 40
0.1363636363636364
 40
0.1363636363636364
 40
0.1363636363636364
 40
0.1818181818181818
 40
0.1818181818181818
 40
0.1818181818181818
 40
0.1818181818181818
 40
0.2272727272727273
 40
0.2272727272727273
 40
0.2272727272727273
 40
0.2272727272727273
 40
0.2727272727272728
 40
0.2727272727272728
 40
0.2727272727272728
 40
0.2727272727272728
 40
0.3181818181818182
 40
0.3181818181818182
 40
0.3181818181818182
 40
0.3181818181818182
 40
0.3636363636363637
 40
0.3636363636363637
 40
0.3636363636363637
 40
0.3636363636363637
 40
0.4090909090909092
 40
0.4090909090909092
 40
0.4090909090909092
 40
0.4090909090909092
 40
0.4545454545454546
 40
0.4545454545454546
 40
0.4545454545454546
 40
0.4545454545454546
 40
0.5000000000000001
 40
0.5000000000000001
 40
0.5000000000000001
 40
0.5000000000000001
 40
0.5454545454545455
 40
0.5454545454545455
 40
0.5454545454545455
 40
0.5454545454545455
 40
0.5909090909090909
 40
0.5909090909090909
 40
0.5909090909090909
 40
0.5909090909090909
 40
0.6363636363636364
 40
0.6363636363636364
 40
0.6363636363636364
 40
0.6363636363636364
 40
0.6818181818181818
 40
0.6818181818181818
 40
0.6818181818181818
 40
0.6818181818181818
 40
0.7272727272727272
 40
0.7272727272727272
 40
0.7272727272727272
 40
0.7272727272727272
 40
0.7727272727272726
 40
0.7727272727272726
 40
0.7727272727272726
 40
0.7727272727272726
 40
0.818181818181818
 40
0.818181818181818
 40
0.818181818181818
 40
0.818181818181818
 40
0.8636363636363634
 40
0.8636363636363634
 40
0.8636363636363634
 40
0.8636363636363634
 40
0.9090909090909088
 40
0.9090909090909088
 40
0.9090909090909088
 40
0.9090909090909088
 40
0.9545454545454543
 40
0.9545454545454543
 40
0.9545454545454543
 40
0.9545454545454543
 40
1.0
 40
1.0
 40
1.0
 40
1.0
 10
-87.63470000000001
 20
118.7726
 30
0.0
 10
-87.63470000000001
 20
118.7726
 30
0.0
 10
-86.85300000000001
 20
118.8389
 30
0.0
 10
-86.85300000000001
 20
118.8389
 30
0.0
 10
-86.85300000000001
 20
118.8389
 30
0.0
 10
-86.79510000000001
 20
118.4579
 30
0.0
 10
-86.66110000000001
 20
118.1729
 30
0.0
 10
-86.4508
 20
117.981
 30
0.0
 10
-86.4508
 20
117.981
 30
0.0
 10
-86.23910000000001
 20
117.7891
 30
0.0
 10
-85.9851
 20
117.6931
 30
0.0
 10
-85.68740000000001
 20
117.6931
 30
0.0
 10
-85.68740000000001
 20
117.6931
 30
0.0
 10
-85.32900000000001
 20
117.6931
 30
0.0
 10
-85.0256
 20
117.8286
 30
0.0
 10
-84.7786
 20
118.0981
 30
0.0
 10
-84.7786
 20
118.0981
 30
0.0
 10
-84.53030000000001
 20
118.369
 30
0.0
 10
-84.40610000000001
 20
118.7275
 30
0.0
 10
-84.40610000000001
 20
119.1734
 30
0.0
 10
-84.40610000000001
 20
119.1734
 30
0.0
 10
-84.40610000000001
 20
119.5981
 30
0.0
 10
-84.52460000000001
 20
119.9325
 30
0.0
 10
-84.76310000000001
 20
120.1781
 30
0.0
 10
-84.76310000000001
 20
120.1781
 30
0.0
 10
-85.00160000000001
 20
120.4236
 30
0.0
 10
-85.3134
 20
120.5464
 30
0.0
 10
-85.70010000000001
 20
120.5464
 30
0.0
 10
-85.70010000000001
 20
120.5464
 30
0.0
 10
-85.94
 20
120.5464
 30
0.0
 10
-86.1559
 20
120.4913
 30
0.0
 10
-86.34920000000001
 20
120.3827
 30
0.0
 10
-86.34920000000001
 20
120.3827
 30
0.0
 10
-86.5425
 20
120.274
 30
0.0
 10
-86.6935
 20
120.1329
 30
0.0
 10
-86.8036
 20
119.9594
 30
0.0
 10
-86.8036
 20
119.9594
 30
0.0
 10
-86.8036
 20
119.9594
 30
0.0
 10
-87.5021
 20
120.0497
 30
0.0
 10
-87.5021
 20
120.0497
 30
0.0
 10
-87.5021
 20
120.0497
 30
0.0
 10
-87.5021
 20
120.0497
 30
0.0
 10
-86.91510000000001
 20
123.1626
 30
0.0
 10
-86.91510000000001
 20
123.1626
 30
0.0
 10
-86.91510000000001
 20
123.1626
 30
0.0
 10
-86.91510000000001
 20
123.1626
 30
0.0
 10
-83.90090000000001
 20
123.1626
 30
0.0
 10
-83.90090000000001
 20
123.1626
 30
0.0
 10
-83.90090000000001
 20
123.1626
 30
0.0
 10
-83.90090000000001
 20
123.1626
 30
0.0
 10
-83.90090000000001
 20
122.4514
 30
0.0
 10
-83.90090000000001
 20
122.4514
 30
0.0
 10
-83.90090000000001
 20
122.4514
 30
0.0
 10
-83.90090000000001
 20
122.4514
 30
0.0
 10
-86.31960000000001
 20
122.4514
 30
0.0
 10
-86.31960000000001
 20
122.4514
 30
0.0
 10
-86.31960000000001
 20
122.4514
 30
0.0
 10
-86.31960000000001
 20
122.4514
 30
0.0
 10
-86.64700000000001
 20
120.823
 30
0.0
 10
-86.64700000000001
 20
120.823
 30
0.0
 10
-86.64700000000001
 20
120.823
 30
0.0
 10
-86.2829
 20
121.077
 30
0.0
 10
-85.90050000000001
 20
121.204
 30
0.0
 10
-85.50110000000001
 20
121.204
 30
0.0
 10
-85.50110000000001
 20
121.204
 30
0.0
 10
-84.97200000000001
 20
121.204
 30
0.0
 10
-84.52600000000001
 20
121.0205
 30
0.0
 10
-84.16200000000001
 20
120.6536
 30
0.0
 10
-84.16200000000001
 20
120.6536
 30
0.0
 10
-83.7979
 20
120.2867
 30
0.0
 10
-83.61590000000001
 20
119.8154
 30
0.0
 10
-83.61590000000001
 20
119.2397
 30
0.0
 10
-83.61590000000001
 20
119.2397
 30
0.0
 10
-83.61590000000001
 20
118.6908
 30
0.0
 10
-83.77670000000001
 20
118.2166
 30
0.0
 10
-84.09570000000001
 20
117.8173
 30
0.0
 10
-84.09570000000001
 20
117.8173
 30
0.0
 10
-84.4851
 20
117.3276
 30
0.0
 10
-85.01570000000001
 20
117.0821
 30
0.0
 10
-85.68740000000001
 20
117.0821
 30
0.0
 10
-85.68740000000001
 20
117.0821
 30
0.0
 10
-86.23910000000001
 20
117.0821
 30
0.0
 10
-86.6893
 20
117.2359
 30
0.0
 10
-87.0378
 20
117.5449
 30
0.0
 10
-87.0378
 20
117.5449
 30
0.0
 10
-87.38640000000001
 20
117.854
 30
0.0
 10
-87.5853
 20
118.2632
 30
0.0
 10
-87.63470000000001
 20
118.7726
 30
0.0
  0
SPLINE
  5
6C
330
1F
100
AcDbEntity
  8
52
 62
   250
100
AcDbSpline
210
0.0
220
0.0
230
1.0
 70
    11
 71
     3
 72
    40
 73
    36
 74
     0
 42
0.0000000001
 43
0.0000000001
 40
0.0
 40
0.0
 40
0.0
 40
0.0
 40
0.1111111111111111
 40
0.1111111111111111
 40
0.1111111111111111
 40
0.1111111111111111
 40
0.2222222222222222
 40
0.2222222222222222
 40
0.2222222222222222
 40
0.2222222222222222
 40
0.3333333333333333
 40
0.3333333333333333
 40
0.3333333333333333
 40
0.3333333333333333
 40
0.4444444444444444
 40
0.4444444444444444
 40
0.4444444444444444
 40
0.4444444444444444
 40
0.5555555555555556
 40
0.5555555555555556
 40
0.5555555555555556
 40
0.5555555555555556
 40
0.6666666666666667
 40
0.6666666666666667
 40
0.6666666666666667
 40
0.6666666666666667
 40
0.7777777777777779
 40
0.7777777777777779
 40
0.7777777777777779
 40
0.7777777777777779
 40
0.8888888888888891
 40
0.8888888888888891
 40
0.8888888888888891
 40
0.8888888888888891
 40
1.0
 40
1.0
 40
1.0
 40
1.0
 10
-80.1234
 20
117.1851
 30
0.0
 10
-80.1234
 20
117.1851
 30
0.0
 10
-80.867
 20
117.1851
 30
0.0
 10
-80.867
 20
117.1851
 30
0.0
 10
-80.867
 20
117.1851
 30
0.0
 10
-80.867
 20
117.1851
 30
0.0
 10
-80.867
 20
121.9265
 30
0.0
 10
-80.867
 20
121.9265
 30
0.0
 10
-80.867
 20
121.9265
 30
0.0
 10
-81.0462
 20
121.7557
 30
0.0
 10
-81.2805
 20
121.585
 30
0.0
 10
-81.57120000000001
 20
121.4142
 30
0.0
 10
-81.57120000000001
 20
121.4142
 30
0.0
 10
-81.86330000000001
 20
121.2435
 30
0.0
 10
-82.12430000000001
 20
121.1151
 30
0.0
 10
-82.3557
 20
121.0304
 30
0.0
 10
-82.3557
 20
121.0304
 30
0.0
 10
-82.3557
 20
121.0304
 30
0.0
 10
-82.3557
 20
121.7487
 30
0.0
 10
-82.3557
 20
121.7487
 30
0.0
 10
-82.3557
 20
121.7487
 30
0.0
 10
-81.93950000000001
 20
121.9448
 30
0.0
 10
-81.5754
 20
122.1819
 30
0.0
 10
-81.26350000000001
 20
122.4599
 30
0.0
 10
-81.26350000000001
 20
122.4599
 30
0.0
 10
-80.95310000000001
 20
122.7393
 30
0.0
 10
-80.7315
 20
123.0088
 30
0.0
 10
-80.60170000000001
 20
123.2712
 30
0.0
 10
-80.60170000000001
 20
123.2712
 30
0.0
 10
-80.60170000000001
 20
123.2712
 30
0.0
 10
-80.1234
 20
123.2712
 30
0.0
 10
-80.1234
 20
123.2712
 30
0.0
 10
-80.1234
 20
123.2712
 30
0.0
 10
-80.1234
 20
123.2712
 30
0.0
 10
-80.1234
 20
117.1851
 30
0.0
 10
-80.1234
 20
117.1851
 30
0.0
  0
SPLINE
  5
6D
330
1F
100
AcDbEntity
  8
52
 62
   250
100
AcDbSpline
210
0.0
220
0.0
230
1.0
 70
    11
 71
     3
 72
    20
 73
    16
 74
     0
 42
0.0000000001
 43
0.0000000001
 40
0.0
 40
0.0
 40
0.0
 40
0.0
 40
0.25
 40
0.25
 40
0.25
 40
0.25
 40
0.5
 40
0.5
 40
0.5
 40
0.5
 40
0.75
 40
0.75
 40
0.75
 40
0.75
 40
1.0
 40
1.0
 40
1.0
 40
1.0
 10
-77.7992
 20
117.1851
 30
0.0
 10
-77.7992
 20
117.1851
 30
0.0
 10
-77.7992
 20
118.0332
 30
0.0
 10
-77.7992
 20
118.0332
 30
0.0
 10
-77.7992
 20
118.0332
 30
0.0
 10
-77.7992
 20
118.0332
 30
0.0
 10
-76.9512
 20
118.0332
 30
0.0
 10
-76.9512
 20
118.0332
 30
0.0
 10
-76.9512
 20
118.0332
 30
0.0
 10
-76.9512
 20
118.0332
 30
0.0
 10
-76.9512
 20
117.1851
 30
0.0
 10
-76.9512
 20
117.1851
 30
0.0
 10
-76.9512
 20
117.1851
 30
0.0
 10
-76.9512
 20
117.1851
 30
0.0
 10
-77.7992
 20
117.1851
 30
0.0
 10
-77.7992
 20
117.1851
 30
0.0
  0
SPLINE
  5
6E
330
1F
100
AcDbEntity
  8
52
 62
   250
100
AcDbSpline
210
0.0
220
0.0
230
1.0
 70
    11
 71
     3
 72
    92
 73
    88
 74
     0
 42
0.0000000001
 43
0.0000000001
 40
0.0
 40
0.0
 40
0.0
 40
0.0
 40
0.0454545454545455
 40
0.0454545454545455
 40
0.0454545454545455
 40
0.0454545454545455
 40
0.0909090909090909
 40
0.0909090909090909
 40
0.0909090909090909
 40
0.0909090909090909
 40
0.1363636363636364
 40
0.1363636363636364
 40
0.1363636363636364
 40
0.1363636363636364
 40
0.1818181818181818
 40
0.1818181818181818
 40
0.1818181818181818
 40
0.1818181818181818
 40
0.2272727272727273
 40
0.2272727272727273
 40
0.2272727272727273
 40
0.2272727272727273
 40
0.2727272727272728
 40
0.2727272727272728
 40
0.2727272727272728
 40
0.2727272727272728
 40
0.3181818181818182
 40
0.3181818181818182
 40
0.3181818181818182
 40
0.3181818181818182
 40
0.3636363636363637
 40
0.3636363636363637
 40
0.3636363636363637
 40
0.3636363636363637
 40
0.4090909090909092
 40
0.4090909090909092
 40
0.4090909090909092
 40
0.4090909090909092
 40
0.4545454545454546
 40
0.4545454545454546
 40
0.4545454545454546
 40
0.4545454545454546
 40
0.5000000000000001
 40
0.5000000000000001
 40
0.5000000000000001
 40
0.5000000000000001
 40
0.5454545454545455
 40
0.5454545454545455
 40
0.5454545454545455
 40
0.5454545454545455
 40
0.5909090909090909
 40
0.5909090909090909
 40
0.5909090909090909
 40
0.5909090909090909
 40
0.6363636363636364
 40
0.6363636363636364
 40
0.6363636363636364
 40
0.6363636363636364
 40
0.6818181818181818
 40
0.6818181818181818
 40
0.6818181818181818
 40
0.6818181818181818
 40
0.7272727272727272
 40
0.7272727272727272
 40
0.7272727272727272
 40
0.7272727272727272
 40
0.7727272727272726
 40
0.7727272727272726
 40
0.7727272727272726
 40
0.7727272727272726
 40
0.818181818181818
 40
0.818181818181818
 40
0.818181818181818
 40
0.818181818181818
 40
0.8636363636363634
 40
0.8636363636363634
 40
0.8636363636363634
 40
0.8636363636363634
 40
0.9090909090909088
 40
0.9090909090909088
 40
0.9090909090909088
 40
0.9090909090909088
 40
0.9545454545454543
 40
0.9545454545454543
 40
0.9545454545454543
 40
0.9545454545454543
 40
1.0
 40
1.0
 40
1.0
 40
1.0
 10
-71.953
 20
117.9005
 30
0.0
 10
-71.953
 20
117.9005
 30
0.0
 10
-71.953
 20
117.1851
 30
0.0
 10
-71.953
 20
117.1851
 30
0.0
 10
-71.953
 20
117.1851
 30
0.0
 10
-71.953
 20
117.1851
 30
0.0
 10
-75.95920000000001
 20
117.1851
 30
0.0
 10
-75.95920000000001
 20
117.1851
 30
0.0
 10
-75.95920000000001
 20
117.1851
 30
0.0
 10
-75.9648
 20
117.3643
 30
0.0
 10
-75.9366
 20
117.5365
 30
0.0
 10
-75.87310000000001
 20
117.7016
 30
0.0
 10
-75.87310000000001
 20
117.7016
 30
0.0
 10
-75.7715
 20
117.9753
 30
0.0
 10
-75.6078
 20
118.2434
 30
0.0
 10
-75.38340000000001
 20
118.5087
 30
0.0
 10
-75.38340000000001
 20
118.5087
 30
0.0
 10
-75.15770000000001
 20
118.7726
 30
0.0
 10
-74.8331
 20
119.0788
 30
0.0
 10
-74.4098
 20
119.426
 30
0.0
 10
-74.4098
 20
119.426
 30
0.0
 10
-73.7508
 20
119.9664
 30
0.0
 10
-73.3049
 20
120.394
 30
0.0
 10
-73.07340000000001
 20
120.7101
 30
0.0
 10
-73.07340000000001
 20
120.7101
 30
0.0
 10
-72.842
 20
121.0247
 30
0.0
 10
-72.72630000000001
 20
121.3239
 30
0.0
 10
-72.72630000000001
 20
121.6047
 30
0.0
 10
-72.72630000000001
 20
121.6047
 30
0.0
 10
-72.72630000000001
 20
121.8996
 30
0.0
 10
-72.8321
 20
122.148
 30
0.0
 10
-73.0424
 20
122.3512
 30
0.0
 10
-73.0424
 20
122.3512
 30
0.0
 10
-73.25410000000001
 20
122.553
 30
0.0
 10
-73.5292
 20
122.6546
 30
0.0
 10
-73.86790000000001
 20
122.6546
 30
0.0
 10
-73.86790000000001
 20
122.6546
 30
0.0
 10
-74.22630000000001
 20
122.6546
 30
0.0
 10
-74.5128
 20
122.5473
 30
0.0
 10
-74.7273
 20
122.3314
 30
0.0
 10
-74.7273
 20
122.3314
 30
0.0
 10
-74.9432
 20
122.117
 30
0.0
 10
-75.0518
 20
121.8192
 30
0.0
 10
-75.0547
 20
121.4396
 30
0.0
 10
-75.0547
 20
121.4396
 30
0.0
 10
-75.0547
 20
121.4396
 30
0.0
 10
-75.81950000000001
 20
121.5172
 30
0.0
 10
-75.81950000000001
 20
121.5172
 30
0.0
 10
-75.81950000000001
 20
121.5172
 30
0.0
 10
-75.76730000000001
 20
122.0887
 30
0.0
 10
-75.5697
 20
122.5234
 30
0.0
 10
-75.2282
 20
122.8225
 30
0.0
 10
-75.2282
 20
122.8225
 30
0.0
 10
-74.88670000000001
 20
123.1217
 30
0.0
 10
-74.4267
 20
123.2712
 30
0.0
 10
-73.851
 20
123.2712
 30
0.0
 10
-73.851
 20
123.2712
 30
0.0
 10
-73.2696
 20
123.2712
 30
0.0
 10
-72.8096
 20
123.109
 30
0.0
 10
-72.4709
 20
122.7872
 30
0.0
 10
-72.4709
 20
122.7872
 30
0.0
 10
-72.13080000000001
 20
122.4641
 30
0.0
 10
-71.9615
 20
122.0647
 30
0.0
 10
-71.9615
 20
121.5878
 30
0.0
 10
-71.9615
 20
121.5878
 30
0.0
 10
-71.9615
 20
121.3451
 30
0.0
 10
-72.01090000000001
 20
121.1066
 30
0.0
 10
-72.11110000000001
 20
120.8723
 30
0.0
 10
-72.11110000000001
 20
120.8723
 30
0.0
 10
-72.2098
 20
120.6381
 30
0.0
 10
-72.3749
 20
120.3912
 30
0.0
 10
-72.605
 20
120.1329
 30
0.0
 10
-72.605
 20
120.1329
 30
0.0
 10
-72.83500000000001
 20
119.8733
 30
0.0
 10
-73.2174
 20
119.5177
 30
0.0
 10
-73.7522
 20
119.0661
 30
0.0
 10
-73.7522
 20
119.0661
 30
0.0
 10
-74.1981
 20
118.6908
 30
0.0
 10
-74.4846
 20
118.4368
 30
0.0
 10
-74.61160000000001
 20
118.3027
 30
0.0
 10
-74.61160000000001
 20
118.3027
 30
0.0
 10
-74.73860000000001
 20
118.1701
 30
0.0
 10
-74.843
 20
118.036
 30
0.0
 10
-74.92620000000001
 20
117.9005
 30
0.0
 10
-74.92620000000001
 20
117.9005
 30
0.0
 10
-74.92620000000001
 20
117.9005
 30
0.0
 10
-71.953
 20
117.9005
 30
0.0
 10
-71.953
 20
117.9005
 30
0.0
  0
SPLINE
  5
6F
330
1F
100
AcDbEntity
  8
52
 62
   250
100
AcDbSpline
210
0.0
220
0.0
230
1.0
 70
    11
 71
     3
 72
    68
 73
    64
 74
     0
 42
0.0000000001
 43
0.0000000001
 40
0.0
 40
0.0
 40
0.0
 40
0.0
 40
0.0625
 40
0.0625
 40
0.0625
 40
0.0625
 40
0.125
 40
0.125
 40
0.125
 40
0.125
 40
0.1875
 40
0.1875
 40
0.1875
 40
0.1875
 40
0.25
 40
0.25
 40
0.25
 40
0.25
 40
0.3125
 40
0.3125
 40
0.3125
 40
0.3125
 40
0.375
 40
0.375
 40
0.375
 40
0.375
 40
0.4375
 40
0.4375
 40
0.4375
 40
0.4375
 40
0.5
 40
0.5
 40
0.5
 40
0.5
 40
0.5625
 40
0.5625
 40
0.5625
 40
0.5625
 40
0.625
 40
0.625
 40
0.625
 40
0.625
 40
0.6875
 40
0.6875
 40
0.6875
 40
0.6875
 40
0.75
 40
0.75
 40
0.75
 40
0.75
 40
0.8125
 40
0.8125
 40
0.8125
 40
0.8125
 40
0.875
 40
0.875
 40
0.875
 40
0.875
 40
0.9375
 40
0.9375
 40
0.9375
 40
0.9375
 40
1.0
 40
1.0
 40
1.0
 40
1.0
 10
-70.0099
 20
120.4716
 30
0.0
 10
-70.3189
 20
120.5845
 30
0.0
 10
-70.5475
 20
120.7453
 30
0.0
 10
-70.69710000000001
 20
120.9556
 30
0.0
 10
-70.69710000000001
 20
120.9556
 30
0.0
 10
-70.84530000000001
 20
121.1644
 30
0.0
 10
-70.92010000000001
 20
121.4156
 30
0.0
 10
-70.92010000000001
 20
121.7077
 30
0.0
 10
-70.92010000000001
 20
121.7077
 30
0.0
 10
-70.92010000000001
 20
122.1494
 30
0.0
 10
-70.762
 20
122.5191
 30
0.0
 10
-70.44450000000001
 20
122.8197
 30
0.0
 10
-70.44450000000001
 20
122.8197
 30
0.0
 10
-70.12700000000001
 20
123.1203
 30
0.0
 10
-69.70650000000001
 20
123.2712
 30
0.0
 10
-69.1802
 20
123.2712
 30
0.0
 10
-69.1802
 20
123.2712
 30
0.0
 10
-68.651
 20
123.2712
 30
0.0
 10
-68.2248
 20
123.1174
 30
0.0
 10
-67.90170000000001
 20
122.8098
 30
0.0
 10
-67.90170000000001
 20
122.8098
 30
0.0
 10
-67.58
 20
122.5022
 30
0.0
 10
-67.4191
 20
122.1282
 30
0.0
 10
-67.4191
 20
121.6866
 30
0.0
 10
-67.4191
 20
121.6866
 30
0.0
 10
-67.4191
 20
121.4057
 30
0.0
 10
-67.49250000000001
 20
121.1616
 30
0.0
 10
-67.6392
 20
120.9528
 30
0.0
 10
-67.6392
 20
120.9528
 30
0.0
 10
-67.78740000000001
 20
120.7453
 30
0.0
 10
-68.0104
 20
120.5845
 30
0.0
 10
-68.3109
 20
120.4716
 30
0.0
 10
-68.3109
 20
120.4716
 30
0.0
 10
-67.93980000000001
 20
120.3502
 30
0.0
 10
-67.6562
 20
120.1555
 30
0.0
 10
-67.4614
 20
119.8846
 30
0.0
 10
-67.4614
 20
119.8846
 30
0.0
 10
-67.2681
 20
119.615
 30
0.0
 10
-67.1707
 20
119.2919
 30
0.0
 10
-67.1707
 20
118.918
 30
0.0
 10
-67.1707
 20
118.918
 30
0.0
 10
-67.1707
 20
118.3987
 30
0.0
 10
-67.35420000000001
 20
117.964
 30
0.0
 10
-67.7197
 20
117.6113
 30
0.0
 10
-67.7197
 20
117.6113
 30
0.0
 10
-68.0866
 20
117.2585
 30
0.0
 10
-68.56920000000001
 20
117.0821
 30
0.0
 10
-69.1675
 20
117.0821
 30
0.0
 10
-69.1675
 20
117.0821
 30
0.0
 10
-69.7658
 20
117.0821
 30
0.0
 10
-70.247
 20
117.2585
 30
0.0
 10
-70.6139
 20
117.6127
 30
0.0
 10
-70.6139
 20
117.6127
 30
0.0
 10
-70.9808
 20
117.9669
 30
0.0
 10
-71.16420000000001
 20
118.4085
 30
0.0
 10
-71.16420000000001
 20
118.9377
 30
0.0
 10
-71.16420000000001
 20
118.9377
 30
0.0
 10
-71.16420000000001
 20
119.3314
 30
0.0
 10
-71.06400000000001
 20
119.6616
 30
0.0
 10
-70.86360000000001
 20
119.9283
 30
0.0
 10
-70.86360000000001
 20
119.9283
 30
0.0
 10
-70.6647
 20
120.1936
 30
0.0
 10
-70.3796
 20
120.3756
 30
0.0
 10
-70.0099
 20
120.4716
 30
0.0
  0
SPLINE
  5
70
330
1F
100
AcDbEntity
  8
52
 62
   250
100
AcDbSpline
210
0.0
220
0.0
230
1.0
 70
    11
 71
     3
 72
    36
 73
    32
 74
     0
 42
0.0000000001
 43
0.0000000001
 40
0.0
 40
0.0
 40
0.0
 40
0.0
 40
0.125
 40
0.125
 40
0.125
 40
0.125
 40
0.25
 40
0.25
 40
0.25
 40
0.25
 40
0.375
 40
0.375
 40
0.375
 40
0.375
 40
0.5
 40
0.5
 40
0.5
 40
0.5
 40
0.625
 40
0.625
 40
0.625
 40
0.625
 40
0.75
 40
0.75
 40
0.75
 40
0.75
 40
0.875
 40
0.875
 40
0.875
 40
0.875
 40
1.0
 40
1.0
 40
1.0
 40
1.0
 10
-70.15950000000001
 20
121.7331
 30
0.0
 10
-70.15950000000001
 20
121.4467
 30
0.0
 10
-70.0663
 20
121.2124
 30
0.0
 10
-69.88290000000001
 20
121.0304
 30
0.0
 10
-69.88290000000001
 20
121.0304
 30
0.0
 10
-69.69800000000001
 20
120.8484
 30
0.0
 10
-69.45820000000001
 20
120.7566
 30
0.0
 10
-69.1632
 20
120.7566
 30
0.0
 10
-69.1632
 20
120.7566
 30
0.0
 10
-68.8768
 20
120.7566
 30
0.0
 10
-68.64110000000001
 20
120.8469
 30
0.0
 10
-68.4577
 20
121.0276
 30
0.0
 10
-68.4577
 20
121.0276
 30
0.0
 10
-68.27420000000001
 20
121.2082
 30
0.0
 10
-68.18390000000001
 20
121.4297
 30
0.0
 10
-68.18390000000001
 20
121.6908
 30
0.0
 10
-68.18390000000001
 20
121.6908
 30
0.0
 10
-68.18390000000001
 20
121.9646
 30
0.0
 10
-68.2771
 20
122.1932
 30
0.0
 10
-68.4661
 20
122.3794
 30
0.0
 10
-68.4661
 20
122.3794
 30
0.0
 10
-68.65520000000001
 20
122.5657
 30
0.0
 10
-68.8895
 20
122.6588
 30
0.0
 10
-69.1717
 20
122.6588
 30
0.0
 10
-69.1717
 20
122.6588
 30
0.0
 10
-69.45530000000001
 20
122.6588
 30
0.0
 10
-69.691
 20
122.5671
 30
0.0
 10
-69.87870000000001
 20
122.3865
 30
0.0
 10
-69.87870000000001
 20
122.3865
 30
0.0
 10
-70.0663
 20
122.2044
 30
0.0
 10
-70.15950000000001
 20
121.9857
 30
0.0
 10
-70.15950000000001
 20
121.7331
 30
0.0
  0
SPLINE
  5
71
330
1F
100
AcDbEntity
  8
52
 62
   250
100
AcDbSpline
210
0.0
220
0.0
230
1.0
 70
    11
 71
     3
 72
    40
 73
    36
 74
     0
 42
0.0000000001
 43
0.0000000001
 40
0.0
 40
0.0
 40
0.0
 40
0.0
 40
0.1111111111111111
 40
0.1111111111111111
 40
0.1111111111111111
 40
0.1111111111111111
 40
0.2222222222222222
 40
0.2222222222222222
 40
0.2222222222222222
 40
0.2222222222222222
 40
0.3333333333333333
 40
0.3333333333333333
 40
0.3333333333333333
 40
0.3333333333333333
 40
0.4444444444444444
 40
0.4444444444444444
 40
0.4444444444444444
 40
0.4444444444444444
 40
0.5555555555555556
 40
0.5555555555555556
 40
0.5555555555555556
 40
0.5555555555555556
 40
0.6666666666666667
 40
0.6666666666666667
 40
0.6666666666666667
 40
0.6666666666666667
 40
0.7777777777777779
 40
0.7777777777777779
 40
0.7777777777777779
 40
0.7777777777777779
 40
0.8888888888888891
 40
0.8888888888888891
 40
0.8888888888888891
 40
0.8888888888888891
 40
1.0
 40
1.0
 40
1.0
 40
1.0
 10
-70.3994
 20
118.9335
 30
0.0
 10
-70.3994
 20
118.7218
 30
0.0
 10
-70.34860000000001
 20
118.5158
 30
0.0
 10
-70.2484
 20
118.3182
 30
0.0
 10
-70.2484
 20
118.3182
 30
0.0
 10
-70.1482
 20
118.1193
 30
0.0
 10
-69.99860000000001
 20
117.9654
 30
0.0
 10
-69.7996
 20
117.8568
 30
0.0
 10
-69.7996
 20
117.8568
 30
0.0
 10
-69.6007
 20
117.7481
 30
0.0
 10
-69.38760000000001
 20
117.6931
 30
0.0
 10
-69.15900000000001
 20
117.6931
 30
0.0
 10
-69.15900000000001
 20
117.6931
 30
0.0
 10
-68.8034
 20
117.6931
 30
0.0
 10
-68.5099
 20
117.8074
 30
0.0
 10
-68.27850000000001
 20
118.0374
 30
0.0
 10
-68.27850000000001
 20
118.0374
 30
0.0
 10
-68.047
 20
118.266
 30
0.0
 10
-67.93130000000001
 20
118.5567
 30
0.0
 10
-67.93130000000001
 20
118.9095
 30
0.0
 10
-67.93130000000001
 20
118.9095
 30
0.0
 10
-67.93130000000001
 20
119.2679
 30
0.0
 10
-68.04990000000001
 20
119.5642
 30
0.0
 10
-68.28830000000001
 20
119.7985
 30
0.0
 10
-68.28830000000001
 20
119.7985
 30
0.0
 10
-68.52680000000001
 20
120.0327
 30
0.0
 10
-68.82600000000001
 20
120.1499
 30
0.0
 10
-69.1844
 20
120.1499
 30
0.0
 10
-69.1844
 20
120.1499
 30
0.0
 10
-69.53440000000001
 20
120.1499
 30
0.0
 10
-69.8236
 20
120.0341
 30
0.0
 10
-70.0536
 20
119.8027
 30
0.0
 10
-70.0536
 20
119.8027
 30
0.0
 10
-70.28370000000001
 20
119.5699
 30
0.0
 10
-70.3994
 20
119.2806
 30
0.0
 10
-70.3994
 20
118.9335
 30
0.0
  0
SPLINE
  5
72
330
1F
100
AcDbEntity
  8
52
 62
   250
100
AcDbSpline
210
0.0
220
0.0
230
1.0
 70
    11
 71
     3
 72
   116
 73
   112
 74
     0
 42
0.0000000001
 43
0.0000000001
 40
0.0
 40
0.0
 40
0.0
 40
0.0
 40
0.0357142857142857
 40
0.0357142857142857
 40
0.0357142857142857
 40
0.0357142857142857
 40
0.0714285714285714
 40
0.0714285714285714
 40
0.0714285714285714
 40
0.0714285714285714
 40
0.1071428571428571
 40
0.1071428571428571
 40
0.1071428571428571
 40
0.1071428571428571
 40
0.1428571428571429
 40
0.1428571428571429
 40
0.1428571428571429
 40
0.1428571428571429
 40
0.1785714285714286
 40
0.1785714285714286
 40
0.1785714285714286
 40
0.1785714285714286
 40
0.2142857142857143
 40
0.2142857142857143
 40
0.2142857142857143
 40
0.2142857142857143
 40
0.2499999999999999
 40
0.2499999999999999
 40
0.2499999999999999
 40
0.2499999999999999
 40
0.2857142857142856
 40
0.2857142857142856
 40
0.2857142857142856
 40
0.2857142857142856
 40
0.3214285714285713
 40
0.3214285714285713
 40
0.3214285714285713
 40
0.3214285714285713
 40
0.357142857142857
 40
0.357142857142857
 40
0.357142857142857
 40
0.357142857142857
 40
0.3928571428571427
 40
0.3928571428571427
 40
0.3928571428571427
 40
0.3928571428571427
 40
0.4285714285714284
 40
0.4285714285714284
 40
0.4285714285714284
 40
0.4285714285714284
 40
0.4642857142857141
 40
0.4642857142857141
 40
0.4642857142857141
 40
0.4642857142857141
 40
0.4999999999999998
 40
0.4999999999999998
 40
0.4999999999999998
 40
0.4999999999999998
 40
0.5357142857142856
 40
0.5357142857142856
 40
0.5357142857142856
 40
0.5357142857142856
 40
0.5714285714285713
 40
0.5714285714285713
 40
0.5714285714285713
 40
0.5714285714285713
 40
0.607142857142857
 40
0.607142857142857
 40
0.607142857142857
 40
0.607142857142857
 40
0.6428571428571427
 40
0.6428571428571427
 40
0.6428571428571427
 40
0.6428571428571427
 40
0.6785714285714284
 40
0.6785714285714284
 40
0.6785714285714284
 40
0.6785714285714284
 40
0.7142857142857141
 40
0.7142857142857141
 40
0.7142857142857141
 40
0.7142857142857141
 40
0.7499999999999998
 40
0.7499999999999998
 40
0.7499999999999998
 40
0.7499999999999998
 40
0.7857142857142855
 40
0.7857142857142855
 40
0.7857142857142855
 40
0.7857142857142855
 40
0.8214285714285712
 40
0.8214285714285712
 40
0.8214285714285712
 40
0.8214285714285712
 40
0.8571428571428569
 40
0.8571428571428569
 40
0.8571428571428569
 40
0.8571428571428569
 40
0.8928571428571426
 40
0.8928571428571426
 40
0.8928571428571426
 40
0.8928571428571426
 40
0.9285714285714283
 40
0.9285714285714283
 40
0.9285714285714283
 40
0.9285714285714283
 40
0.964285714285714
 40
0.964285714285714
 40
0.964285714285714
 40
0.964285714285714
 40
1.0
 40
1.0
 40
1.0
 40
1.0
 10
-63.8871
 20
117.1851
 30
0.0
 10
-63.8871
 20
117.1851
 30
0.0
 10
-63.8871
 20
121.5751
 30
0.0
 10
-63.8871
 20
121.5751
 30
0.0
 10
-63.8871
 20
121.5751
 30
0.0
 10
-63.8871
 20
121.5751
 30
0.0
 10
-63.2225
 20
121.5751
 30
0.0
 10
-63.2225
 20
121.5751
 30
0.0
 10
-63.2225
 20
121.5751
 30
0.0
 10
-63.2225
 20
121.5751
 30
0.0
 10
-63.2225
 20
120.9598
 30
0.0
 10
-63.2225
 20
120.9598
 30
0.0
 10
-63.2225
 20
120.9598
 30
0.0
 10
-63.0842
 20
121.1743
 30
0.0
 10
-62.9007
 20
121.3479
 30
0.0
 10
-62.6721
 20
121.4777
 30
0.0
 10
-62.6721
 20
121.4777
 30
0.0
 10
-62.4435
 20
121.609
 30
0.0
 10
-62.18250000000001
 20
121.6753
 30
0.0
 10
-61.8904
 20
121.6753
 30
0.0
 10
-61.8904
 20
121.6753
 30
0.0
 10
-61.5658
 20
121.6753
 30
0.0
 10
-61.2991
 20
121.6075
 30
0.0
 10
-61.0917
 20
121.4721
 30
0.0
 10
-61.0917
 20
121.4721
 30
0.0
 10
-60.8828
 20
121.3366
 30
0.0
 10
-60.7361
 20
121.1489
 30
0.0
 10
-60.6514
 20
120.9062
 30
0.0
 10
-60.6514
 20
120.9062
 30
0.0
 10
-60.3029
 20
121.4185
 30
0.0
 10
-59.8513
 20
121.6753
 30
0.0
 10
-59.29530000000001
 20
121.6753
 30
0.0
 10
-59.29530000000001
 20
121.6753
 30
0.0
 10
-58.85930000000001
 20
121.6753
 30
0.0
 10
-58.5249
 20
121.5539
 30
0.0
 10
-58.29060000000001
 20
121.3126
 30
0.0
 10
-58.29060000000001
 20
121.3126
 30
0.0
 10
-58.0564
 20
121.0713
 30
0.0
 10
-57.9392
 20
120.7002
 30
0.0
 10
-57.9392
 20
120.1992
 30
0.0
 10
-57.9392
 20
120.1992
 30
0.0
 10
-57.9392
 20
120.1992
 30
0.0
 10
-57.9392
 20
117.1851
 30
0.0
 10
-57.9392
 20
117.1851
 30
0.0
 10
-57.9392
 20
117.1851
 30
0.0
 10
-57.9392
 20
117.1851
 30
0.0
 10
-58.67870000000001
 20
117.1851
 30
0.0
 10
-58.67870000000001
 20
117.1851
 30
0.0
 10
-58.67870000000001
 20
117.1851
 30
0.0
 10
-58.67870000000001
 20
117.1851
 30
0.0
 10
-58.67870000000001
 20
119.9509
 30
0.0
 10
-58.67870000000001
 20
119.9509
 30
0.0
 10
-58.67870000000001
 20
119.9509
 30
0.0
 10
-58.67870000000001
 20
120.2486
 30
0.0
 10
-58.7027
 20
120.4631
 30
0.0
 10
-58.75060000000001
 20
120.5944
 30
0.0
 10
-58.75060000000001
 20
120.5944
 30
0.0
 10
-58.8
 20
120.7242
 30
0.0
 10
-58.8875
 20
120.83
 30
0.0
 10
-59.0131
 20
120.9104
 30
0.0
 10
-59.0131
 20
120.9104
 30
0.0
 10
-59.1401
 20
120.9895
 30
0.0
 10
-59.2897
 20
121.0304
 30
0.0
 10
-59.4604
 20
121.0304
 30
0.0
 10
-59.4604
 20
121.0304
 30
0.0
 10
-59.7695
 20
121.0304
 30
0.0
 10
-60.0249
 20
120.9274
 30
0.0
 10
-60.2295
 20
120.7214
 30
0.0
 10
-60.2295
 20
120.7214
 30
0.0
 10
-60.4327
 20
120.5167
 30
0.0
 10
-60.53570000000001
 20
120.188
 30
0.0
 10
-60.53570000000001
 20
119.7364
 30
0.0
 10
-60.53570000000001
 20
119.7364
 30
0.0
 10
-60.53570000000001
 20
119.7364
 30
0.0
 10
-60.53570000000001
 20
117.1851
 30
0.0
 10
-60.53570000000001
 20
117.1851
 30
0.0
 10
-60.53570000000001
 20
117.1851
 30
0.0
 10
-60.53570000000001
 20
117.1851
 30
0.0
 10
-61.2794
 20
117.1851
 30
0.0
 10
-61.2794
 20
117.1851
 30
0.0
 10
-61.2794
 20
117.1851
 30
0.0
 10
-61.2794
 20
117.1851
 30
0.0
 10
-61.2794
 20
120.037
 30
0.0
 10
-61.2794
 20
120.037
 30
0.0
 10
-61.2794
 20
120.037
 30
0.0
 10
-61.2794
 20
120.3686
 30
0.0
 10
-61.34
 20
120.6169
 30
0.0
 10
-61.46140000000001
 20
120.782
 30
0.0
 10
-61.46140000000001
 20
120.782
 30
0.0
 10
-61.5827
 20
120.9471
 30
0.0
 10
-61.7803
 20
121.0304
 30
0.0
 10
-62.05690000000001
 20
121.0304
 30
0.0
 10
-62.05690000000001
 20
121.0304
 30
0.0
 10
-62.2657
 20
121.0304
 30
0.0
 10
-62.459
 20
120.9754
 30
0.0
 10
-62.6368
 20
120.8639
 30
0.0
 10
-62.6368
 20
120.8639
 30
0.0
 10
-62.81460000000001
 20
120.7538
 30
0.0
 10
-62.94450000000001
 20
120.5929
 30
0.0
 10
-63.02350000000001
 20
120.3813
 30
0.0
 10
-63.02350000000001
 20
120.3813
 30
0.0
 10
-63.1039
 20
120.1682
 30
0.0
 10
-63.1434
 20
119.862
 30
0.0
 10
-63.1434
 20
119.4626
 30
0.0
 10
-63.1434
 20
119.4626
 30
0.0
 10
-63.1434
 20
119.4626
 30
0.0
 10
-63.1434
 20
117.1851
 30
0.0
 10
-63.1434
 20
117.1851
 30
0.0
 10
-63.1434
 20
117.1851
 30
0.0
 10
-63.1434
 20
117.1851
 30
0.0
 10
-63.8871
 20
117.1851
 30
0.0
 10
-63.8871
 20
117.1851
 30
0.0
  0
SPLINE
  5
73
330
1F
100
AcDbEntity
  8
52
 62
   250
100
AcDbSpline
210
0.0
220
0.0
230
1.0
 70
    11
 71
     3
 72
   116
 73
   112
 74
     0
 42
0.0000000001
 43
0.0000000001
 40
0.0
 40
0.0
 40
0.0
 40
0.0
 40
0.0357142857142857
 40
0.0357142857142857
 40
0.0357142857142857
 40
0.0357142857142857
 40
0.0714285714285714
 40
0.0714285714285714
 40
0.0714285714285714
 40
0.0714285714285714
 40
0.1071428571428571
 40
0.1071428571428571
 40
0.1071428571428571
 40
0.1071428571428571
 40
0.1428571428571429
 40
0.1428571428571429
 40
0.1428571428571429
 40
0.1428571428571429
 40
0.1785714285714286
 40
0.1785714285714286
 40
0.1785714285714286
 40
0.1785714285714286
 40
0.2142857142857143
 40
0.2142857142857143
 40
0.2142857142857143
 40
0.2142857142857143
 40
0.2499999999999999
 40
0.2499999999999999
 40
0.2499999999999999
 40
0.2499999999999999
 40
0.2857142857142856
 40
0.2857142857142856
 40
0.2857142857142856
 40
0.2857142857142856
 40
0.3214285714285713
 40
0.3214285714285713
 40
0.3214285714285713
 40
0.3214285714285713
 40
0.357142857142857
 40
0.357142857142857
 40
0.357142857142857
 40
0.357142857142857
 40
0.3928571428571427
 40
0.3928571428571427
 40
0.3928571428571427
 40
0.3928571428571427
 40
0.4285714285714284
 40
0.4285714285714284
 40
0.4285714285714284
 40
0.4285714285714284
 40
0.4642857142857141
 40
0.4642857142857141
 40
0.4642857142857141
 40
0.4642857142857141
 40
0.4999999999999998
 40
0.4999999999999998
 40
0.4999999999999998
 40
0.4999999999999998
 40
0.5357142857142856
 40
0.5357142857142856
 40
0.5357142857142856
 40
0.5357142857142856
 40
0.5714285714285713
 40
0.5714285714285713
 40
0.5714285714285713
 40
0.5714285714285713
 40
0.607142857142857
 40
0.607142857142857
 40
0.607142857142857
 40
0.607142857142857
 40
0.6428571428571427
 40
0.6428571428571427
 40
0.6428571428571427
 40
0.6428571428571427
 40
0.6785714285714284
 40
0.6785714285714284
 40
0.6785714285714284
 40
0.6785714285714284
 40
0.7142857142857141
 40
0.7142857142857141
 40
0.7142857142857141
 40
0.7142857142857141
 40
0.7499999999999998
 40
0.7499999999999998
 40
0.7499999999999998
 40
0.7499999999999998
 40
0.7857142857142855
 40
0.7857142857142855
 40
0.7857142857142855
 40
0.7857142857142855
 40
0.8214285714285712
 40
0.8214285714285712
 40
0.8214285714285712
 40
0.8214285714285712
 40
0.8571428571428569
 40
0.8571428571428569
 40
0.8571428571428569
 40
0.8571428571428569
 40
0.8928571428571426
 40
0.8928571428571426
 40
0.8928571428571426
 40
0.8928571428571426
 40
0.9285714285714283
 40
0.9285714285714283
 40
0.9285714285714283
 40
0.9285714285714283
 40
0.964285714285714
 40
0.964285714285714
 40
0.964285714285714
 40
0.964285714285714
 40
1.0
 40
1.0
 40
1.0
 40
1.0
 10
-56.83430000000001
 20
117.1851
 30
0.0
 10
-56.83430000000001
 20
117.1851
 30
0.0
 10
-56.83430000000001
 20
121.5751
 30
0.0
 10
-56.83430000000001
 20
121.5751
 30
0.0
 10
-56.83430000000001
 20
121.5751
 30
0.0
 10
-56.83430000000001
 20
121.5751
 30
0.0
 10
-56.16970000000001
 20
121.5751
 30
0.0
 10
-56.16970000000001
 20
121.5751
 30
0.0
 10
-56.16970000000001
 20
121.5751
 30
0.0
 10
-56.16970000000001
 20
121.5751
 30
0.0
 10
-56.16970000000001
 20
120.9598
 30
0.0
 10
-56.16970000000001
 20
120.9598
 30
0.0
 10
-56.16970000000001
 20
120.9598
 30
0.0
 10
-56.03140000000001
 20
121.1743
 30
0.0
 10
-55.8479
 20
121.3479
 30
0.0
 10
-55.6193
 20
121.4777
 30
0.0
 10
-55.6193
 20
121.4777
 30
0.0
 10
-55.3907
 20
121.609
 30
0.0
 10
-55.1297
 20
121.6753
 30
0.0
 10
-54.8376
 20
121.6753
 30
0.0
 10
-54.8376
 20
121.6753
 30
0.0
 10
-54.51300000000001
 20
121.6753
 30
0.0
 10
-54.24630000000001
 20
121.6075
 30
0.0
 10
-54.03890000000001
 20
121.4721
 30
0.0
 10
-54.03890000000001
 20
121.4721
 30
0.0
 10
-53.83000000000001
 20
121.3366
 30
0.0
 10
-53.6833
 20
121.1489
 30
0.0
 10
-53.59860000000001
 20
120.9062
 30
0.0
 10
-53.59860000000001
 20
120.9062
 30
0.0
 10
-53.2501
 20
121.4185
 30
0.0
 10
-52.7985
 20
121.6753
 30
0.0
 10
-52.2425
 20
121.6753
 30
0.0
 10
-52.2425
 20
121.6753
 30
0.0
 10
-51.8065
 20
121.6753
 30
0.0
 10
-51.47210000000001
 20
121.5539
 30
0.0
 10
-51.2378
 20
121.3126
 30
0.0
 10
-51.2378
 20
121.3126
 30
0.0
 10
-51.00360000000001
 20
121.0713
 30
0.0
 10
-50.8864
 20
120.7002
 30
0.0
 10
-50.8864
 20
120.1992
 30
0.0
 10
-50.8864
 20
120.1992
 30
0.0
 10
-50.8864
 20
120.1992
 30
0.0
 10
-50.8864
 20
117.1851
 30
0.0
 10
-50.8864
 20
117.1851
 30
0.0
 10
-50.8864
 20
117.1851
 30
0.0
 10
-50.8864
 20
117.1851
 30
0.0
 10
-51.6259
 20
117.1851
 30
0.0
 10
-51.6259
 20
117.1851
 30
0.0
 10
-51.6259
 20
117.1851
 30
0.0
 10
-51.6259
 20
117.1851
 30
0.0
 10
-51.6259
 20
119.9509
 30
0.0
 10
-51.6259
 20
119.9509
 30
0.0
 10
-51.6259
 20
119.9509
 30
0.0
 10
-51.6259
 20
120.2486
 30
0.0
 10
-51.6499
 20
120.4631
 30
0.0
 10
-51.6978
 20
120.5944
 30
0.0
 10
-51.6978
 20
120.5944
 30
0.0
 10
-51.7472
 20
120.7242
 30
0.0
 10
-51.83470000000001
 20
120.83
 30
0.0
 10
-51.9603
 20
120.9104
 30
0.0
 10
-51.9603
 20
120.9104
 30
0.0
 10
-52.0873
 20
120.9895
 30
0.0
 10
-52.23690000000001
 20
121.0304
 30
0.0
 10
-52.4076
 20
121.0304
 30
0.0
 10
-52.4076
 20
121.0304
 30
0.0
 10
-52.7167
 20
121.0304
 30
0.0
 10
-52.97210000000001
 20
120.9274
 30
0.0
 10
-53.1767
 20
120.7214
 30
0.0
 10
-53.1767
 20
120.7214
 30
0.0
 10
-53.3799
 20
120.5167
 30
0.0
 10
-53.4829
 20
120.188
 30
0.0
 10
-53.4829
 20
119.7364
 30
0.0
 10
-53.4829
 20
119.7364
 30
0.0
 10
-53.4829
 20
119.7364
 30
0.0
 10
-53.4829
 20
117.1851
 30
0.0
 10
-53.4829
 20
117.1851
 30
0.0
 10
-53.4829
 20
117.1851
 30
0.0
 10
-53.4829
 20
117.1851
 30
0.0
 10
-54.22660000000001
 20
117.1851
 30
0.0
 10
-54.22660000000001
 20
117.1851
 30
0.0
 10
-54.22660000000001
 20
117.1851
 30
0.0
 10
-54.22660000000001
 20
117.1851
 30
0.0
 10
-54.22660000000001
 20
120.037
 30
0.0
 10
-54.22660000000001
 20
120.037
 30
0.0
 10
-54.22660000000001
 20
120.037
 30
0.0
 10
-54.22660000000001
 20
120.3686
 30
0.0
 10
-54.28720000000001
 20
120.6169
 30
0.0
 10
-54.4086
 20
120.782
 30
0.0
 10
-54.4086
 20
120.782
 30
0.0
 10
-54.52990000000001
 20
120.9471
 30
0.0
 10
-54.7275
 20
121.0304
 30
0.0
 10
-55.0041
 20
121.0304
 30
0.0
 10
-55.0041
 20
121.0304
 30
0.0
 10
-55.21290000000001
 20
121.0304
 30
0.0
 10
-55.40620000000001
 20
120.9754
 30
0.0
 10
-55.584
 20
120.8639
 30
0.0
 10
-55.584
 20
120.8639
 30
0.0
 10
-55.7618
 20
120.7538
 30
0.0
 10
-55.8917
 20
120.5929
 30
0.0
 10
-55.9707
 20
120.3813
 30
0.0
 10
-55.9707
 20
120.3813
 30
0.0
 10
-56.05110000000001
 20
120.1682
 30
0.0
 10
-56.0906
 20
119.862
 30
0.0
 10
-56.0906
 20
119.4626
 30
0.0
 10
-56.0906
 20
119.4626
 30
0.0
 10
-56.0906
 20
119.4626
 30
0.0
 10
-56.0906
 20
117.1851
 30
0.0
 10
-56.0906
 20
117.1851
 30
0.0
 10
-56.0906
 20
117.1851
 30
0.0
 10
-56.0906
 20
117.1851
 30
0.0
 10
-56.83430000000001
 20
117.1851
 30
0.0
 10
-56.83430000000001
 20
117.1851
 30
0.0
  0
SPLINE
  5
74
330
1F
100
AcDbEntity
  8
52
 62
   250
370
     5
100
AcDbSpline
210
0.0
220
0.0
230
1.0
 70
    24
 71
     3
 72
     8
 73
     4
 74
     0
 42
0.0000000001
 43
0.0000000001
 40
0.0
 40
0.0
 40
0.0
 40
0.0
 40
1.0
 40
1.0
 40
1.0
 40
1.0
 10
156.4498
 20
91.7882
 30
0.0
 10
156.4498
 20
91.7882
 30
0.0
 10
156.4498
 20
125.7984
 30
0.0
 10
156.4498
 20
125.7984
 30
0.0
  0
SPLINE
  5
75
330
1F
100
AcDbEntity
  8
52
 62
   250
370
     5
100
AcDbSpline
210
0.0
220
0.0
230
1.0
 70
    24
 71
     3
 72
     8
 73
     4
 74
     0
 42
0.0000000001
 43
0.0000000001
 40
0.0
 40
0.0
 40
0.0
 40
0.0
 40
1.0
 40
1.0
 40
1.0
 40
1.0
 10
5.1668
 20
91.8086
 30
0.0
 10
5.1668
 20
91.8086
 30
0.0
 10
5.1668
 20
125.7984
 30
0.0
 10
5.1668
 20
125.7984
 30
0.0
  0
SPLINE
  5
76
330
1F
100
AcDbEntity
  8
52
 62
   250
370
     5
100
AcDbSpline
210
0.0
220
0.0
230
1.0
 70
    24
 71
     3
 72
     8
 73
     4
 74
     0
 42
0.0000000001
 43
0.0000000001
 40
0.0
 40
0.0
 40
0.0
 40
0.0
 40
1.0
 40
1.0
 40
1.0
 40
1.0
 10
156.4498
 20
120.7184
 30
0.0
 10
156.4498
 20
120.7184
 30
0.0
 10
99.0406
 20
120.7184
 30
0.0
 10
99.0406
 20
120.7184
 30
0.0
  0
SPLINE
  5
77
330
1F
100
AcDbEntity
  8
52
 62
   250
370
     5
100
AcDbSpline
210
0.0
220
0.0
230
1.0
 70
    24
 71
     3
 72
     8
 73
     4
 74
     0
 42
0.0000000001
 43
0.0000000001
 40
0.0
 40
0.0
 40
0.0
 40
0.0
 40
1.0
 40
1.0
 40
1.0
 40
1.0
 10
44.532
 20
120.7184
 30
0.0
 10
44.532
 20
120.7184
 30
0.0
 10
5.1668
 20
120.7184
 30
0.0
 10
5.1668
 20
120.7184
 30
0.0
  0
SPLINE
  5
78
330
1F
100
AcDbEntity
  8
52
 62
   250
100
AcDbSpline
210
0.0
220
0.0
230
1.0
 70
    11
 71
     3
 72
    40
 73
    36
 74
     0
 42
0.0000000001
 43
0.0000000001
 40
0.0
 40
0.0
 40
0.0
 40
0.0
 40
0.1111111111111111
 40
0.1111111111111111
 40
0.1111111111111111
 40
0.1111111111111111
 40
0.2222222222222222
 40
0.2222222222222222
 40
0.2222222222222222
 40
0.2222222222222222
 40
0.3333333333333333
 40
0.3333333333333333
 40
0.3333333333333333
 40
0.3333333333333333
 40
0.4444444444444444
 40
0.4444444444444444
 40
0.4444444444444444
 40
0.4444444444444444
 40
0.5555555555555556
 40
0.5555555555555556
 40
0.5555555555555556
 40
0.5555555555555556
 40
0.6666666666666667
 40
0.6666666666666667
 40
0.6666666666666667
 40
0.6666666666666667
 40
0.7777777777777779
 40
0.7777777777777779
 40
0.7777777777777779
 40
0.7777777777777779
 40
0.8888888888888891
 40
0.8888888888888891
 40
0.8888888888888891
 40
0.8888888888888891
 40
1.0
 40
1.0
 40
1.0
 40
1.0
 10
54.0358
 20
117.7269
 30
0.0
 10
54.0358
 20
117.7269
 30
0.0
 10
53.2922
 20
117.7269
 30
0.0
 10
53.2922
 20
117.7269
 30
0.0
 10
53.2922
 20
117.7269
 30
0.0
 10
53.2922
 20
117.7269
 30
0.0
 10
53.2922
 20
122.4683
 30
0.0
 10
53.2922
 20
122.4683
 30
0.0
 10
53.2922
 20
122.4683
 30
0.0
 10
53.113
 20
122.2975
 30
0.0
 10
52.8787
 20
122.1268
 30
0.0
 10
52.588
 20
121.956
 30
0.0
 10
52.588
 20
121.956
 30
0.0
 10
52.2959
 20
121.7853
 30
0.0
 10
52.0349
 20
121.6569
 30
0.0
 10
51.8035
 20
121.5722
 30
0.0
 10
51.8035
 20
121.5722
 30
0.0
 10
51.8035
 20
121.5722
 30
0.0
 10
51.8035
 20
122.2905
 30
0.0
 10
51.8035
 20
122.2905
 30
0.0
 10
51.8035
 20
122.2905
 30
0.0
 10
52.2197
 20
122.4866
 30
0.0
 10
52.5838
 20
122.7237
 30
0.0
 10
52.89570000000001
 20
123.0017
 30
0.0
 10
52.89570000000001
 20
123.0017
 30
0.0
 10
53.2061
 20
123.2811
 30
0.0
 10
53.4277
 20
123.5506
 30
0.0
 10
53.55750000000001
 20
123.813
 30
0.0
 10
53.55750000000001
 20
123.813
 30
0.0
 10
53.55750000000001
 20
123.813
 30
0.0
 10
54.0358
 20
123.813
 30
0.0
 10
54.0358
 20
123.813
 30
0.0
 10
54.0358
 20
123.813
 30
0.0
 10
54.0358
 20
123.813
 30
0.0
 10
54.0358
 20
117.7269
 30
0.0
 10
54.0358
 20
117.7269
 30
0.0
  0
SPLINE
  5
79
330
1F
100
AcDbEntity
  8
52
 62
   250
100
AcDbSpline
210
0.0
220
0.0
230
1.0
 70
    11
 71
     3
 72
    92
 73
    88
 74
     0
 42
0.0000000001
 43
0.0000000001
 40
0.0
 40
0.0
 40
0.0
 40
0.0
 40
0.0454545454545455
 40
0.0454545454545455
 40
0.0454545454545455
 40
0.0454545454545455
 40
0.0909090909090909
 40
0.0909090909090909
 40
0.0909090909090909
 40
0.0909090909090909
 40
0.1363636363636364
 40
0.1363636363636364
 40
0.1363636363636364
 40
0.1363636363636364
 40
0.1818181818181818
 40
0.1818181818181818
 40
0.1818181818181818
 40
0.1818181818181818
 40
0.2272727272727273
 40
0.2272727272727273
 40
0.2272727272727273
 40
0.2272727272727273
 40
0.2727272727272728
 40
0.2727272727272728
 40
0.2727272727272728
 40
0.2727272727272728
 40
0.3181818181818182
 40
0.3181818181818182
 40
0.3181818181818182
 40
0.3181818181818182
 40
0.3636363636363637
 40
0.3636363636363637
 40
0.3636363636363637
 40
0.3636363636363637
 40
0.4090909090909092
 40
0.4090909090909092
 40
0.4090909090909092
 40
0.4090909090909092
 40
0.4545454545454546
 40
0.4545454545454546
 40
0.4545454545454546
 40
0.4545454545454546
 40
0.5000000000000001
 40
0.5000000000000001
 40
0.5000000000000001
 40
0.5000000000000001
 40
0.5454545454545455
 40
0.5454545454545455
 40
0.5454545454545455
 40
0.5454545454545455
 40
0.5909090909090909
 40
0.5909090909090909
 40
0.5909090909090909
 40
0.5909090909090909
 40
0.6363636363636364
 40
0.6363636363636364
 40
0.6363636363636364
 40
0.6363636363636364
 40
0.6818181818181818
 40
0.6818181818181818
 40
0.6818181818181818
 40
0.6818181818181818
 40
0.7272727272727272
 40
0.7272727272727272
 40
0.7272727272727272
 40
0.7272727272727272
 40
0.7727272727272726
 40
0.7727272727272726
 40
0.7727272727272726
 40
0.7727272727272726
 40
0.818181818181818
 40
0.818181818181818
 40
0.818181818181818
 40
0.818181818181818
 40
0.8636363636363634
 40
0.8636363636363634
 40
0.8636363636363634
 40
0.8636363636363634
 40
0.9090909090909088
 40
0.9090909090909088
 40
0.9090909090909088
 40
0.9090909090909088
 40
0.9545454545454543
 40
0.9545454545454543
 40
0.9545454545454543
 40
0.9545454545454543
 40
1.0
 40
1.0
 40
1.0
 40
1.0
 10
55.9423
 20
119.3144
 30
0.0
 10
55.9423
 20
119.3144
 30
0.0
 10
56.724
 20
119.3807
 30
0.0
 10
56.724
 20
119.3807
 30
0.0
 10
56.724
 20
119.3807
 30
0.0
 10
56.7819
 20
118.9997
 30
0.0
 10
56.9159
 20
118.7147
 30
0.0
 10
57.1262
 20
118.5228
 30
0.0
 10
57.1262
 20
118.5228
 30
0.0
 10
57.33790000000001
 20
118.3309
 30
0.0
 10
57.5919
 20
118.2349
 30
0.0
 10
57.8896
 20
118.2349
 30
0.0
 10
57.8896
 20
118.2349
 30
0.0
 10
58.24800000000001
 20
118.2349
 30
0.0
 10
58.5514
 20
118.3704
 30
0.0
 10
58.7984
 20
118.6399
 30
0.0
 10
58.7984
 20
118.6399
 30
0.0
 10
59.0467
 20
118.9108
 30
0.0
 10
59.1709
 20
119.2693
 30
0.0
 10
59.1709
 20
119.7152
 30
0.0
 10
59.1709
 20
119.7152
 30
0.0
 10
59.1709
 20
120.1399
 30
0.0
 10
59.05240000000001
 20
120.4743
 30
0.0
 10
58.8139
 20
120.7199
 30
0.0
 10
58.8139
 20
120.7199
 30
0.0
 10
58.5754
 20
120.9654
 30
0.0
 10
58.2636
 20
121.0882
 30
0.0
 10
57.87690000000001
 20
121.0882
 30
0.0
 10
57.87690000000001
 20
121.0882
 30
0.0
 10
57.637
 20
121.0882
 30
0.0
 10
57.4211
 20
121.0331
 30
0.0
 10
57.2278
 20
120.9245
 30
0.0
 10
57.2278
 20
120.9245
 30
0.0
 10
57.0345
 20
120.8158
 30
0.0
 10
56.88350000000001
 20
120.6747
 30
0.0
 10
56.7734
 20
120.5012
 30
0.0
 10
56.7734
 20
120.5012
 30
0.0
 10
56.7734
 20
120.5012
 30
0.0
 10
56.0749
 20
120.5915
 30
0.0
 10
56.0749
 20
120.5915
 30
0.0
 10
56.0749
 20
120.5915
 30
0.0
 10
56.0749
 20
120.5915
 30
0.0
 10
56.6619
 20
123.7044
 30
0.0
 10
56.6619
 20
123.7044
 30
0.0
 10
56.6619
 20
123.7044
 30
0.0
 10
56.6619
 20
123.7044
 30
0.0
 10
59.67610000000001
 20
123.7044
 30
0.0
 10
59.67610000000001
 20
123.7044
 30
0.0
 10
59.67610000000001
 20
123.7044
 30
0.0
 10
59.67610000000001
 20
123.7044
 30
0.0
 10
59.67610000000001
 20
122.9932
 30
0.0
 10
59.67610000000001
 20
122.9932
 30
0.0
 10
59.67610000000001
 20
122.9932
 30
0.0
 10
59.67610000000001
 20
122.9932
 30
0.0
 10
57.2574
 20
122.9932
 30
0.0
 10
57.2574
 20
122.9932
 30
0.0
 10
57.2574
 20
122.9932
 30
0.0
 10
57.2574
 20
122.9932
 30
0.0
 10
56.93
 20
121.3648
 30
0.0
 10
56.93
 20
121.3648
 30
0.0
 10
56.93
 20
121.3648
 30
0.0
 10
57.2941
 20
121.6188
 30
0.0
 10
57.6765
 20
121.7458
 30
0.0
 10
58.0759
 20
121.7458
 30
0.0
 10
58.0759
 20
121.7458
 30
0.0
 10
58.605
 20
121.7458
 30
0.0
 10
59.051
 20
121.5623
 30
0.0
 10
59.41500000000001
 20
121.1954
 30
0.0
 10
59.41500000000001
 20
121.1954
 30
0.0
 10
59.7791
 20
120.8285
 30
0.0
 10
59.9611
 20
120.3572
 30
0.0
 10
59.9611
 20
119.7815
 30
0.0
 10
59.9611
 20
119.7815
 30
0.0
 10
59.9611
 20
119.2326
 30
0.0
 10
59.8003
 20
118.7584
 30
0.0
 10
59.48130000000001
 20
118.3591
 30
0.0
 10
59.48130000000001
 20
118.3591
 30
0.0
 10
59.0919
 20
117.8694
 30
0.0
 10
58.5613
 20
117.6239
 30
0.0
 10
57.8896
 20
117.6239
 30
0.0
 10
57.8896
 20
117.6239
 30
0.0
 10
57.33790000000001
 20
117.6239
 30
0.0
 10
56.8877
 20
117.7777
 30
0.0
 10
56.5392
 20
118.0867
 30
0.0
 10
56.5392
 20
118.0867
 30
0.0
 10
56.1906
 20
118.3958
 30
0.0
 10
55.9917
 20
118.805
 30
0.0
 10
55.9423
 20
119.3144
 30
0.0
  0
SPLINE
  5
7A
330
1F
100
AcDbEntity
  8
52
 62
   250
100
AcDbSpline
210
0.0
220
0.0
230
1.0
 70
    11
 71
     3
 72
    40
 73
    36
 74
     0
 42
0.0000000001
 43
0.0000000001
 40
0.0
 40
0.0
 40
0.0
 40
0.0
 40
0.1111111111111111
 40
0.1111111111111111
 40
0.1111111111111111
 40
0.1111111111111111
 40
0.2222222222222222
 40
0.2222222222222222
 40
0.2222222222222222
 40
0.2222222222222222
 40
0.3333333333333333
 40
0.3333333333333333
 40
0.3333333333333333
 40
0.3333333333333333
 40
0.4444444444444444
 40
0.4444444444444444
 40
0.4444444444444444
 40
0.4444444444444444
 40
0.5555555555555556
 40
0.5555555555555556
 40
0.5555555555555556
 40
0.5555555555555556
 40
0.6666666666666667
 40
0.6666666666666667
 40
0.6666666666666667
 40
0.6666666666666667
 40
0.7777777777777779
 40
0.7777777777777779
 40
0.7777777777777779
 40
0.7777777777777779
 40
0.8888888888888891
 40
0.8888888888888891
 40
0.8888888888888891
 40
0.8888888888888891
 40
1.0
 40
1.0
 40
1.0
 40
1.0
 10
63.4536
 20
117.7269
 30
0.0
 10
63.4536
 20
117.7269
 30
0.0
 10
62.71
 20
117.7269
 30
0.0
 10
62.71
 20
117.7269
 30
0.0
 10
62.71
 20
117.7269
 30
0.0
 10
62.71
 20
117.7269
 30
0.0
 10
62.71
 20
122.4683
 30
0.0
 10
62.71
 20
122.4683
 30
0.0
 10
62.71
 20
122.4683
 30
0.0
 10
62.53080000000001
 20
122.2975
 30
0.0
 10
62.2965
 20
122.1268
 30
0.0
 10
62.0058
 20
121.956
 30
0.0
 10
62.0058
 20
121.956
 30
0.0
 10
61.7137
 20
121.7853
 30
0.0
 10
61.4527
 20
121.6569
 30
0.0
 10
61.2213
 20
121.5722
 30
0.0
 10
61.2213
 20
121.5722
 30
0.0
 10
61.2213
 20
121.5722
 30
0.0
 10
61.2213
 20
122.2905
 30
0.0
 10
61.2213
 20
122.2905
 30
0.0
 10
61.2213
 20
122.2905
 30
0.0
 10
61.6375
 20
122.4866
 30
0.0
 10
62.0016
 20
122.7237
 30
0.0
 10
62.31350000000001
 20
123.0017
 30
0.0
 10
62.31350000000001
 20
123.0017
 30
0.0
 10
62.62390000000001
 20
123.2811
 30
0.0
 10
62.8455
 20
123.5506
 30
0.0
 10
62.9753
 20
123.813
 30
0.0
 10
62.9753
 20
123.813
 30
0.0
 10
62.9753
 20
123.813
 30
0.0
 10
63.4536
 20
123.813
 30
0.0
 10
63.4536
 20
123.813
 30
0.0
 10
63.4536
 20
123.813
 30
0.0
 10
63.4536
 20
123.813
 30
0.0
 10
63.4536
 20
117.7269
 30
0.0
 10
63.4536
 20
117.7269
 30
0.0
  0
SPLINE
  5
7B
330
1F
100
AcDbEntity
  8
52
 62
   250
100
AcDbSpline
210
0.0
220
0.0
230
1.0
 70
    11
 71
     3
 72
    20
 73
    16
 74
     0
 42
0.0000000001
 43
0.0000000001
 40
0.0
 40
0.0
 40
0.0
 40
0.0
 40
0.25
 40
0.25
 40
0.25
 40
0.25
 40
0.5
 40
0.5
 40
0.5
 40
0.5
 40
0.75
 40
0.75
 40
0.75
 40
0.75
 40
1.0
 40
1.0
 40
1.0
 40
1.0
 10
65.7778
 20
117.7269
 30
0.0
 10
65.7778
 20
117.7269
 30
0.0
 10
65.7778
 20
118.575
 30
0.0
 10
65.7778
 20
118.575
 30
0.0
 10
65.7778
 20
118.575
 30
0.0
 10
65.7778
 20
118.575
 30
0.0
 10
66.6258
 20
118.575
 30
0.0
 10
66.6258
 20
118.575
 30
0.0
 10
66.6258
 20
118.575
 30
0.0
 10
66.6258
 20
118.575
 30
0.0
 10
66.6258
 20
117.7269
 30
0.0
 10
66.6258
 20
117.7269
 30
0.0
 10
66.6258
 20
117.7269
 30
0.0
 10
66.6258
 20
117.7269
 30
0.0
 10
65.7778
 20
117.7269
 30
0.0
 10
65.7778
 20
117.7269
 30
0.0
  0
SPLINE
  5
7C
330
1F
100
AcDbEntity
  8
52
 62
   250
100
AcDbSpline
210
0.0
220
0.0
230
1.0
 70
    11
 71
     3
 72
    92
 73
    88
 74
     0
 42
0.0000000001
 43
0.0000000001
 40
0.0
 40
0.0
 40
0.0
 40
0.0
 40
0.0454545454545455
 40
0.0454545454545455
 40
0.0454545454545455
 40
0.0454545454545455
 40
0.0909090909090909
 40
0.0909090909090909
 40
0.0909090909090909
 40
0.0909090909090909
 40
0.1363636363636364
 40
0.1363636363636364
 40
0.1363636363636364
 40
0.1363636363636364
 40
0.1818181818181818
 40
0.1818181818181818
 40
0.1818181818181818
 40
0.1818181818181818
 40
0.2272727272727273
 40
0.2272727272727273
 40
0.2272727272727273
 40
0.2272727272727273
 40
0.2727272727272728
 40
0.2727272727272728
 40
0.2727272727272728
 40
0.2727272727272728
 40
0.3181818181818182
 40
0.3181818181818182
 40
0.3181818181818182
 40
0.3181818181818182
 40
0.3636363636363637
 40
0.3636363636363637
 40
0.3636363636363637
 40
0.3636363636363637
 40
0.4090909090909092
 40
0.4090909090909092
 40
0.4090909090909092
 40
0.4090909090909092
 40
0.4545454545454546
 40
0.4545454545454546
 40
0.4545454545454546
 40
0.4545454545454546
 40
0.5000000000000001
 40
0.5000000000000001
 40
0.5000000000000001
 40
0.5000000000000001
 40
0.5454545454545455
 40
0.5454545454545455
 40
0.5454545454545455
 40
0.5454545454545455
 40
0.5909090909090909
 40
0.5909090909090909
 40
0.5909090909090909
 40
0.5909090909090909
 40
0.6363636363636364
 40
0.6363636363636364
 40
0.6363636363636364
 40
0.6363636363636364
 40
0.6818181818181818
 40
0.6818181818181818
 40
0.6818181818181818
 40
0.6818181818181818
 40
0.7272727272727272
 40
0.7272727272727272
 40
0.7272727272727272
 40
0.7272727272727272
 40
0.7727272727272726
 40
0.7727272727272726
 40
0.7727272727272726
 40
0.7727272727272726
 40
0.818181818181818
 40
0.818181818181818
 40
0.818181818181818
 40
0.818181818181818
 40
0.8636363636363634
 40
0.8636363636363634
 40
0.8636363636363634
 40
0.8636363636363634
 40
0.9090909090909088
 40
0.9090909090909088
 40
0.9090909090909088
 40
0.9090909090909088
 40
0.9545454545454543
 40
0.9545454545454543
 40
0.9545454545454543
 40
0.9545454545454543
 40
1.0
 40
1.0
 40
1.0
 40
1.0
 10
71.62400000000001
 20
118.4423
 30
0.0
 10
71.62400000000001
 20
118.4423
 30
0.0
 10
71.62400000000001
 20
117.7269
 30
0.0
 10
71.62400000000001
 20
117.7269
 30
0.0
 10
71.62400000000001
 20
117.7269
 30
0.0
 10
71.62400000000001
 20
117.7269
 30
0.0
 10
67.6178
 20
117.7269
 30
0.0
 10
67.6178
 20
117.7269
 30
0.0
 10
67.6178
 20
117.7269
 30
0.0
 10
67.6122
 20
117.9061
 30
0.0
 10
67.6404
 20
118.0783
 30
0.0
 10
67.7039
 20
118.2434
 30
0.0
 10
67.7039
 20
118.2434
 30
0.0
 10
67.80550000000001
 20
118.5171
 30
0.0
 10
67.9692
 20
118.7852
 30
0.0
 10
68.1936
 20
119.0505
 30
0.0
 10
68.1936
 20
119.0505
 30
0.0
 10
68.41930000000001
 20
119.3144
 30
0.0
 10
68.7439
 20
119.6206
 30
0.0
 10
69.16720000000001
 20
119.9678
 30
0.0
 10
69.16720000000001
 20
119.9678
 30
0.0
 10
69.8262
 20
120.5082
 30
0.0
 10
70.27210000000001
 20
120.9358
 30
0.0
 10
70.50360000000001
 20
121.2519
 30
0.0
 10
70.50360000000001
 20
121.2519
 30
0.0
 10
70.735
 20
121.5665
 30
0.0
 10
70.8507
 20
121.8657
 30
0.0
 10
70.8507
 20
122.1465
 30
0.0
 10
70.8507
 20
122.1465
 30
0.0
 10
70.8507
 20
122.4414
 30
0.0
 10
70.7449
 20
122.6898
 30
0.0
 10
70.5346
 20
122.893
 30
0.0
 10
70.5346
 20
122.893
 30
0.0
 10
70.3229
 20
123.0948
 30
0.0
 10
70.04780000000001
 20
123.1964
 30
0.0
 10
69.70910000000001
 20
123.1964
 30
0.0
 10
69.70910000000001
 20
123.1964
 30
0.0
 10
69.3507
 20
123.1964
 30
0.0
 10
69.0642
 20
123.0891
 30
0.0
 10
68.8497
 20
122.8732
 30
0.0
 10
68.8497
 20
122.8732
 30
0.0
 10
68.63380000000001
 20
122.6588
 30
0.0
 10
68.5252
 20
122.361
 30
0.0
 10
68.5223
 20
121.9814
 30
0.0
 10
68.5223
 20
121.9814
 30
0.0
 10
68.5223
 20
121.9814
 30
0.0
 10
67.75750000000001
 20
122.059
 30
0.0
 10
67.75750000000001
 20
122.059
 30
0.0
 10
67.75750000000001
 20
122.059
 30
0.0
 10
67.80970000000001
 20
122.6305
 30
0.0
 10
68.0073
 20
123.0652
 30
0.0
 10
68.3488
 20
123.3643
 30
0.0
 10
68.3488
 20
123.3643
 30
0.0
 10
68.69030000000001
 20
123.6635
 30
0.0
 10
69.1503
 20
123.813
 30
0.0
 10
69.726
 20
123.813
 30
0.0
 10
69.726
 20
123.813
 30
0.0
 10
70.3074
 20
123.813
 30
0.0
 10
70.76740000000001
 20
123.6508
 30
0.0
 10
71.1061
 20
123.329
 30
0.0
 10
71.1061
 20
123.329
 30
0.0
 10
71.44620000000001
 20
123.0059
 30
0.0
 10
71.6155
 20
122.6065
 30
0.0
 10
71.6155
 20
122.1296
 30
0.0
 10
71.6155
 20
122.1296
 30
0.0
 10
71.6155
 20
121.8869
 30
0.0
 10
71.56610000000001
 20
121.6484
 30
0.0
 10
71.46590000000001
 20
121.4141
 30
0.0
 10
71.46590000000001
 20
121.4141
 30
0.0
 10
71.3672
 20
121.1799
 30
0.0
 10
71.2021
 20
120.933
 30
0.0
 10
70.97200000000001
 20
120.6747
 30
0.0
 10
70.97200000000001
 20
120.6747
 30
0.0
 10
70.742
 20
120.4151
 30
0.0
 10
70.3596
 20
120.0595
 30
0.0
 10
69.82480000000001
 20
119.6079
 30
0.0
 10
69.82480000000001
 20
119.6079
 30
0.0
 10
69.3789
 20
119.2326
 30
0.0
 10
69.0924
 20
118.9786
 30
0.0
 10
68.9654
 20
118.8445
 30
0.0
 10
68.9654
 20
118.8445
 30
0.0
 10
68.83840000000001
 20
118.7119
 30
0.0
 10
68.73400000000001
 20
118.5778
 30
0.0
 10
68.6508
 20
118.4423
 30
0.0
 10
68.6508
 20
118.4423
 30
0.0
 10
68.6508
 20
118.4423
 30
0.0
 10
71.62400000000001
 20
118.4423
 30
0.0
 10
71.62400000000001
 20
118.4423
 30
0.0
  0
SPLINE
  5
7D
330
1F
100
AcDbEntity
  8
52
 62
   250
100
AcDbSpline
210
0.0
220
0.0
230
1.0
 70
    11
 71
     3
 72
    68
 73
    64
 74
     0
 42
0.0000000001
 43
0.0000000001
 40
0.0
 40
0.0
 40
0.0
 40
0.0
 40
0.0625
 40
0.0625
 40
0.0625
 40
0.0625
 40
0.125
 40
0.125
 40
0.125
 40
0.125
 40
0.1875
 40
0.1875
 40
0.1875
 40
0.1875
 40
0.25
 40
0.25
 40
0.25
 40
0.25
 40
0.3125
 40
0.3125
 40
0.3125
 40
0.3125
 40
0.375
 40
0.375
 40
0.375
 40
0.375
 40
0.4375
 40
0.4375
 40
0.4375
 40
0.4375
 40
0.5
 40
0.5
 40
0.5
 40
0.5
 40
0.5625
 40
0.5625
 40
0.5625
 40
0.5625
 40
0.625
 40
0.625
 40
0.625
 40
0.625
 40
0.6875
 40
0.6875
 40
0.6875
 40
0.6875
 40
0.75
 40
0.75
 40
0.75
 40
0.75
 40
0.8125
 40
0.8125
 40
0.8125
 40
0.8125
 40
0.875
 40
0.875
 40
0.875
 40
0.875
 40
0.9375
 40
0.9375
 40
0.9375
 40
0.9375
 40
1.0
 40
1.0
 40
1.0
 40
1.0
 10
73.56710000000001
 20
121.0134
 30
0.0
 10
73.2581
 20
121.1263
 30
0.0
 10
73.0295
 20
121.2871
 30
0.0
 10
72.87990000000001
 20
121.4974
 30
0.0
 10
72.87990000000001
 20
121.4974
 30
0.0
 10
72.7317
 20
121.7062
 30
0.0
 10
72.65690000000001
 20
121.9574
 30
0.0
 10
72.65690000000001
 20
122.2495
 30
0.0
 10
72.65690000000001
 20
122.2495
 30
0.0
 10
72.65690000000001
 20
122.6912
 30
0.0
 10
72.815
 20
123.0609
 30
0.0
 10
73.13250000000001
 20
123.3615
 30
0.0
 10
73.13250000000001
 20
123.3615
 30
0.0
 10
73.45
 20
123.6621
 30
0.0
 10
73.87050000000001
 20
123.813
 30
0.0
 10
74.3968
 20
123.813
 30
0.0
 10
74.3968
 20
123.813
 30
0.0
 10
74.926
 20
123.813
 30
0.0
 10
75.35220000000001
 20
123.6592
 30
0.0
 10
75.67530000000001
 20
123.3516
 30
0.0
 10
75.67530000000001
 20
123.3516
 30
0.0
 10
75.997
 20
123.044
 30
0.0
 10
76.1579
 20
122.67
 30
0.0
 10
76.1579
 20
122.2284
 30
0.0
 10
76.1579
 20
122.2284
 30
0.0
 10
76.1579
 20
121.9475
 30
0.0
 10
76.08450000000001
 20
121.7034
 30
0.0
 10
75.93780000000001
 20
121.4946
 30
0.0
 10
75.93780000000001
 20
121.4946
 30
0.0
 10
75.78960000000001
 20
121.2871
 30
0.0
 10
75.56660000000001
 20
121.1263
 30
0.0
 10
75.26610000000001
 20
121.0134
 30
0.0
 10
75.26610000000001
 20
121.0134
 30
0.0
 10
75.63720000000001
 20
120.892
 30
0.0
 10
75.9208
 20
120.6973
 30
0.0
 10
76.1156
 20
120.4264
 30
0.0
 10
76.1156
 20
120.4264
 30
0.0
 10
76.30890000000001
 20
120.1568
 30
0.0
 10
76.4063
 20
119.8337
 30
0.0
 10
76.4063
 20
119.4598
 30
0.0
 10
76.4063
 20
119.4598
 30
0.0
 10
76.4063
 20
118.9405
 30
0.0
 10
76.22280000000001
 20
118.5058
 30
0.0
 10
75.85730000000001
 20
118.1531
 30
0.0
 10
75.85730000000001
 20
118.1531
 30
0.0
 10
75.49040000000001
 20
117.8003
 30
0.0
 10
75.0078
 20
117.6239
 30
0.0
 10
74.40950000000001
 20
117.6239
 30
0.0
 10
74.40950000000001
 20
117.6239
 30
0.0
 10
73.8112
 20
117.6239
 30
0.0
 10
73.33
 20
117.8003
 30
0.0
 10
72.9631
 20
118.1545
 30
0.0
 10
72.9631
 20
118.1545
 30
0.0
 10
72.59620000000001
 20
118.5087
 30
0.0
 10
72.4128
 20
118.9503
 30
0.0
 10
72.4128
 20
119.4795
 30
0.0
 10
72.4128
 20
119.4795
 30
0.0
 10
72.4128
 20
119.8732
 30
0.0
 10
72.51300000000001
 20
120.2034
 30
0.0
 10
72.71340000000001
 20
120.4701
 30
0.0
 10
72.71340000000001
 20
120.4701
 30
0.0
 10
72.9123
 20
120.7354
 30
0.0
 10
73.1974
 20
120.9174
 30
0.0
 10
73.56710000000001
 20
121.0134
 30
0.0
  0
SPLINE
  5
7E
330
1F
100
AcDbEntity
  8
52
 62
   250
100
AcDbSpline
210
0.0
220
0.0
230
1.0
 70
    11
 71
     3
 72
    36
 73
    32
 74
     0
 42
0.0000000001
 43
0.0000000001
 40
0.0
 40
0.0
 40
0.0
 40
0.0
 40
0.125
 40
0.125
 40
0.125
 40
0.125
 40
0.25
 40
0.25
 40
0.25
 40
0.25
 40
0.375
 40
0.375
 40
0.375
 40
0.375
 40
0.5
 40
0.5
 40
0.5
 40
0.5
 40
0.625
 40
0.625
 40
0.625
 40
0.625
 40
0.75
 40
0.75
 40
0.75
 40
0.75
 40
0.875
 40
0.875
 40
0.875
 40
0.875
 40
1.0
 40
1.0
 40
1.0
 40
1.0
 10
73.4175
 20
122.2749
 30
0.0
 10
73.4175
 20
121.9885
 30
0.0
 10
73.5107
 20
121.7542
 30
0.0
 10
73.69410000000001
 20
121.5722
 30
0.0
 10
73.69410000000001
 20
121.5722
 30
0.0
 10
73.87900000000001
 20
121.3902
 30
0.0
 10
74.11880000000001
 20
121.2984
 30
0.0
 10
74.41380000000001
 20
121.2984
 30
0.0
 10
74.41380000000001
 20
121.2984
 30
0.0
 10
74.70020000000001
 20
121.2984
 30
0.0
 10
74.9359
 20
121.3887
 30
0.0
 10
75.11930000000001
 20
121.5694
 30
0.0
 10
75.11930000000001
 20
121.5694
 30
0.0
 10
75.30280000000001
 20
121.75
 30
0.0
 10
75.3931
 20
121.9715
 30
0.0
 10
75.3931
 20
122.2326
 30
0.0
 10
75.3931
 20
122.2326
 30
0.0
 10
75.3931
 20
122.5064
 30
0.0
 10
75.29990000000001
 20
122.735
 30
0.0
 10
75.1109
 20
122.9212
 30
0.0
 10
75.1109
 20
122.9212
 30
0.0
 10
74.92180000000001
 20
123.1075
 30
0.0
 10
74.6875
 20
123.2006
 30
0.0
 10
74.4053
 20
123.2006
 30
0.0
 10
74.4053
 20
123.2006
 30
0.0
 10
74.1217
 20
123.2006
 30
0.0
 10
73.88600000000001
 20
123.1089
 30
0.0
 10
73.6983
 20
122.9283
 30
0.0
 10
73.6983
 20
122.9283
 30
0.0
 10
73.5107
 20
122.7462
 30
0.0
 10
73.4175
 20
122.5275
 30
0.0
 10
73.4175
 20
122.2749
 30
0.0
  0
SPLINE
  5
7F
330
1F
100
AcDbEntity
  8
52
 62
   250
100
AcDbSpline
210
0.0
220
0.0
230
1.0
 70
    11
 71
     3
 72
    40
 73
    36
 74
     0
 42
0.0000000001
 43
0.0000000001
 40
0.0
 40
0.0
 40
0.0
 40
0.0
 40
0.1111111111111111
 40
0.1111111111111111
 40
0.1111111111111111
 40
0.1111111111111111
 40
0.2222222222222222
 40
0.2222222222222222
 40
0.2222222222222222
 40
0.2222222222222222
 40
0.3333333333333333
 40
0.3333333333333333
 40
0.3333333333333333
 40
0.3333333333333333
 40
0.4444444444444444
 40
0.4444444444444444
 40
0.4444444444444444
 40
0.4444444444444444
 40
0.5555555555555556
 40
0.5555555555555556
 40
0.5555555555555556
 40
0.5555555555555556
 40
0.6666666666666667
 40
0.6666666666666667
 40
0.6666666666666667
 40
0.6666666666666667
 40
0.7777777777777779
 40
0.7777777777777779
 40
0.7777777777777779
 40
0.7777777777777779
 40
0.8888888888888891
 40
0.8888888888888891
 40
0.8888888888888891
 40
0.8888888888888891
 40
1.0
 40
1.0
 40
1.0
 40
1.0
 10
73.1776
 20
119.4753
 30
0.0
 10
73.1776
 20
119.2636
 30
0.0
 10
73.22840000000001
 20
119.0576
 30
0.0
 10
73.32860000000001
 20
118.86
 30
0.0
 10
73.32860000000001
 20
118.86
 30
0.0
 10
73.42880000000001
 20
118.6611
 30
0.0
 10
73.5784
 20
118.5072
 30
0.0
 10
73.7774
 20
118.3986
 30
0.0
 10
73.7774
 20
118.3986
 30
0.0
 10
73.97630000000001
 20
118.2899
 30
0.0
 10
74.18940000000001
 20
118.2349
 30
0.0
 10
74.41800000000001
 20
118.2349
 30
0.0
 10
74.41800000000001
 20
118.2349
 30
0.0
 10
74.7736
 20
118.2349
 30
0.0
 10
75.06710000000001
 20
118.3492
 30
0.0
 10
75.2985
 20
118.5792
 30
0.0
 10
75.2985
 20
118.5792
 30
0.0
 10
75.53
 20
118.8078
 30
0.0
 10
75.64570000000001
 20
119.0985
 30
0.0
 10
75.64570000000001
 20
119.4513
 30
0.0
 10
75.64570000000001
 20
119.4513
 30
0.0
 10
75.64570000000001
 20
119.8097
 30
0.0
 10
75.5271
 20
120.106
 30
0.0
 10
75.28870000000001
 20
120.3403
 30
0.0
 10
75.28870000000001
 20
120.3403
 30
0.0
 10
75.0502
 20
120.5745
 30
0.0
 10
74.75100000000001
 20
120.6917
 30
0.0
 10
74.3926
 20
120.6917
 30
0.0
 10
74.3926
 20
120.6917
 30
0.0
 10
74.04260000000001
 20
120.6917
 30
0.0
 10
73.7534
 20
120.5759
 30
0.0
 10
73.52340000000001
 20
120.3445
 30
0.0
 10
73.52340000000001
 20
120.3445
 30
0.0
 10
73.2933
 20
120.1117
 30
0.0
 10
73.1776
 20
119.8224
 30
0.0
 10
73.1776
 20
119.4753
 30
0.0
  0
SPLINE
  5
80
330
1F
100
AcDbEntity
  8
52
 62
   250
100
AcDbSpline
210
0.0
220
0.0
230
1.0
 70
    11
 71
     3
 72
   116
 73
   112
 74
     0
 42
0.0000000001
 43
0.0000000001
 40
0.0
 40
0.0
 40
0.0
 40
0.0
 40
0.0357142857142857
 40
0.0357142857142857
 40
0.0357142857142857
 40
0.0357142857142857
 40
0.0714285714285714
 40
0.0714285714285714
 40
0.0714285714285714
 40
0.0714285714285714
 40
0.1071428571428571
 40
0.1071428571428571
 40
0.1071428571428571
 40
0.1071428571428571
 40
0.1428571428571429
 40
0.1428571428571429
 40
0.1428571428571429
 40
0.1428571428571429
 40
0.1785714285714286
 40
0.1785714285714286
 40
0.1785714285714286
 40
0.1785714285714286
 40
0.2142857142857143
 40
0.2142857142857143
 40
0.2142857142857143
 40
0.2142857142857143
 40
0.2499999999999999
 40
0.2499999999999999
 40
0.2499999999999999
 40
0.2499999999999999
 40
0.2857142857142856
 40
0.2857142857142856
 40
0.2857142857142856
 40
0.2857142857142856
 40
0.3214285714285713
 40
0.3214285714285713
 40
0.3214285714285713
 40
0.3214285714285713
 40
0.357142857142857
 40
0.357142857142857
 40
0.357142857142857
 40
0.357142857142857
 40
0.3928571428571427
 40
0.3928571428571427
 40
0.3928571428571427
 40
0.3928571428571427
 40
0.4285714285714284
 40
0.4285714285714284
 40
0.4285714285714284
 40
0.4285714285714284
 40
0.4642857142857141
 40
0.4642857142857141
 40
0.4642857142857141
 40
0.4642857142857141
 40
0.4999999999999998
 40
0.4999999999999998
 40
0.4999999999999998
 40
0.4999999999999998
 40
0.5357142857142856
 40
0.5357142857142856
 40
0.5357142857142856
 40
0.5357142857142856
 40
0.5714285714285713
 40
0.5714285714285713
 40
0.5714285714285713
 40
0.5714285714285713
 40
0.607142857142857
 40
0.607142857142857
 40
0.607142857142857
 40
0.607142857142857
 40
0.6428571428571427
 40
0.6428571428571427
 40
0.6428571428571427
 40
0.6428571428571427
 40
0.6785714285714284
 40
0.6785714285714284
 40
0.6785714285714284
 40
0.6785714285714284
 40
0.7142857142857141
 40
0.7142857142857141
 40
0.7142857142857141
 40
0.7142857142857141
 40
0.7499999999999998
 40
0.7499999999999998
 40
0.7499999999999998
 40
0.7499999999999998
 40
0.7857142857142855
 40
0.7857142857142855
 40
0.7857142857142855
 40
0.7857142857142855
 40
0.8214285714285712
 40
0.8214285714285712
 40
0.8214285714285712
 40
0.8214285714285712
 40
0.8571428571428569
 40
0.8571428571428569
 40
0.8571428571428569
 40
0.8571428571428569
 40
0.8928571428571426
 40
0.8928571428571426
 40
0.8928571428571426
 40
0.8928571428571426
 40
0.9285714285714283
 40
0.9285714285714283
 40
0.9285714285714283
 40
0.9285714285714283
 40
0.964285714285714
 40
0.964285714285714
 40
0.964285714285714
 40
0.964285714285714
 40
1.0
 40
1.0
 40
1.0
 40
1.0
 10
79.68990000000001
 20
117.7269
 30
0.0
 10
79.68990000000001
 20
117.7269
 30
0.0
 10
79.68990000000001
 20
122.1169
 30
0.0
 10
79.68990000000001
 20
122.1169
 30
0.0
 10
79.68990000000001
 20
122.1169
 30
0.0
 10
79.68990000000001
 20
122.1169
 30
0.0
 10
80.3545
 20
122.1169
 30
0.0
 10
80.3545
 20
122.1169
 30
0.0
 10
80.3545
 20
122.1169
 30
0.0
 10
80.3545
 20
122.1169
 30
0.0
 10
80.3545
 20
121.5016
 30
0.0
 10
80.3545
 20
121.5016
 30
0.0
 10
80.3545
 20
121.5016
 30
0.0
 10
80.4928
 20
121.7161
 30
0.0
 10
80.6763
 20
121.8897
 30
0.0
 10
80.9049
 20
122.0195
 30
0.0
 10
80.9049
 20
122.0195
 30
0.0
 10
81.1335
 20
122.1508
 30
0.0
 10
81.39450000000001
 20
122.2171
 30
0.0
 10
81.6866
 20
122.2171
 30
0.0
 10
81.6866
 20
122.2171
 30
0.0
 10
82.0112
 20
122.2171
 30
0.0
 10
82.2779
 20
122.1493
 30
0.0
 10
82.48530000000001
 20
122.0139
 30
0.0
 10
82.48530000000001
 20
122.0139
 30
0.0
 10
82.69420000000001
 20
121.8784
 30
0.0
 10
82.84090000000001
 20
121.6907
 30
0.0
 10
82.9256
 20
121.448
 30
0.0
 10
82.9256
 20
121.448
 30
0.0
 10
83.2741
 20
121.9603
 30
0.0
 10
83.7257
 20
122.2171
 30
0.0
 10
84.2817
 20
122.2171
 30
0.0
 10
84.2817
 20
122.2171
 30
0.0
 10
84.71770000000001
 20
122.2171
 30
0.0
 10
85.05210000000001
 20
122.0957
 30
0.0
 10
85.2864
 20
121.8544
 30
0.0
 10
85.2864
 20
121.8544
 30
0.0
 10
85.5206
 20
121.6131
 30
0.0
 10
85.6378
 20
121.242
 30
0.0
 10
85.6378
 20
120.741
 30
0.0
 10
85.6378
 20
120.741
 30
0.0
 10
85.6378
 20
120.741
 30
0.0
 10
85.6378
 20
117.7269
 30
0.0
 10
85.6378
 20
117.7269
 30
0.0
 10
85.6378
 20
117.7269
 30
0.0
 10
85.6378
 20
117.7269
 30
0.0
 10
84.89830000000001
 20
117.7269
 30
0.0
 10
84.89830000000001
 20
117.7269
 30
0.0
 10
84.89830000000001
 20
117.7269
 30
0.0
 10
84.89830000000001
 20
117.7269
 30
0.0
 10
84.89830000000001
 20
120.4927
 30
0.0
 10
84.89830000000001
 20
120.4927
 30
0.0
 10
84.89830000000001
 20
120.4927
 30
0.0
 10
84.89830000000001
 20
120.7904
 30
0.0
 10
84.87430000000001
 20
121.0049
 30
0.0
 10
84.82640000000001
 20
121.1362
 30
0.0
 10
84.82640000000001
 20
121.1362
 30
0.0
 10
84.777
 20
121.266
 30
0.0
 10
84.68950000000001
 20
121.3718
 30
0.0
 10
84.5639
 20
121.4522
 30
0.0
 10
84.5639
 20
121.4522
 30
0.0
 10
84.43690000000001
 20
121.5313
 30
0.0
 10
84.2873
 20
121.5722
 30
0.0
 10
84.11660000000001
 20
121.5722
 30
0.0
 10
84.11660000000001
 20
121.5722
 30
0.0
 10
83.80750000000001
 20
121.5722
 30
0.0
 10
83.55210000000001
 20
121.4692
 30
0.0
 10
83.34750000000001
 20
121.2632
 30
0.0
 10
83.34750000000001
 20
121.2632
 30
0.0
 10
83.1443
 20
121.0585
 30
0.0
 10
83.04130000000001
 20
120.7298
 30
0.0
 10
83.04130000000001
 20
120.2782
 30
0.0
 10
83.04130000000001
 20
120.2782
 30
0.0
 10
83.04130000000001
 20
120.2782
 30
0.0
 10
83.04130000000001
 20
117.7269
 30
0.0
 10
83.04130000000001
 20
117.7269
 30
0.0
 10
83.04130000000001
 20
117.7269
 30
0.0
 10
83.04130000000001
 20
117.7269
 30
0.0
 10
82.2976
 20
117.7269
 30
0.0
 10
82.2976
 20
117.7269
 30
0.0
 10
82.2976
 20
117.7269
 30
0.0
 10
82.2976
 20
117.7269
 30
0.0
 10
82.2976
 20
120.5788
 30
0.0
 10
82.2976
 20
120.5788
 30
0.0
 10
82.2976
 20
120.5788
 30
0.0
 10
82.2976
 20
120.9104
 30
0.0
 10
82.23700000000001
 20
121.1587
 30
0.0
 10
82.1156
 20
121.3238
 30
0.0
 10
82.1156
 20
121.3238
 30
0.0
 10
81.99430000000001
 20
121.4889
 30
0.0
 10
81.7967
 20
121.5722
 30
0.0
 10
81.5201
 20
121.5722
 30
0.0
 10
81.5201
 20
121.5722
 30
0.0
 10
81.3113
 20
121.5722
 30
0.0
 10
81.11800000000001
 20
121.5172
 30
0.0
 10
80.9402
 20
121.4057
 30
0.0
 10
80.9402
 20
121.4057
 30
0.0
 10
80.7624
 20
121.2956
 30
0.0
 10
80.63250000000001
 20
121.1347
 30
0.0
 10
80.5535
 20
120.9231
 30
0.0
 10
80.5535
 20
120.9231
 30
0.0
 10
80.4731
 20
120.71
 30
0.0
 10
80.4336
 20
120.4038
 30
0.0
 10
80.4336
 20
120.0044
 30
0.0
 10
80.4336
 20
120.0044
 30
0.0
 10
80.4336
 20
120.0044
 30
0.0
 10
80.4336
 20
117.7269
 30
0.0
 10
80.4336
 20
117.7269
 30
0.0
 10
80.4336
 20
117.7269
 30
0.0
 10
80.4336
 20
117.7269
 30
0.0
 10
79.68990000000001
 20
117.7269
 30
0.0
 10
79.68990000000001
 20
117.7269
 30
0.0
  0
SPLINE
  5
81
330
1F
100
AcDbEntity
  8
52
 62
   250
100
AcDbSpline
210
0.0
220
0.0
230
1.0
 70
    11
 71
     3
 72
   116
 73
   112
 74
     0
 42
0.0000000001
 43
0.0000000001
 40
0.0
 40
0.0
 40
0.0
 40
0.0
 40
0.0357142857142857
 40
0.0357142857142857
 40
0.0357142857142857
 40
0.0357142857142857
 40
0.0714285714285714
 40
0.0714285714285714
 40
0.0714285714285714
 40
0.0714285714285714
 40
0.1071428571428571
 40
0.1071428571428571
 40
0.1071428571428571
 40
0.1071428571428571
 40
0.1428571428571429
 40
0.1428571428571429
 40
0.1428571428571429
 40
0.1428571428571429
 40
0.1785714285714286
 40
0.1785714285714286
 40
0.1785714285714286
 40
0.1785714285714286
 40
0.2142857142857143
 40
0.2142857142857143
 40
0.2142857142857143
 40
0.2142857142857143
 40
0.2499999999999999
 40
0.2499999999999999
 40
0.2499999999999999
 40
0.2499999999999999
 40
0.2857142857142856
 40
0.2857142857142856
 40
0.2857142857142856
 40
0.2857142857142856
 40
0.3214285714285713
 40
0.3214285714285713
 40
0.3214285714285713
 40
0.3214285714285713
 40
0.357142857142857
 40
0.357142857142857
 40
0.357142857142857
 40
0.357142857142857
 40
0.3928571428571427
 40
0.3928571428571427
 40
0.3928571428571427
 40
0.3928571428571427
 40
0.4285714285714284
 40
0.4285714285714284
 40
0.4285714285714284
 40
0.4285714285714284
 40
0.4642857142857141
 40
0.4642857142857141
 40
0.4642857142857141
 40
0.4642857142857141
 40
0.4999999999999998
 40
0.4999999999999998
 40
0.4999999999999998
 40
0.4999999999999998
 40
0.5357142857142856
 40
0.5357142857142856
 40
0.5357142857142856
 40
0.5357142857142856
 40
0.5714285714285713
 40
0.5714285714285713
 40
0.5714285714285713
 40
0.5714285714285713
 40
0.607142857142857
 40
0.607142857142857
 40
0.607142857142857
 40
0.607142857142857
 40
0.6428571428571427
 40
0.6428571428571427
 40
0.6428571428571427
 40
0.6428571428571427
 40
0.6785714285714284
 40
0.6785714285714284
 40
0.6785714285714284
 40
0.6785714285714284
 40
0.7142857142857141
 40
0.7142857142857141
 40
0.7142857142857141
 40
0.7142857142857141
 40
0.7499999999999998
 40
0.7499999999999998
 40
0.7499999999999998
 40
0.7499999999999998
 40
0.7857142857142855
 40
0.7857142857142855
 40
0.7857142857142855
 40
0.7857142857142855
 40
0.8214285714285712
 40
0.8214285714285712
 40
0.8214285714285712
 40
0.8214285714285712
 40
0.8571428571428569
 40
0.8571428571428569
 40
0.8571428571428569
 40
0.8571428571428569
 40
0.8928571428571426
 40
0.8928571428571426
 40
0.8928571428571426
 40
0.8928571428571426
 40
0.9285714285714283
 40
0.9285714285714283
 40
0.9285714285714283
 40
0.9285714285714283
 40
0.964285714285714
 40
0.964285714285714
 40
0.964285714285714
 40
0.964285714285714
 40
1.0
 40
1.0
 40
1.0
 40
1.0
 10
86.7427
 20
117.7269
 30
0.0
 10
86.7427
 20
117.7269
 30
0.0
 10
86.7427
 20
122.1169
 30
0.0
 10
86.7427
 20
122.1169
 30
0.0
 10
86.7427
 20
122.1169
 30
0.0
 10
86.7427
 20
122.1169
 30
0.0
 10
87.40730000000001
 20
122.1169
 30
0.0
 10
87.40730000000001
 20
122.1169
 30
0.0
 10
87.40730000000001
 20
122.1169
 30
0.0
 10
87.40730000000001
 20
122.1169
 30
0.0
 10
87.40730000000001
 20
121.5016
 30
0.0
 10
87.40730000000001
 20
121.5016
 30
0.0
 10
87.40730000000001
 20
121.5016
 30
0.0
 10
87.54560000000001
 20
121.7161
 30
0.0
 10
87.7291
 20
121.8897
 30
0.0
 10
87.9577
 20
122.0195
 30
0.0
 10
87.9577
 20
122.0195
 30
0.0
 10
88.1863
 20
122.1508
 30
0.0
 10
88.4473
 20
122.2171
 30
0.0
 10
88.7394
 20
122.2171
 30
0.0
 10
88.7394
 20
122.2171
 30
0.0
 10
89.06400000000001
 20
122.2171
 30
0.0
 10
89.33070000000001
 20
122.1493
 30
0.0
 10
89.5381
 20
122.0139
 30
0.0
 10
89.5381
 20
122.0139
 30
0.0
 10
89.747
 20
121.8784
 30
0.0
 10
89.89370000000001
 20
121.6907
 30
0.0
 10
89.97840000000001
 20
121.448
 30
0.0
 10
89.97840000000001
 20
121.448
 30
0.0
 10
90.32690000000001
 20
121.9603
 30
0.0
 10
90.77850000000001
 20
122.2171
 30
0.0
 10
91.33450000000001
 20
122.2171
 30
0.0
 10
91.33450000000001
 20
122.2171
 30
0.0
 10
91.7705
 20
122.2171
 30
0.0
 10
92.1049
 20
122.0957
 30
0.0
 10
92.33920000000001
 20
121.8544
 30
0.0
 10
92.33920000000001
 20
121.8544
 30
0.0
 10
92.57340000000001
 20
121.6131
 30
0.0
 10
92.6906
 20
121.242
 30
0.0
 10
92.6906
 20
120.741
 30
0.0
 10
92.6906
 20
120.741
 30
0.0
 10
92.6906
 20
120.741
 30
0.0
 10
92.6906
 20
117.7269
 30
0.0
 10
92.6906
 20
117.7269
 30
0.0
 10
92.6906
 20
117.7269
 30
0.0
 10
92.6906
 20
117.7269
 30
0.0
 10
91.95110000000001
 20
117.7269
 30
0.0
 10
91.95110000000001
 20
117.7269
 30
0.0
 10
91.95110000000001
 20
117.7269
 30
0.0
 10
91.95110000000001
 20
117.7269
 30
0.0
 10
91.95110000000001
 20
120.4927
 30
0.0
 10
91.95110000000001
 20
120.4927
 30
0.0
 10
91.95110000000001
 20
120.4927
 30
0.0
 10
91.95110000000001
 20
120.7904
 30
0.0
 10
91.92710000000001
 20
121.0049
 30
0.0
 10
91.8792
 20
121.1362
 30
0.0
 10
91.8792
 20
121.1362
 30
0.0
 10
91.82980000000001
 20
121.266
 30
0.0
 10
91.7423
 20
121.3718
 30
0.0
 10
91.61670000000001
 20
121.4522
 30
0.0
 10
91.61670000000001
 20
121.4522
 30
0.0
 10
91.4897
 20
121.5313
 30
0.0
 10
91.34010000000001
 20
121.5722
 30
0.0
 10
91.16940000000001
 20
121.5722
 30
0.0
 10
91.16940000000001
 20
121.5722
 30
0.0
 10
90.86030000000001
 20
121.5722
 30
0.0
 10
90.6049
 20
121.4692
 30
0.0
 10
90.4003
 20
121.2632
 30
0.0
 10
90.4003
 20
121.2632
 30
0.0
 10
90.19710000000001
 20
121.0585
 30
0.0
 10
90.0941
 20
120.7298
 30
0.0
 10
90.0941
 20
120.2782
 30
0.0
 10
90.0941
 20
120.2782
 30
0.0
 10
90.0941
 20
120.2782
 30
0.0
 10
90.0941
 20
117.7269
 30
0.0
 10
90.0941
 20
117.7269
 30
0.0
 10
90.0941
 20
117.7269
 30
0.0
 10
90.0941
 20
117.7269
 30
0.0
 10
89.35040000000001
 20
117.7269
 30
0.0
 10
89.35040000000001
 20
117.7269
 30
0.0
 10
89.35040000000001
 20
117.7269
 30
0.0
 10
89.35040000000001
 20
117.7269
 30
0.0
 10
89.35040000000001
 20
120.5788
 30
0.0
 10
89.35040000000001
 20
120.5788
 30
0.0
 10
89.35040000000001
 20
120.5788
 30
0.0
 10
89.35040000000001
 20
120.9104
 30
0.0
 10
89.2898
 20
121.1587
 30
0.0
 10
89.16840000000001
 20
121.3238
 30
0.0
 10
89.16840000000001
 20
121.3238
 30
0.0
 10
89.0471
 20
121.4889
 30
0.0
 10
88.84950000000001
 20
121.5722
 30
0.0
 10
88.5729
 20
121.5722
 30
0.0
 10
88.5729
 20
121.5722
 30
0.0
 10
88.36410000000001
 20
121.5722
 30
0.0
 10
88.1708
 20
121.5172
 30
0.0
 10
87.99300000000001
 20
121.4057
 30
0.0
 10
87.99300000000001
 20
121.4057
 30
0.0
 10
87.8152
 20
121.2956
 30
0.0
 10
87.6853
 20
121.1347
 30
0.0
 10
87.60630000000001
 20
120.9231
 30
0.0
 10
87.60630000000001
 20
120.9231
 30
0.0
 10
87.52590000000001
 20
120.71
 30
0.0
 10
87.4864
 20
120.4038
 30
0.0
 10
87.4864
 20
120.0044
 30
0.0
 10
87.4864
 20
120.0044
 30
0.0
 10
87.4864
 20
120.0044
 30
0.0
 10
87.4864
 20
117.7269
 30
0.0
 10
87.4864
 20
117.7269
 30
0.0
 10
87.4864
 20
117.7269
 30
0.0
 10
87.4864
 20
117.7269
 30
0.0
 10
86.7427
 20
117.7269
 30
0.0
 10
86.7427
 20
117.7269
 30
0.0
  0
SPLINE
  5
82
330
1F
100
AcDbEntity
  8
52
 62
   250
370
     5
100
AcDbSpline
210
0.0
220
0.0
230
1.0
 70
    24
 71
     3
 72
     8
 73
     4
 74
     0
 42
0.0000000001
 43
0.0000000001
 40
0.0
 40
0.0
 40
0.0
 40
0.0
 40
1.0
 40
1.0
 40
1.0
 40
1.0
 10
-146.1164
 20
-31.4325
 30
0.0
 10
-146.1164
 20
-31.4325
 30
0.0
 10
-146.1164
 20
-51.2359
 30
0.0
 10
-146.1164
 20
-51.2359
 30
0.0
  0
SPLINE
  5
83
330
1F
100
AcDbEntity
  8
52
 62
   250
370
     5
100
AcDbSpline
210
0.0
220
0.0
230
1.0
 70
    24
 71
     3
 72
     8
 73
     4
 74
     0
 42
0.0000000001
 43
0.0000000001
 40
0.0
 40
0.0
 40
0.0
 40
0.0
 40
1.0
 40
1.0
 40
1.0
 40
1.0
 10
-151.3333
 20
-31.2554
 30
0.0
 10
-151.3333
 20
-31.2554
 30
0.0
 10
-151.3333
 20
-51.2359
 30
0.0
 10
-151.3333
 20
-51.2359
 30
0.0
  0
SPLINE
  5
84
330
1F
100
AcDbEntity
  8
52
 62
   250
370
     5
100
AcDbSpline
210
0.0
220
0.0
230
1.0
 70
    24
 71
     3
 72
     8
 73
     4
 74
     0
 42
0.0000000001
 43
0.0000000001
 40
0.0
 40
0.0
 40
0.0
 40
0.0
 40
1.0
 40
1.0
 40
1.0
 40
1.0
 10
-146.1164
 20
-46.1559
 30
0.0
 10
-146.1164
 20
-46.1559
 30
0.0
 10
-151.3333
 20
-46.1559
 30
0.0
 10
-151.3333
 20
-46.1559
 30
0.0
  0
SPLINE
  5
85
330
1F
100
AcDbEntity
  8
52
 62
   250
100
AcDbSpline
210
0.0
220
0.0
230
1.0
 70
    11
 71
     3
 72
    92
 73
    88
 74
     0
 42
0.0000000001
 43
0.0000000001
 40
0.0
 40
0.0
 40
0.0
 40
0.0
 40
0.0454545454545455
 40
0.0454545454545455
 40
0.0454545454545455
 40
0.0454545454545455
 40
0.0909090909090909
 40
0.0909090909090909
 40
0.0909090909090909
 40
0.0909090909090909
 40
0.1363636363636364
 40
0.1363636363636364
 40
0.1363636363636364
 40
0.1363636363636364
 40
0.1818181818181818
 40
0.1818181818181818
 40
0.1818181818181818
 40
0.1818181818181818
 40
0.2272727272727273
 40
0.2272727272727273
 40
0.2272727272727273
 40
0.2272727272727273
 40
0.2727272727272728
 40
0.2727272727272728
 40
0.2727272727272728
 40
0.2727272727272728
 40
0.3181818181818182
 40
0.3181818181818182
 40
0.3181818181818182
 40
0.3181818181818182
 40
0.3636363636363637
 40
0.3636363636363637
 40
0.3636363636363637
 40
0.3636363636363637
 40
0.4090909090909092
 40
0.4090909090909092
 40
0.4090909090909092
 40
0.4090909090909092
 40
0.4545454545454546
 40
0.4545454545454546
 40
0.4545454545454546
 40
0.4545454545454546
 40
0.5000000000000001
 40
0.5000000000000001
 40
0.5000000000000001
 40
0.5000000000000001
 40
0.5454545454545455
 40
0.5454545454545455
 40
0.5454545454545455
 40
0.5454545454545455
 40
0.5909090909090909
 40
0.5909090909090909
 40
0.5909090909090909
 40
0.5909090909090909
 40
0.6363636363636364
 40
0.6363636363636364
 40
0.6363636363636364
 40
0.6363636363636364
 40
0.6818181818181818
 40
0.6818181818181818
 40
0.6818181818181818
 40
0.6818181818181818
 40
0.7272727272727272
 40
0.7272727272727272
 40
0.7272727272727272
 40
0.7272727272727272
 40
0.7727272727272726
 40
0.7727272727272726
 40
0.7727272727272726
 40
0.7727272727272726
 40
0.818181818181818
 40
0.818181818181818
 40
0.818181818181818
 40
0.818181818181818
 40
0.8636363636363634
 40
0.8636363636363634
 40
0.8636363636363634
 40
0.8636363636363634
 40
0.9090909090909088
 40
0.9090909090909088
 40
0.9090909090909088
 40
0.9090909090909088
 40
0.9545454545454543
 40
0.9545454545454543
 40
0.9545454545454543
 40
0.9545454545454543
 40
1.0
 40
1.0
 40
1.0
 40
1.0
 10
-139.415
 20
-47.56
 30
0.0
 10
-139.415
 20
-47.56
 30
0.0
 10
-138.6333
 20
-47.4937
 30
0.0
 10
-138.6333
 20
-47.4937
 30
0.0
 10
-138.6333
 20
-47.4937
 30
0.0
 10
-138.5754
 20
-47.8747
 30
0.0
 10
-138.4414
 20
-48.1597
 30
0.0
 10
-138.2311
 20
-48.35160000000001
 30
0.0
 10
-138.2311
 20
-48.35160000000001
 30
0.0
 10
-138.0194
 20
-48.5435
 30
0.0
 10
-137.7654
 20
-48.63950000000001
 30
0.0
 10
-137.4677
 20
-48.63950000000001
 30
0.0
 10
-137.4677
 20
-48.63950000000001
 30
0.0
 10
-137.1093
 20
-48.63950000000001
 30
0.0
 10
-136.8059
 20
-48.50400000000001
 30
0.0
 10
-136.5589
 20
-48.2345
 30
0.0
 10
-136.5589
 20
-48.2345
 30
0.0
 10
-136.3106
 20
-47.9636
 30
0.0
 10
-136.1864
 20
-47.6051
 30
0.0
 10
-136.1864
 20
-47.15920000000001
 30
0.0
 10
-136.1864
 20
-47.15920000000001
 30
0.0
 10
-136.1864
 20
-46.7345
 30
0.0
 10
-136.3049
 20
-46.4001
 30
0.0
 10
-136.5434
 20
-46.1545
 30
0.0
 10
-136.5434
 20
-46.1545
 30
0.0
 10
-136.7819
 20
-45.909
 30
0.0
 10
-137.0937
 20
-45.7862
 30
0.0
 10
-137.4804
 20
-45.7862
 30
0.0
 10
-137.4804
 20
-45.7862
 30
0.0
 10
-137.7203
 20
-45.7862
 30
0.0
 10
-137.9362
 20
-45.8413
 30
0.0
 10
-138.1295
 20
-45.9499
 30
0.0
 10
-138.1295
 20
-45.9499
 30
0.0
 10
-138.3228
 20
-46.05860000000001
 30
0.0
 10
-138.4738
 20
-46.1997
 30
0.0
 10
-138.5839
 20
-46.3732
 30
0.0
 10
-138.5839
 20
-46.3732
 30
0.0
 10
-138.5839
 20
-46.3732
 30
0.0
 10
-139.2824
 20
-46.28290000000001
 30
0.0
 10
-139.2824
 20
-46.28290000000001
 30
0.0
 10
-139.2824
 20
-46.28290000000001
 30
0.0
 10
-139.2824
 20
-46.28290000000001
 30
0.0
 10
-138.6954
 20
-43.17
 30
0.0
 10
-138.6954
 20
-43.17
 30
0.0
 10
-138.6954
 20
-43.17
 30
0.0
 10
-138.6954
 20
-43.17
 30
0.0
 10
-135.6812
 20
-43.17
 30
0.0
 10
-135.6812
 20
-43.17
 30
0.0
 10
-135.6812
 20
-43.17
 30
0.0
 10
-135.6812
 20
-43.17
 30
0.0
 10
-135.6812
 20
-43.8812
 30
0.0
 10
-135.6812
 20
-43.8812
 30
0.0
 10
-135.6812
 20
-43.8812
 30
0.0
 10
-135.6812
 20
-43.8812
 30
0.0
 10
-138.0999
 20
-43.8812
 30
0.0
 10
-138.0999
 20
-43.8812
 30
0.0
 10
-138.0999
 20
-43.8812
 30
0.0
 10
-138.0999
 20
-43.8812
 30
0.0
 10
-138.4273
 20
-45.5096
 30
0.0
 10
-138.4273
 20
-45.5096
 30
0.0
 10
-138.4273
 20
-45.5096
 30
0.0
 10
-138.0632
 20
-45.2556
 30
0.0
 10
-137.6808
 20
-45.1286
 30
0.0
 10
-137.2814
 20
-45.1286
 30
0.0
 10
-137.2814
 20
-45.1286
 30
0.0
 10
-136.7523
 20
-45.1286
 30
0.0
 10
-136.3063
 20
-45.3121
 30
0.0
 10
-135.9423
 20
-45.679
 30
0.0
 10
-135.9423
 20
-45.679
 30
0.0
 10
-135.5782
 20
-46.0459
 30
0.0
 10
-135.3962
 20
-46.5172
 30
0.0
 10
-135.3962
 20
-47.0929
 30
0.0
 10
-135.3962
 20
-47.0929
 30
0.0
 10
-135.3962
 20
-47.6418
 30
0.0
 10
-135.557
 20
-48.116
 30
0.0
 10
-135.876
 20
-48.5153
 30
0.0
 10
-135.876
 20
-48.5153
 30
0.0
 10
-136.2654
 20
-49.005
 30
0.0
 10
-136.796
 20
-49.2505
 30
0.0
 10
-137.4677
 20
-49.2505
 30
0.0
 10
-137.4677
 20
-49.2505
 30
0.0
 10
-138.0194
 20
-49.2505
 30
0.0
 10
-138.4696
 20
-49.09670000000001
 30
0.0
 10
-138.8181
 20
-48.7877
 30
0.0
 10
-138.8181
 20
-48.7877
 30
0.0
 10
-139.1667
 20
-48.4786
 30
0.0
 10
-139.3656
 20
-48.0694
 30
0.0
 10
-139.415
 20
-47.56
 30
0.0
  0
SPLINE
  5
86
330
1F
100
AcDbEntity
  8
52
 62
   250
100
AcDbSpline
210
0.0
220
0.0
230
1.0
 70
    11
 71
     3
 72
    20
 73
    16
 74
     0
 42
0.0000000001
 43
0.0000000001
 40
0.0
 40
0.0
 40
0.0
 40
0.0
 40
0.25
 40
0.25
 40
0.25
 40
0.25
 40
0.5
 40
0.5
 40
0.5
 40
0.5
 40
0.75
 40
0.75
 40
0.75
 40
0.75
 40
1.0
 40
1.0
 40
1.0
 40
1.0
 10
-134.2884
 20
-49.1475
 30
0.0
 10
-134.2884
 20
-49.1475
 30
0.0
 10
-134.2884
 20
-48.29940000000001
 30
0.0
 10
-134.2884
 20
-48.29940000000001
 30
0.0
 10
-134.2884
 20
-48.29940000000001
 30
0.0
 10
-134.2884
 20
-48.29940000000001
 30
0.0
 10
-133.4404
 20
-48.29940000000001
 30
0.0
 10
-133.4404
 20
-48.29940000000001
 30
0.0
 10
-133.4404
 20
-48.29940000000001
 30
0.0
 10
-133.4404
 20
-48.29940000000001
 30
0.0
 10
-133.4404
 20
-49.1475
 30
0.0
 10
-133.4404
 20
-49.1475
 30
0.0
 10
-133.4404
 20
-49.1475
 30
0.0
 10
-133.4404
 20
-49.1475
 30
0.0
 10
-134.2884
 20
-49.1475
 30
0.0
 10
-134.2884
 20
-49.1475
 30
0.0
  0
SPLINE
  5
87
330
1F
100
AcDbEntity
  8
52
 62
   250
100
AcDbSpline
210
0.0
220
0.0
230
1.0
 70
    11
 71
     3
 72
    92
 73
    88
 74
     0
 42
0.0000000001
 43
0.0000000001
 40
0.0
 40
0.0
 40
0.0
 40
0.0
 40
0.0454545454545455
 40
0.0454545454545455
 40
0.0454545454545455
 40
0.0454545454545455
 40
0.0909090909090909
 40
0.0909090909090909
 40
0.0909090909090909
 40
0.0909090909090909
 40
0.1363636363636364
 40
0.1363636363636364
 40
0.1363636363636364
 40
0.1363636363636364
 40
0.1818181818181818
 40
0.1818181818181818
 40
0.1818181818181818
 40
0.1818181818181818
 40
0.2272727272727273
 40
0.2272727272727273
 40
0.2272727272727273
 40
0.2272727272727273
 40
0.2727272727272728
 40
0.2727272727272728
 40
0.2727272727272728
 40
0.2727272727272728
 40
0.3181818181818182
 40
0.3181818181818182
 40
0.3181818181818182
 40
0.3181818181818182
 40
0.3636363636363637
 40
0.3636363636363637
 40
0.3636363636363637
 40
0.3636363636363637
 40
0.4090909090909092
 40
0.4090909090909092
 40
0.4090909090909092
 40
0.4090909090909092
 40
0.4545454545454546
 40
0.4545454545454546
 40
0.4545454545454546
 40
0.4545454545454546
 40
0.5000000000000001
 40
0.5000000000000001
 40
0.5000000000000001
 40
0.5000000000000001
 40
0.5454545454545455
 40
0.5454545454545455
 40
0.5454545454545455
 40
0.5454545454545455
 40
0.5909090909090909
 40
0.5909090909090909
 40
0.5909090909090909
 40
0.5909090909090909
 40
0.6363636363636364
 40
0.6363636363636364
 40
0.6363636363636364
 40
0.6363636363636364
 40
0.6818181818181818
 40
0.6818181818181818
 40
0.6818181818181818
 40
0.6818181818181818
 40
0.7272727272727272
 40
0.7272727272727272
 40
0.7272727272727272
 40
0.7272727272727272
 40
0.7727272727272726
 40
0.7727272727272726
 40
0.7727272727272726
 40
0.7727272727272726
 40
0.818181818181818
 40
0.818181818181818
 40
0.818181818181818
 40
0.818181818181818
 40
0.8636363636363634
 40
0.8636363636363634
 40
0.8636363636363634
 40
0.8636363636363634
 40
0.9090909090909088
 40
0.9090909090909088
 40
0.9090909090909088
 40
0.9090909090909088
 40
0.9545454545454543
 40
0.9545454545454543
 40
0.9545454545454543
 40
0.9545454545454543
 40
1.0
 40
1.0
 40
1.0
 40
1.0
 10
-128.4422
 20
-48.43210000000001
 30
0.0
 10
-128.4422
 20
-48.43210000000001
 30
0.0
 10
-128.4422
 20
-49.1475
 30
0.0
 10
-128.4422
 20
-49.1475
 30
0.0
 10
-128.4422
 20
-49.1475
 30
0.0
 10
-128.4422
 20
-49.1475
 30
0.0
 10
-132.4484
 20
-49.1475
 30
0.0
 10
-132.4484
 20
-49.1475
 30
0.0
 10
-132.4484
 20
-49.1475
 30
0.0
 10
-132.454
 20
-48.9683
 30
0.0
 10
-132.4258
 20
-48.7961
 30
0.0
 10
-132.3623
 20
-48.631
 30
0.0
 10
-132.3623
 20
-48.631
 30
0.0
 10
-132.2607
 20
-48.3573
 30
0.0
 10
-132.097
 20
-48.08920000000001
 30
0.0
 10
-131.8726
 20
-47.8239
 30
0.0
 10
-131.8726
 20
-47.8239
 30
0.0
 10
-131.6469
 20
-47.56
 30
0.0
 10
-131.3223
 20
-47.25380000000001
 30
0.0
 10
-130.899
 20
-46.90660000000001
 30
0.0
 10
-130.899
 20
-46.90660000000001
 30
0.0
 10
-130.24
 20
-46.3662
 30
0.0
 10
-129.7941
 20
-45.9386
 30
0.0
 10
-129.5626
 20
-45.6225
 30
0.0
 10
-129.5626
 20
-45.6225
 30
0.0
 10
-129.3312
 20
-45.3079
 30
0.0
 10
-129.2155
 20
-45.00870000000001
 30
0.0
 10
-129.2155
 20
-44.72790000000001
 30
0.0
 10
-129.2155
 20
-44.72790000000001
 30
0.0
 10
-129.2155
 20
-44.433
 30
0.0
 10
-129.3213
 20
-44.1846
 30
0.0
 10
-129.5316
 20
-43.9814
 30
0.0
 10
-129.5316
 20
-43.9814
 30
0.0
 10
-129.7433
 20
-43.7796
 30
0.0
 10
-130.0184
 20
-43.678
 30
0.0
 10
-130.3571
 20
-43.678
 30
0.0
 10
-130.3571
 20
-43.678
 30
0.0
 10
-130.7155
 20
-43.678
 30
0.0
 10
-131.002
 20
-43.7853
 30
0.0
 10
-131.2165
 20
-44.0012
 30
0.0
 10
-131.2165
 20
-44.0012
 30
0.0
 10
-131.4324
 20
-44.2156
 30
0.0
 10
-131.541
 20
-44.5134
 30
0.0
 10
-131.5439
 20
-44.893
 30
0.0
 10
-131.5439
 20
-44.893
 30
0.0
 10
-131.5439
 20
-44.893
 30
0.0
 10
-132.3087
 20
-44.8154
 30
0.0
 10
-132.3087
 20
-44.8154
 30
0.0
 10
-132.3087
 20
-44.8154
 30
0.0
 10
-132.2565
 20
-44.2439
 30
0.0
 10
-132.0589
 20
-43.8092
 30
0.0
 10
-131.7174
 20
-43.5101
 30
0.0
 10
-131.7174
 20
-43.5101
 30
0.0
 10
-131.3759
 20
-43.2109
 30
0.0
 10
-130.9159
 20
-43.0614
 30
0.0
 10
-130.3402
 20
-43.0614
 30
0.0
 10
-130.3402
 20
-43.0614
 30
0.0
 10
-129.7588
 20
-43.0614
 30
0.0
 10
-129.2988
 20
-43.22360000000001
 30
0.0
 10
-128.9601
 20
-43.5454
 30
0.0
 10
-128.9601
 20
-43.5454
 30
0.0
 10
-128.62
 20
-43.8685
 30
0.0
 10
-128.4507
 20
-44.2679
 30
0.0
 10
-128.4507
 20
-44.74480000000001
 30
0.0
 10
-128.4507
 20
-44.74480000000001
 30
0.0
 10
-128.4507
 20
-44.9875
 30
0.0
 10
-128.5001
 20
-45.226
 30
0.0
 10
-128.6003
 20
-45.4603
 30
0.0
 10
-128.6003
 20
-45.4603
 30
0.0
 10
-128.699
 20
-45.69450000000001
 30
0.0
 10
-128.8641
 20
-45.9414
 30
0.0
 10
-129.0942
 20
-46.1997
 30
0.0
 10
-129.0942
 20
-46.1997
 30
0.0
 10
-129.3242
 20
-46.4593
 30
0.0
 10
-129.7066
 20
-46.8149
 30
0.0
 10
-130.2414
 20
-47.2665
 30
0.0
 10
-130.2414
 20
-47.2665
 30
0.0
 10
-130.6873
 20
-47.6418
 30
0.0
 10
-130.9738
 20
-47.8958
 30
0.0
 10
-131.1008
 20
-48.02990000000001
 30
0.0
 10
-131.1008
 20
-48.02990000000001
 30
0.0
 10
-131.2278
 20
-48.1625
 30
0.0
 10
-131.3322
 20
-48.29660000000001
 30
0.0
 10
-131.4154
 20
-48.43210000000001
 30
0.0
 10
-131.4154
 20
-48.43210000000001
 30
0.0
 10
-131.4154
 20
-48.43210000000001
 30
0.0
 10
-128.4422
 20
-48.43210000000001
 30
0.0
 10
-128.4422
 20
-48.43210000000001
 30
0.0
  0
SPLINE
  5
88
330
1F
100
AcDbEntity
  8
52
 62
   250
100
AcDbSpline
210
0.0
220
0.0
230
1.0
 70
    11
 71
     3
 72
    92
 73
    88
 74
     0
 42
0.0000000001
 43
0.0000000001
 40
0.0
 40
0.0
 40
0.0
 40
0.0
 40
0.0454545454545455
 40
0.0454545454545455
 40
0.0454545454545455
 40
0.0454545454545455
 40
0.0909090909090909
 40
0.0909090909090909
 40
0.0909090909090909
 40
0.0909090909090909
 40
0.1363636363636364
 40
0.1363636363636364
 40
0.1363636363636364
 40
0.1363636363636364
 40
0.1818181818181818
 40
0.1818181818181818
 40
0.1818181818181818
 40
0.1818181818181818
 40
0.2272727272727273
 40
0.2272727272727273
 40
0.2272727272727273
 40
0.2272727272727273
 40
0.2727272727272728
 40
0.2727272727272728
 40
0.2727272727272728
 40
0.2727272727272728
 40
0.3181818181818182
 40
0.3181818181818182
 40
0.3181818181818182
 40
0.3181818181818182
 40
0.3636363636363637
 40
0.3636363636363637
 40
0.3636363636363637
 40
0.3636363636363637
 40
0.4090909090909092
 40
0.4090909090909092
 40
0.4090909090909092
 40
0.4090909090909092
 40
0.4545454545454546
 40
0.4545454545454546
 40
0.4545454545454546
 40
0.4545454545454546
 40
0.5000000000000001
 40
0.5000000000000001
 40
0.5000000000000001
 40
0.5000000000000001
 40
0.5454545454545455
 40
0.5454545454545455
 40
0.5454545454545455
 40
0.5454545454545455
 40
0.5909090909090909
 40
0.5909090909090909
 40
0.5909090909090909
 40
0.5909090909090909
 40
0.6363636363636364
 40
0.6363636363636364
 40
0.6363636363636364
 40
0.6363636363636364
 40
0.6818181818181818
 40
0.6818181818181818
 40
0.6818181818181818
 40
0.6818181818181818
 40
0.7272727272727272
 40
0.7272727272727272
 40
0.7272727272727272
 40
0.7272727272727272
 40
0.7727272727272726
 40
0.7727272727272726
 40
0.7727272727272726
 40
0.7727272727272726
 40
0.818181818181818
 40
0.818181818181818
 40
0.818181818181818
 40
0.818181818181818
 40
0.8636363636363634
 40
0.8636363636363634
 40
0.8636363636363634
 40
0.8636363636363634
 40
0.9090909090909088
 40
0.9090909090909088
 40
0.9090909090909088
 40
0.9090909090909088
 40
0.9545454545454543
 40
0.9545454545454543
 40
0.9545454545454543
 40
0.9545454545454543
 40
1.0
 40
1.0
 40
1.0
 40
1.0
 10
-123.7333
 20
-48.43210000000001
 30
0.0
 10
-123.7333
 20
-48.43210000000001
 30
0.0
 10
-123.7333
 20
-49.1475
 30
0.0
 10
-123.7333
 20
-49.1475
 30
0.0
 10
-123.7333
 20
-49.1475
 30
0.0
 10
-123.7333
 20
-49.1475
 30
0.0
 10
-127.7395
 20
-49.1475
 30
0.0
 10
-127.7395
 20
-49.1475
 30
0.0
 10
-127.7395
 20
-49.1475
 30
0.0
 10
-127.7451
 20
-48.9683
 30
0.0
 10
-127.7169
 20
-48.7961
 30
0.0
 10
-127.6534
 20
-48.631
 30
0.0
 10
-127.6534
 20
-48.631
 30
0.0
 10
-127.5518
 20
-48.3573
 30
0.0
 10
-127.3881
 20
-48.08920000000001
 30
0.0
 10
-127.1637
 20
-47.8239
 30
0.0
 10
-127.1637
 20
-47.8239
 30
0.0
 10
-126.938
 20
-47.56
 30
0.0
 10
-126.6134
 20
-47.25380000000001
 30
0.0
 10
-126.1901
 20
-46.90660000000001
 30
0.0
 10
-126.1901
 20
-46.90660000000001
 30
0.0
 10
-125.5311
 20
-46.3662
 30
0.0
 10
-125.0852
 20
-45.9386
 30
0.0
 10
-124.8537
 20
-45.6225
 30
0.0
 10
-124.8537
 20
-45.6225
 30
0.0
 10
-124.6223
 20
-45.3079
 30
0.0
 10
-124.5066
 20
-45.00870000000001
 30
0.0
 10
-124.5066
 20
-44.72790000000001
 30
0.0
 10
-124.5066
 20
-44.72790000000001
 30
0.0
 10
-124.5066
 20
-44.433
 30
0.0
 10
-124.6124
 20
-44.1846
 30
0.0
 10
-124.8227
 20
-43.9814
 30
0.0
 10
-124.8227
 20
-43.9814
 30
0.0
 10
-125.0344
 20
-43.7796
 30
0.0
 10
-125.3095
 20
-43.678
 30
0.0
 10
-125.6482
 20
-43.678
 30
0.0
 10
-125.6482
 20
-43.678
 30
0.0
 10
-126.0066
 20
-43.678
 30
0.0
 10
-126.2931
 20
-43.7853
 30
0.0
 10
-126.5076
 20
-44.0012
 30
0.0
 10
-126.5076
 20
-44.0012
 30
0.0
 10
-126.7235
 20
-44.2156
 30
0.0
 10
-126.8321
 20
-44.5134
 30
0.0
 10
-126.835
 20
-44.893
 30
0.0
 10
-126.835
 20
-44.893
 30
0.0
 10
-126.835
 20
-44.893
 30
0.0
 10
-127.5998
 20
-44.8154
 30
0.0
 10
-127.5998
 20
-44.8154
 30
0.0
 10
-127.5998
 20
-44.8154
 30
0.0
 10
-127.5476
 20
-44.2439
 30
0.0
 10
-127.35
 20
-43.8092
 30
0.0
 10
-127.0085
 20
-43.5101
 30
0.0
 10
-127.0085
 20
-43.5101
 30
0.0
 10
-126.667
 20
-43.2109
 30
0.0
 10
-126.207
 20
-43.0614
 30
0.0
 10
-125.6313
 20
-43.0614
 30
0.0
 10
-125.6313
 20
-43.0614
 30
0.0
 10
-125.0499
 20
-43.0614
 30
0.0
 10
-124.5899
 20
-43.22360000000001
 30
0.0
 10
-124.2512
 20
-43.5454
 30
0.0
 10
-124.2512
 20
-43.5454
 30
0.0
 10
-123.9111
 20
-43.8685
 30
0.0
 10
-123.7418
 20
-44.2679
 30
0.0
 10
-123.7418
 20
-44.74480000000001
 30
0.0
 10
-123.7418
 20
-44.74480000000001
 30
0.0
 10
-123.7418
 20
-44.9875
 30
0.0
 10
-123.7912
 20
-45.226
 30
0.0
 10
-123.8914
 20
-45.4603
 30
0.0
 10
-123.8914
 20
-45.4603
 30
0.0
 10
-123.9901
 20
-45.69450000000001
 30
0.0
 10
-124.1552
 20
-45.9414
 30
0.0
 10
-124.3853
 20
-46.1997
 30
0.0
 10
-124.3853
 20
-46.1997
 30
0.0
 10
-124.6153
 20
-46.4593
 30
0.0
 10
-124.9977
 20
-46.8149
 30
0.0
 10
-125.5325
 20
-47.2665
 30
0.0
 10
-125.5325
 20
-47.2665
 30
0.0
 10
-125.9784
 20
-47.6418
 30
0.0
 10
-126.2649
 20
-47.8958
 30
0.0
 10
-126.3919
 20
-48.02990000000001
 30
0.0
 10
-126.3919
 20
-48.02990000000001
 30
0.0
 10
-126.5189
 20
-48.1625
 30
0.0
 10
-126.6233
 20
-48.29660000000001
 30
0.0
 10
-126.7065
 20
-48.43210000000001
 30
0.0
 10
-126.7065
 20
-48.43210000000001
 30
0.0
 10
-126.7065
 20
-48.43210000000001
 30
0.0
 10
-123.7333
 20
-48.43210000000001
 30
0.0
 10
-123.7333
 20
-48.43210000000001
 30
0.0
  0
SPLINE
  5
89
330
1F
100
AcDbEntity
  8
52
 62
   250
100
AcDbSpline
210
0.0
220
0.0
230
1.0
 70
    11
 71
     3
 72
   116
 73
   112
 74
     0
 42
0.0000000001
 43
0.0000000001
 40
0.0
 40
0.0
 40
0.0
 40
0.0
 40
0.0357142857142857
 40
0.0357142857142857
 40
0.0357142857142857
 40
0.0357142857142857
 40
0.0714285714285714
 40
0.0714285714285714
 40
0.0714285714285714
 40
0.0714285714285714
 40
0.1071428571428571
 40
0.1071428571428571
 40
0.1071428571428571
 40
0.1071428571428571
 40
0.1428571428571429
 40
0.1428571428571429
 40
0.1428571428571429
 40
0.1428571428571429
 40
0.1785714285714286
 40
0.1785714285714286
 40
0.1785714285714286
 40
0.1785714285714286
 40
0.2142857142857143
 40
0.2142857142857143
 40
0.2142857142857143
 40
0.2142857142857143
 40
0.2499999999999999
 40
0.2499999999999999
 40
0.2499999999999999
 40
0.2499999999999999
 40
0.2857142857142856
 40
0.2857142857142856
 40
0.2857142857142856
 40
0.2857142857142856
 40
0.3214285714285713
 40
0.3214285714285713
 40
0.3214285714285713
 40
0.3214285714285713
 40
0.357142857142857
 40
0.357142857142857
 40
0.357142857142857
 40
0.357142857142857
 40
0.3928571428571427
 40
0.3928571428571427
 40
0.3928571428571427
 40
0.3928571428571427
 40
0.4285714285714284
 40
0.4285714285714284
 40
0.4285714285714284
 40
0.4285714285714284
 40
0.4642857142857141
 40
0.4642857142857141
 40
0.4642857142857141
 40
0.4642857142857141
 40
0.4999999999999998
 40
0.4999999999999998
 40
0.4999999999999998
 40
0.4999999999999998
 40
0.5357142857142856
 40
0.5357142857142856
 40
0.5357142857142856
 40
0.5357142857142856
 40
0.5714285714285713
 40
0.5714285714285713
 40
0.5714285714285713
 40
0.5714285714285713
 40
0.607142857142857
 40
0.607142857142857
 40
0.607142857142857
 40
0.607142857142857
 40
0.6428571428571427
 40
0.6428571428571427
 40
0.6428571428571427
 40
0.6428571428571427
 40
0.6785714285714284
 40
0.6785714285714284
 40
0.6785714285714284
 40
0.6785714285714284
 40
0.7142857142857141
 40
0.7142857142857141
 40
0.7142857142857141
 40
0.7142857142857141
 40
0.7499999999999998
 40
0.7499999999999998
 40
0.7499999999999998
 40
0.7499999999999998
 40
0.7857142857142855
 40
0.7857142857142855
 40
0.7857142857142855
 40
0.7857142857142855
 40
0.8214285714285712
 40
0.8214285714285712
 40
0.8214285714285712
 40
0.8214285714285712
 40
0.8571428571428569
 40
0.8571428571428569
 40
0.8571428571428569
 40
0.8571428571428569
 40
0.8928571428571426
 40
0.8928571428571426
 40
0.8928571428571426
 40
0.8928571428571426
 40
0.9285714285714283
 40
0.9285714285714283
 40
0.9285714285714283
 40
0.9285714285714283
 40
0.964285714285714
 40
0.964285714285714
 40
0.964285714285714
 40
0.964285714285714
 40
1.0
 40
1.0
 40
1.0
 40
1.0
 10
-120.3763
 20
-49.1475
 30
0.0
 10
-120.3763
 20
-49.1475
 30
0.0
 10
-120.3763
 20
-44.7575
 30
0.0
 10
-120.3763
 20
-44.7575
 30
0.0
 10
-120.3763
 20
-44.7575
 30
0.0
 10
-120.3763
 20
-44.7575
 30
0.0
 10
-119.7117
 20
-44.7575
 30
0.0
 10
-119.7117
 20
-44.7575
 30
0.0
 10
-119.7117
 20
-44.7575
 30
0.0
 10
-119.7117
 20
-44.7575
 30
0.0
 10
-119.7117
 20
-45.37280000000001
 30
0.0
 10
-119.7117
 20
-45.37280000000001
 30
0.0
 10
-119.7117
 20
-45.37280000000001
 30
0.0
 10
-119.5734
 20
-45.1583
 30
0.0
 10
-119.3899
 20
-44.9847
 30
0.0
 10
-119.1613
 20
-44.8549
 30
0.0
 10
-119.1613
 20
-44.8549
 30
0.0
 10
-118.9327
 20
-44.72360000000001
 30
0.0
 10
-118.6717
 20
-44.6573
 30
0.0
 10
-118.3796
 20
-44.6573
 30
0.0
 10
-118.3796
 20
-44.6573
 30
0.0
 10
-118.055
 20
-44.6573
 30
0.0
 10
-117.7883
 20
-44.72510000000001
 30
0.0
 10
-117.5809
 20
-44.8605
 30
0.0
 10
-117.5809
 20
-44.8605
 30
0.0
 10
-117.372
 20
-44.996
 30
0.0
 10
-117.2253
 20
-45.1837
 30
0.0
 10
-117.1406
 20
-45.4264
 30
0.0
 10
-117.1406
 20
-45.4264
 30
0.0
 10
-116.7921
 20
-44.91410000000001
 30
0.0
 10
-116.3405
 20
-44.6573
 30
0.0
 10
-115.7845
 20
-44.6573
 30
0.0
 10
-115.7845
 20
-44.6573
 30
0.0
 10
-115.3485
 20
-44.6573
 30
0.0
 10
-115.0141
 20
-44.7787
 30
0.0
 10
-114.7798
 20
-45.02
 30
0.0
 10
-114.7798
 20
-45.02
 30
0.0
 10
-114.5456
 20
-45.26130000000001
 30
0.0
 10
-114.4284
 20
-45.6324
 30
0.0
 10
-114.4284
 20
-46.1334
 30
0.0
 10
-114.4284
 20
-46.1334
 30
0.0
 10
-114.4284
 20
-46.1334
 30
0.0
 10
-114.4284
 20
-49.1475
 30
0.0
 10
-114.4284
 20
-49.1475
 30
0.0
 10
-114.4284
 20
-49.1475
 30
0.0
 10
-114.4284
 20
-49.1475
 30
0.0
 10
-115.1679
 20
-49.1475
 30
0.0
 10
-115.1679
 20
-49.1475
 30
0.0
 10
-115.1679
 20
-49.1475
 30
0.0
 10
-115.1679
 20
-49.1475
 30
0.0
 10
-115.1679
 20
-46.3817
 30
0.0
 10
-115.1679
 20
-46.3817
 30
0.0
 10
-115.1679
 20
-46.3817
 30
0.0
 10
-115.1679
 20
-46.084
 30
0.0
 10
-115.1919
 20
-45.8695
 30
0.0
 10
-115.2398
 20
-45.7382
 30
0.0
 10
-115.2398
 20
-45.7382
 30
0.0
 10
-115.2892
 20
-45.6084
 30
0.0
 10
-115.3767
 20
-45.5026
 30
0.0
 10
-115.5023
 20
-45.4222
 30
0.0
 10
-115.5023
 20
-45.4222
 30
0.0
 10
-115.6293
 20
-45.3431
 30
0.0
 10
-115.7789
 20
-45.3022
 30
0.0
 10
-115.9496
 20
-45.3022
 30
0.0
 10
-115.9496
 20
-45.3022
 30
0.0
 10
-116.2587
 20
-45.3022
 30
0.0
 10
-116.5141
 20
-45.4052
 30
0.0
 10
-116.7187
 20
-45.6112
 30
0.0
 10
-116.7187
 20
-45.6112
 30
0.0
 10
-116.9219
 20
-45.8159
 30
0.0
 10
-117.0249
 20
-46.1446
 30
0.0
 10
-117.0249
 20
-46.5962
 30
0.0
 10
-117.0249
 20
-46.5962
 30
0.0
 10
-117.0249
 20
-46.5962
 30
0.0
 10
-117.0249
 20
-49.1475
 30
0.0
 10
-117.0249
 20
-49.1475
 30
0.0
 10
-117.0249
 20
-49.1475
 30
0.0
 10
-117.0249
 20
-49.1475
 30
0.0
 10
-117.7686
 20
-49.1475
 30
0.0
 10
-117.7686
 20
-49.1475
 30
0.0
 10
-117.7686
 20
-49.1475
 30
0.0
 10
-117.7686
 20
-49.1475
 30
0.0
 10
-117.7686
 20
-46.2956
 30
0.0
 10
-117.7686
 20
-46.2956
 30
0.0
 10
-117.7686
 20
-46.2956
 30
0.0
 10
-117.7686
 20
-45.96400000000001
 30
0.0
 10
-117.8292
 20
-45.71570000000001
 30
0.0
 10
-117.9506
 20
-45.5506
 30
0.0
 10
-117.9506
 20
-45.5506
 30
0.0
 10
-118.0719
 20
-45.3855
 30
0.0
 10
-118.2695
 20
-45.3022
 30
0.0
 10
-118.5461
 20
-45.3022
 30
0.0
 10
-118.5461
 20
-45.3022
 30
0.0
 10
-118.7549
 20
-45.3022
 30
0.0
 10
-118.9482
 20
-45.3572
 30
0.0
 10
-119.126
 20
-45.46870000000001
 30
0.0
 10
-119.126
 20
-45.46870000000001
 30
0.0
 10
-119.3038
 20
-45.5788
 30
0.0
 10
-119.4337
 20
-45.7397
 30
0.0
 10
-119.5127
 20
-45.9513
 30
0.0
 10
-119.5127
 20
-45.9513
 30
0.0
 10
-119.5931
 20
-46.1644
 30
0.0
 10
-119.6326
 20
-46.47060000000001
 30
0.0
 10
-119.6326
 20
-46.87000000000001
 30
0.0
 10
-119.6326
 20
-46.87000000000001
 30
0.0
 10
-119.6326
 20
-46.87000000000001
 30
0.0
 10
-119.6326
 20
-49.1475
 30
0.0
 10
-119.6326
 20
-49.1475
 30
0.0
 10
-119.6326
 20
-49.1475
 30
0.0
 10
-119.6326
 20
-49.1475
 30
0.0
 10
-120.3763
 20
-49.1475
 30
0.0
 10
-120.3763
 20
-49.1475
 30
0.0
  0
SPLINE
  5
8A
330
1F
100
AcDbEntity
  8
52
 62
   250
100
AcDbSpline
210
0.0
220
0.0
230
1.0
 70
    11
 71
     3
 72
   116
 73
   112
 74
     0
 42
0.0000000001
 43
0.0000000001
 40
0.0
 40
0.0
 40
0.0
 40
0.0
 40
0.0357142857142857
 40
0.0357142857142857
 40
0.0357142857142857
 40
0.0357142857142857
 40
0.0714285714285714
 40
0.0714285714285714
 40
0.0714285714285714
 40
0.0714285714285714
 40
0.1071428571428571
 40
0.1071428571428571
 40
0.1071428571428571
 40
0.1071428571428571
 40
0.1428571428571429
 40
0.1428571428571429
 40
0.1428571428571429
 40
0.1428571428571429
 40
0.1785714285714286
 40
0.1785714285714286
 40
0.1785714285714286
 40
0.1785714285714286
 40
0.2142857142857143
 40
0.2142857142857143
 40
0.2142857142857143
 40
0.2142857142857143
 40
0.2499999999999999
 40
0.2499999999999999
 40
0.2499999999999999
 40
0.2499999999999999
 40
0.2857142857142856
 40
0.2857142857142856
 40
0.2857142857142856
 40
0.2857142857142856
 40
0.3214285714285713
 40
0.3214285714285713
 40
0.3214285714285713
 40
0.3214285714285713
 40
0.357142857142857
 40
0.357142857142857
 40
0.357142857142857
 40
0.357142857142857
 40
0.3928571428571427
 40
0.3928571428571427
 40
0.3928571428571427
 40
0.3928571428571427
 40
0.4285714285714284
 40
0.4285714285714284
 40
0.4285714285714284
 40
0.4285714285714284
 40
0.4642857142857141
 40
0.4642857142857141
 40
0.4642857142857141
 40
0.4642857142857141
 40
0.4999999999999998
 40
0.4999999999999998
 40
0.4999999999999998
 40
0.4999999999999998
 40
0.5357142857142856
 40
0.5357142857142856
 40
0.5357142857142856
 40
0.5357142857142856
 40
0.5714285714285713
 40
0.5714285714285713
 40
0.5714285714285713
 40
0.5714285714285713
 40
0.607142857142857
 40
0.607142857142857
 40
0.607142857142857
 40
0.607142857142857
 40
0.6428571428571427
 40
0.6428571428571427
 40
0.6428571428571427
 40
0.6428571428571427
 40
0.6785714285714284
 40
0.6785714285714284
 40
0.6785714285714284
 40
0.6785714285714284
 40
0.7142857142857141
 40
0.7142857142857141
 40
0.7142857142857141
 40
0.7142857142857141
 40
0.7499999999999998
 40
0.7499999999999998
 40
0.7499999999999998
 40
0.7499999999999998
 40
0.7857142857142855
 40
0.7857142857142855
 40
0.7857142857142855
 40
0.7857142857142855
 40
0.8214285714285712
 40
0.8214285714285712
 40
0.8214285714285712
 40
0.8214285714285712
 40
0.8571428571428569
 40
0.8571428571428569
 40
0.8571428571428569
 40
0.8571428571428569
 40
0.8928571428571426
 40
0.8928571428571426
 40
0.8928571428571426
 40
0.8928571428571426
 40
0.9285714285714283
 40
0.9285714285714283
 40
0.9285714285714283
 40
0.9285714285714283
 40
0.964285714285714
 40
0.964285714285714
 40
0.964285714285714
 40
0.964285714285714
 40
1.0
 40
1.0
 40
1.0
 40
1.0
 10
-113.3235
 20
-49.1475
 30
0.0
 10
-113.3235
 20
-49.1475
 30
0.0
 10
-113.3235
 20
-44.7575
 30
0.0
 10
-113.3235
 20
-44.7575
 30
0.0
 10
-113.3235
 20
-44.7575
 30
0.0
 10
-113.3235
 20
-44.7575
 30
0.0
 10
-112.6589
 20
-44.7575
 30
0.0
 10
-112.6589
 20
-44.7575
 30
0.0
 10
-112.6589
 20
-44.7575
 30
0.0
 10
-112.6589
 20
-44.7575
 30
0.0
 10
-112.6589
 20
-45.37280000000001
 30
0.0
 10
-112.6589
 20
-45.37280000000001
 30
0.0
 10
-112.6589
 20
-45.37280000000001
 30
0.0
 10
-112.5206
 20
-45.1583
 30
0.0
 10
-112.3371
 20
-44.9847
 30
0.0
 10
-112.1085
 20
-44.8549
 30
0.0
 10
-112.1085
 20
-44.8549
 30
0.0
 10
-111.8799
 20
-44.72360000000001
 30
0.0
 10
-111.6189
 20
-44.6573
 30
0.0
 10
-111.3268
 20
-44.6573
 30
0.0
 10
-111.3268
 20
-44.6573
 30
0.0
 10
-111.0022
 20
-44.6573
 30
0.0
 10
-110.7355
 20
-44.72510000000001
 30
0.0
 10
-110.5281
 20
-44.8605
 30
0.0
 10
-110.5281
 20
-44.8605
 30
0.0
 10
-110.3192
 20
-44.996
 30
0.0
 10
-110.1725
 20
-45.1837
 30
0.0
 10
-110.0878
 20
-45.4264
 30
0.0
 10
-110.0878
 20
-45.4264
 30
0.0
 10
-109.7393
 20
-44.91410000000001
 30
0.0
 10
-109.2877
 20
-44.6573
 30
0.0
 10
-108.7317
 20
-44.6573
 30
0.0
 10
-108.7317
 20
-44.6573
 30
0.0
 10
-108.2957
 20
-44.6573
 30
0.0
 10
-107.9613
 20
-44.7787
 30
0.0
 10
-107.727
 20
-45.02
 30
0.0
 10
-107.727
 20
-45.02
 30
0.0
 10
-107.4928
 20
-45.26130000000001
 30
0.0
 10
-107.3756
 20
-45.6324
 30
0.0
 10
-107.3756
 20
-46.1334
 30
0.0
 10
-107.3756
 20
-46.1334
 30
0.0
 10
-107.3756
 20
-46.1334
 30
0.0
 10
-107.3756
 20
-49.1475
 30
0.0
 10
-107.3756
 20
-49.1475
 30
0.0
 10
-107.3756
 20
-49.1475
 30
0.0
 10
-107.3756
 20
-49.1475
 30
0.0
 10
-108.1151
 20
-49.1475
 30
0.0
 10
-108.1151
 20
-49.1475
 30
0.0
 10
-108.1151
 20
-49.1475
 30
0.0
 10
-108.1151
 20
-49.1475
 30
0.0
 10
-108.1151
 20
-46.3817
 30
0.0
 10
-108.1151
 20
-46.3817
 30
0.0
 10
-108.1151
 20
-46.3817
 30
0.0
 10
-108.1151
 20
-46.084
 30
0.0
 10
-108.1391
 20
-45.8695
 30
0.0
 10
-108.187
 20
-45.7382
 30
0.0
 10
-108.187
 20
-45.7382
 30
0.0
 10
-108.2364
 20
-45.6084
 30
0.0
 10
-108.3239
 20
-45.5026
 30
0.0
 10
-108.4495
 20
-45.4222
 30
0.0
 10
-108.4495
 20
-45.4222
 30
0.0
 10
-108.5765
 20
-45.3431
 30
0.0
 10
-108.7261
 20
-45.3022
 30
0.0
 10
-108.8968
 20
-45.3022
 30
0.0
 10
-108.8968
 20
-45.3022
 30
0.0
 10
-109.2059
 20
-45.3022
 30
0.0
 10
-109.4613
 20
-45.4052
 30
0.0
 10
-109.6659
 20
-45.6112
 30
0.0
 10
-109.6659
 20
-45.6112
 30
0.0
 10
-109.8691
 20
-45.8159
 30
0.0
 10
-109.9721
 20
-46.1446
 30
0.0
 10
-109.9721
 20
-46.5962
 30
0.0
 10
-109.9721
 20
-46.5962
 30
0.0
 10
-109.9721
 20
-46.5962
 30
0.0
 10
-109.9721
 20
-49.1475
 30
0.0
 10
-109.9721
 20
-49.1475
 30
0.0
 10
-109.9721
 20
-49.1475
 30
0.0
 10
-109.9721
 20
-49.1475
 30
0.0
 10
-110.7158
 20
-49.1475
 30
0.0
 10
-110.7158
 20
-49.1475
 30
0.0
 10
-110.7158
 20
-49.1475
 30
0.0
 10
-110.7158
 20
-49.1475
 30
0.0
 10
-110.7158
 20
-46.2956
 30
0.0
 10
-110.7158
 20
-46.2956
 30
0.0
 10
-110.7158
 20
-46.2956
 30
0.0
 10
-110.7158
 20
-45.96400000000001
 30
0.0
 10
-110.7764
 20
-45.71570000000001
 30
0.0
 10
-110.8978
 20
-45.5506
 30
0.0
 10
-110.8978
 20
-45.5506
 30
0.0
 10
-111.0191
 20
-45.3855
 30
0.0
 10
-111.2167
 20
-45.3022
 30
0.0
 10
-111.4933
 20
-45.3022
 30
0.0
 10
-111.4933
 20
-45.3022
 30
0.0
 10
-111.7021
 20
-45.3022
 30
0.0
 10
-111.8954
 20
-45.3572
 30
0.0
 10
-112.0732
 20
-45.46870000000001
 30
0.0
 10
-112.0732
 20
-45.46870000000001
 30
0.0
 10
-112.251
 20
-45.5788
 30
0.0
 10
-112.3809
 20
-45.7397
 30
0.0
 10
-112.4599
 20
-45.9513
 30
0.0
 10
-112.4599
 20
-45.9513
 30
0.0
 10
-112.5403
 20
-46.1644
 30
0.0
 10
-112.5798
 20
-46.47060000000001
 30
0.0
 10
-112.5798
 20
-46.87000000000001
 30
0.0
 10
-112.5798
 20
-46.87000000000001
 30
0.0
 10
-112.5798
 20
-46.87000000000001
 30
0.0
 10
-112.5798
 20
-49.1475
 30
0.0
 10
-112.5798
 20
-49.1475
 30
0.0
 10
-112.5798
 20
-49.1475
 30
0.0
 10
-112.5798
 20
-49.1475
 30
0.0
 10
-113.3235
 20
-49.1475
 30
0.0
 10
-113.3235
 20
-49.1475
 30
0.0
  0
ENDSEC
  0
SECTION
  2
OBJECTS
  0
DICTIONARY
  5
C
330
0
100
AcDbDictionary
281
     1
  3
ACAD_GROUP
350
D
  3
ACAD_LAYOUT
350
1A
  3
ACAD_MLINESTYLE
350
17
  3
ACAD_PLOTSETTINGS
350
19
  3
ACAD_PLOTSTYLENAME
350
E
  0
DICTIONARY
  5
D
102
{ACAD_REACTORS
330
C
102
}
330
C
100
AcDbDictionary
281
     1
  0
DICTIONARY
  5
1A
102
{ACAD_REACTORS
330
C
102
}
330
C
100
AcDbDictionary
281
     1
  3
Layout1
350
1E
  3
Layout2
350
26
  3
Model
350
22
  0
DICTIONARY
  5
17
102
{ACAD_REACTORS
330
C
102
}
330
C
100
AcDbDictionary
281
     1
  3
Standard
350
18
  0
DICTIONARY
  5
19
102
{ACAD_REACTORS
330
C
102
}
330
C
100
AcDbDictionary
281
     1
  0
ACDBDICTIONARYWDFLT
  5
E
102
{ACAD_REACTORS
330
C
102
}
330
C
100
AcDbDictionary
281
     1
  3
Normal
350
F
100
AcDbDictionaryWithDefault
340
F
  0
LAYOUT
  5
1E
102
{ACAD_REACTORS
330
1A
102
}
330
1A
100
AcDbPlotSettings
  1

  2

  4

  6

 40
0.0
 41
0.0
 42
0.0
 43
0.0
 44
0.0
 45
0.0
 46
0.0
 47
0.0
 48
0.0
 49
0.0
140
0.0
141
0.0
142
1.0
143
1.0
 70
   688
 72
     0
 73
     0
 74
     5
  7

 75
    16
 76
     0
 77
     2
 78
   300
147
1.0
148
0.0
149
0.0
100
AcDbLayout
  1
Layout1
 70
     1
 71
     1
 10
0.0
 20
0.0
 11
12.0
 21
9.0
 12
0.0
 22
0.0
 32
0.0
 14
1.000000000000000E+20
 24
1.000000000000000E+20
 34
1.000000000000000E+20
 15
-1.000000000000000E+20
 25
-1.000000000000000E+20
 35
-1.000000000000000E+20
146
0.0
 13
0.0
 23
0.0
 33
0.0
 16
1.0
 26
0.0
 36
0.0
 17
0.0
 27
1.0
 37
0.0
 76
     0
330
1B
  0
LAYOUT
  5
26
102
{ACAD_REACTORS
330
1A
102
}
330
1A
100
AcDbPlotSettings
  1

  2

  4

  6

 40
0.0
 41
0.0
 42
0.0
 43
0.0
 44
0.0
 45
0.0
 46
0.0
 47
0.0
 48
0.0
 49
0.0
140
0.0
141
0.0
142
1.0
143
1.0
 70
   688
 72
     0
 73
     0
 74
     5
  7

 75
    16
 76
     0
 77
     2
 78
   300
147
1.0
148
0.0
149
0.0
100
AcDbLayout
  1
Layout2
 70
     1
 71
     2
 10
0.0
 20
0.0
 11
0.0
 21
0.0
 12
0.0
 22
0.0
 32
0.0
 14
0.0
 24
0.0
 34
0.0
 15
0.0
 25
0.0
 35
0.0
146
0.0
 13
0.0
 23
0.0
 33
0.0
 16
1.0
 26
0.0
 36
0.0
 17
0.0
 27
1.0
 37
0.0
 76
     0
330
23
  0
LAYOUT
  5
22
102
{ACAD_REACTORS
330
1A
102
}
330
1A
100
AcDbPlotSettings
  1

  2

  4

  6

 40
0.0
 41
0.0
 42
0.0
 43
0.0
 44
0.0
 45
0.0
 46
0.0
 47
0.0
 48
0.0
 49
0.0
140
0.0
141
0.0
142
1.0
143
1.0
 70
  1712
 72
     0
 73
     0
 74
     0
  7

 75
     0
 76
     0
 77
     2
 78
   300
147
1.0
148
0.0
149
0.0
100
AcDbLayout
  1
Model
 70
     1
 71
     0
 10
0.0
 20
0.0
 11
0.0
 21
0.0
 12
0.0
 22
0.0
 32
0.0
 14
-185.934
 24
-51.2359
 34
0.0
 15
186.1461
 25
143.1318
 35
0.0
146
0.0
 13
0.0
 23
0.0
 33
0.0
 16
1.0
 26
0.0
 36
0.0
 17
0.0
 27
1.0
 37
0.0
 76
     0
330
1F
  0
MLINESTYLE
  5
18
102
{ACAD_REACTORS
330
17
102
}
330
17
100
AcDbMlineStyle
  2
Standard
 70
     0
  3

 62
   256
 51
90.0
 52
90.0
 71
     2
 49
0.5
 62
   256
  6
BYLAYER
 49
-0.5
 62
   256
  6
BYLAYER
  0
ACDBPLACEHOLDER
  5
F
102
{ACAD_REACTORS
330
E
102
}
330
E
  0
ENDSEC
  0
EOF
