  0
SECTION
  2
HEADER
  9
$ACADVER
  1
AC1018
  9
$ACADMAINTVER
 70
     0
  9
$DWGCODEPAGE
  3
ANSI_1252
  9
$INSBASE
 10
0.0
 20
0.0
 30
0.0
  9
$EXTMIN
 10
-162.4322
 20
-64.52930000000001
 30
0.0
  9
$EXTMAX
 10
154.5061
 20
127.02
 30
0.0
  9
$LIMMIN
 10
0.0
 20
0.0
  9
$LIMMAX
 10
12.0
 20
9.0
  9
$ORTHOMODE
 70
     0
  9
$REGENMODE
 70
     1
  9
$FILLMODE
 70
     1
  9
$QTEXTMODE
 70
     0
  9
$MIRRTEXT
 70
     1
  9
$LTSCALE
 40
1.0
  9
$ATTMODE
 70
     1
  9
$TEXTSIZE
 40
0.2
  9
$TRACEWID
 40
0.05
  9
$TEXTSTYLE
  7
Standard
  9
$CLAYER
  8
0
  9
$CELTYPE
  6
ByLayer
  9
$CECOLOR
 62
   256
  9
$CELTSCALE
 40
1.0
  9
$DISPSILH
 70
     0
  9
$DIMSCALE
 40
1.0
  9
$DIMASZ
 40
0.18
  9
$DIMEXO
 40
0.0625
  9
$DIMDLI
 40
0.38
  9
$DIMRND
 40
0.0
  9
$DIMDLE
 40
0.0
  9
$DIMEXE
 40
0.18
  9
$DIMTP
 40
0.0
  9
$DIMTM
 40
0.0
  9
$DIMTXT
 40
0.18
  9
$DIMCEN
 40
0.09
  9
$DIMTSZ
 40
0.0
  9
$DIMTOL
 70
     0
  9
$DIMLIM
 70
     0
  9
$DIMTIH
 70
     1
  9
$DIMTOH
 70
     1
  9
$DIMSE1
 70
     0
  9
$DIMSE2
 70
     0
  9
$DIMTAD
 70
     0
  9
$DIMZIN
 70
     0
  9
$DIMBLK
  1

  9
$DIMASO
 70
     1
  9
$DIMSHO
 70
     1
  9
$DIMPOST
  1

  9
$DIMAPOST
  1

  9
$DIMALT
 70
     0
  9
$DIMALTD
 70
     2
  9
$DIMALTF
 40
25.4
  9
$DIMLFAC
 40
1.0
  9
$DIMTOFL
 70
     0
  9
$DIMTVP
 40
0.0
  9
$DIMTIX
 70
     0
  9
$DIMSOXD
 70
     0
  9
$DIMSAH
 70
     0
  9
$DIMBLK1
  1

  9
$DIMBLK2
  1

  9
$DIMSTYLE
  2
Standard
  9
$DIMCLRD
 70
     0
  9
$DIMCLRE
 70
     0
  9
$DIMCLRT
 70
     0
  9
$DIMTFAC
 40
1.0
  9
$DIMGAP
 40
0.09
  9
$DIMJUST
 70
     0
  9
$DIMSD1
 70
     0
  9
$DIMSD2
 70
     0
  9
$DIMTOLJ
 70
     1
  9
$DIMTZIN
 70
     0
  9
$DIMALTZ
 70
     0
  9
$DIMALTTZ
 70
     0
  9
$DIMUPT
 70
     0
  9
$DIMDEC
 70
     4
  9
$DIMTDEC
 70
     4
  9
$DIMALTU
 70
     2
  9
$DIMALTTD
 70
     2
  9
$DIMTXSTY
  7
Standard
  9
$DIMAUNIT
 70
     0
  9
$DIMADEC
 70
     0
  9
$DIMALTRND
 40
0.0
  9
$DIMAZIN
 70
     0
  9
$DIMDSEP
 70
    46
  9
$DIMATFIT
 70
     3
  9
$DIMFRAC
 70
     0
  9
$DIMLDRBLK
  1

  9
$DIMLUNIT
 70
     2
  9
$DIMLWD
 70
    -2
  9
$DIMLWE
 70
    -2
  9
$DIMTMOVE
 70
     0
  9
$LUNITS
 70
     2
  9
$LUPREC
 70
     4
  9
$SKETCHINC
 40
0.1
  9
$FILLETRAD
 40
0.5
  9
$AUNITS
 70
     0
  9
$AUPREC
 70
     0
  9
$MENU
  1
.
  9
$ELEVATION
 40
0.0
  9
$PELEVATION
 40
0.0
  9
$THICKNESS
 40
0.0
  9
$LIMCHECK
 70
     0
  9
$CHAMFERA
 40
0.5
  9
$CHAMFERB
 40
0.5
  9
$CHAMFERC
 40
1.0
  9
$CHAMFERD
 40
0.0
  9
$SKPOLY
 70
     0
  9
$TDCREATE
 40
2455391.388889965
  9
$TDUCREATE
 40
2455391.597223299
  9
$TDUPDATE
 40
2455391.388889977
  9
$TDUUPDATE
 40
2455391.59722331
  9
$TDINDWG
 40
0.0000000116
  9
$TDUSRTIMER
 40
0.0000000116
  9
$USRTIMER
 70
     1
  9
$ANGBASE
 50
0.0
  9
$ANGDIR
 70
     0
  9
$PDMODE
 70
     0
  9
$PDSIZE
 40
0.0
  9
$PLINEWID
 40
0.0
  9
$SPLFRAME
 70
     0
  9
$SPLINETYPE
 70
     6
  9
$SPLINESEGS
 70
     8
  9
$HANDSEED
  5
94
  9
$SURFTAB1
 70
     6
  9
$SURFTAB2
 70
     6
  9
$SURFTYPE
 70
     6
  9
$SURFU
 70
     6
  9
$SURFV
 70
     6
  9
$UCSBASE
  2

  9
$UCSNAME
  2

  9
$UCSORG
 10
0.0
 20
0.0
 30
0.0
  9
$UCSXDIR
 10
1.0
 20
0.0
 30
0.0
  9
$UCSYDIR
 10
0.0
 20
1.0
 30
0.0
  9
$UCSORTHOREF
  2

  9
$UCSORTHOVIEW
 70
     0
  9
$UCSORGTOP
 10
0.0
 20
0.0
 30
0.0
  9
$UCSORGBOTTOM
 10
0.0
 20
0.0
 30
0.0
  9
$UCSORGLEFT
 10
0.0
 20
0.0
 30
0.0
  9
$UCSORGRIGHT
 10
0.0
 20
0.0
 30
0.0
  9
$UCSORGFRONT
 10
0.0
 20
0.0
 30
0.0
  9
$UCSORGBACK
 10
0.0
 20
0.0
 30
0.0
  9
$PUCSBASE
  2

  9
$PUCSNAME
  2

  9
$PUCSORG
 10
0.0
 20
0.0
 30
0.0
  9
$PUCSXDIR
 10
1.0
 20
0.0
 30
0.0
  9
$PUCSYDIR
 10
0.0
 20
1.0
 30
0.0
  9
$PUCSORTHOREF
  2

  9
$PUCSORTHOVIEW
 70
     0
  9
$PUCSORGTOP
 10
0.0
 20
0.0
 30
0.0
  9
$PUCSORGBOTTOM
 10
0.0
 20
0.0
 30
0.0
  9
$PUCSORGLEFT
 10
0.0
 20
0.0
 30
0.0
  9
$PUCSORGRIGHT
 10
0.0
 20
0.0
 30
0.0
  9
$PUCSORGFRONT
 10
0.0
 20
0.0
 30
0.0
  9
$PUCSORGBACK
 10
0.0
 20
0.0
 30
0.0
  9
$USERI1
 70
     0
  9
$USERI2
 70
     0
  9
$USERI3
 70
     0
  9
$USERI4
 70
     0
  9
$USERI5
 70
     0
  9
$USERR1
 40
0.0
  9
$USERR2
 40
0.0
  9
$USERR3
 40
0.0
  9
$USERR4
 40
0.0
  9
$USERR5
 40
0.0
  9
$WORLDVIEW
 70
     1
  9
$SHADEDGE
 70
     3
  9
$SHADEDIF
 70
    70
  9
$TILEMODE
 70
     1
  9
$MAXACTVP
 70
    64
  9
$PINSBASE
 10
0.0
 20
0.0
 30
0.0
  9
$PLIMCHECK
 70
     0
  9
$PEXTMIN
 10
1.000000000000000E+20
 20
1.000000000000000E+20
 30
1.000000000000000E+20
  9
$PEXTMAX
 10
-1.000000000000000E+20
 20
-1.000000000000000E+20
 30
-1.000000000000000E+20
  9
$PLIMMIN
 10
0.0
 20
0.0
  9
$PLIMMAX
 10
12.0
 20
9.0
  9
$UNITMODE
 70
     0
  9
$VISRETAIN
 70
     1
  9
$PLINEGEN
 70
     0
  9
$PSLTSCALE
 70
     1
  9
$TREEDEPTH
 70
  3020
  9
$CMLSTYLE
  2
Standard
  9
$CMLJUST
 70
     0
  9
$CMLSCALE
 40
1.0
  9
$PROXYGRAPHICS
 70
     1
  9
$MEASUREMENT
 70
     0
  9
$CELWEIGHT
370
    -1
  9
$ENDCAPS
280
     0
  9
$JOINSTYLE
280
     0
  9
$LWDISPLAY
290
     0
  9
$INSUNITS
 70
     4
  9
$HYPERLINKBASE
  1

  9
$STYLESHEET
  1

  9
$XEDIT
290
     1
  9
$CEPSNTYPE
380
     0
  9
$PSTYLEMODE
290
     0
  9
$FINGERPRINTGUID
  2
{FAEB1C30-E019-11D5-929B-00C0DF256EC4}
  9
$VERSIONGUID
  2
{FAEB1C32-E019-11D5-929B-00C0DF256EC4}
  9
$EXTNAMES
290
     1
  9
$PSVPSCALE
 40
0.0
  9
$OLESTARTUP
290
     0
  9
$SORTENTS
280
   127
  9
$INDEXCTL
280
     0
  9
$HIDETEXT
280
     1
  9
$XCLIPFRAME
290
     0
  9
$HALOGAP
280
     0
  9
$OBSCOLOR
 70
   257
  9
$OBSLTYPE
280
     0
  9
$INTERSECTIONDISPLAY
280
     0
  9
$INTERSECTIONCOLOR
 70
   257
  9
$DIMASSOC
280
     2
  9
$PROJECTNAME
  1

  0
ENDSEC
  0
SECTION
  2
CLASSES
  0
CLASS
  1
ACDBDICTIONARYWDFLT
  2
AcDbDictionaryWithDefault
  3
ObjectDBX Classes
 90
        0
 91
        1
280
     0
281
     0
  0
ENDSEC
  0
SECTION
  2
TABLES
  0
TABLE
  2
VPORT
  5
8
330
0
100
AcDbSymbolTable
 70
     2
  0
VPORT
  5
29
330
8
100
AcDbSymbolTableRecord
100
AcDbViewportTableRecord
  2
*Active
 70
     0
 10
0.0
 20
0.0
 11
1.0
 21
1.0
 12
10.42990654205607
 22
4.5
 13
0.0
 23
0.0
 14
0.5
 24
0.5
 15
0.5
 25
0.5
 16
0.0
 26
0.0
 36
1.0
 17
0.0
 27
0.0
 37
0.0
 40
9.0
 41
1.972972972850329
 42
50.0
 43
0.0
 44
0.0
 50
0.0
 51
0.0
 71
     0
 72
   100
 73
     1
 74
     3
 75
     0
 76
     0
 77
     0
 78
     0
281
     0
 65
     1
110
0.0
120
0.0
130
0.0
111
1.0
121
0.0
131
0.0
112
0.0
122
1.0
132
0.0
 79
     0
146
0.0
  0
ENDTAB
  0
TABLE
  2
LTYPE
  5
5
330
0
100
AcDbSymbolTable
 70
     1
  0
LTYPE
  5
14
330
5
100
AcDbSymbolTableRecord
100
AcDbLinetypeTableRecord
  2
ByBlock
 70
     0
  3

 72
    65
 73
     0
 40
0.0
  0
LTYPE
  5
15
330
5
100
AcDbSymbolTableRecord
100
AcDbLinetypeTableRecord
  2
ByLayer
 70
     0
  3

 72
    65
 73
     0
 40
0.0
  0
LTYPE
  5
16
330
5
100
AcDbSymbolTableRecord
100
AcDbLinetypeTableRecord
  2
Continuous
 70
     0
  3
Solid line
 72
    65
 73
     0
 40
0.0
  0
ENDTAB
  0
TABLE
  2
LAYER
  5
2
330
0
100
AcDbSymbolTable
 70
     2
  0
LAYER
  5
10
330
2
100
AcDbSymbolTableRecord
100
AcDbLayerTableRecord
  2
0
 70
     0
 62
     7
  6
Continuous
370
    -3
390
F
  0
LAYER
  5
2B
330
2
100
AcDbSymbolTableRecord
100
AcDbLayerTableRecord
  2
52
 70
     0
 62
     7
  6
Continuous
370
    -3
390
F
  0
ENDTAB
  0
TABLE
  2
STYLE
  5
3
330
0
100
AcDbSymbolTable
 70
     1
  0
STYLE
  5
11
330
3
100
AcDbSymbolTableRecord
100
AcDbTextStyleTableRecord
  2
Standard
 70
     0
 40
0.0
 41
1.0
 50
0.0
 71
     0
 42
0.2
  3
txt
  4

  0
ENDTAB
  0
TABLE
  2
VIEW
  5
6
330
0
100
AcDbSymbolTable
 70
     0
  0
ENDTAB
  0
TABLE
  2
UCS
  5
7
330
0
100
AcDbSymbolTable
 70
     0
  0
ENDTAB
  0
TABLE
  2
APPID
  5
9
330
0
100
AcDbSymbolTable
 70
     2
  0
APPID
  5
12
330
9
100
AcDbSymbolTableRecord
100
AcDbRegAppTableRecord
  2
ACAD
 70
     0
  0
APPID
  5
2A
330
9
100
AcDbSymbolTableRecord
100
AcDbRegAppTableRecord
  2
ODA
 70
     0
  0
ENDTAB
  0
TABLE
  2
DIMSTYLE
  5
A
330
0
100
AcDbSymbolTable
 70
     1
100
AcDbDimStyleTable
  0
DIMSTYLE
105
27
330
A
100
AcDbSymbolTableRecord
100
AcDbDimStyleTableRecord
  2
Standard
 70
     0
340
11
  0
ENDTAB
  0
TABLE
  2
BLOCK_RECORD
  5
1
330
0
100
AcDbSymbolTable
 70
     1
  0
BLOCK_RECORD
  5
1F
330
1
100
AcDbSymbolTableRecord
100
AcDbBlockTableRecord
  2
*Model_Space
340
22
  0
BLOCK_RECORD
  5
1B
330
1
100
AcDbSymbolTableRecord
100
AcDbBlockTableRecord
  2
*Paper_Space
340
1E
  0
BLOCK_RECORD
  5
23
330
1
100
AcDbSymbolTableRecord
100
AcDbBlockTableRecord
  2
*Paper_Space0
340
26
  0
ENDTAB
  0
ENDSEC
  0
SECTION
  2
BLOCKS
  0
BLOCK
  5
20
330
1F
100
AcDbEntity
  8
0
100
AcDbBlockBegin
  2
*Model_Space
 70
     0
 71
     0
 10
0.0
 20
0.0
 30
0.0
  3
*Model_Space
  1

  0
ENDBLK
  5
21
330
1F
100
AcDbEntity
  8
0
100
AcDbBlockEnd
  0
BLOCK
  5
1C
330
1B
100
AcDbEntity
 67
     1
  8
0
100
AcDbBlockBegin
  2
*Paper_Space
 70
     0
 71
     0
 10
0.0
 20
0.0
 30
0.0
  3
*Paper_Space
  1

  0
ENDBLK
  5
1D
330
1B
100
AcDbEntity
 67
     1
  8
0
100
AcDbBlockEnd
  0
BLOCK
  5
24
330
23
100
AcDbEntity
  8
0
100
AcDbBlockBegin
  2
*Paper_Space0
 70
     0
 71
     0
 10
0.0
 20
0.0
 30
0.0
  3
*Paper_Space0
  1

  0
ENDBLK
  5
25
330
23
100
AcDbEntity
  8
0
100
AcDbBlockEnd
  0
ENDSEC
  0
SECTION
  2
ENTITIES
  0
SPLINE
  5
2C
330
1F
100
AcDbEntity
  8
52
 62
   250
370
     5
100
AcDbSpline
210
0.0
220
0.0
230
1.0
 70
    11
 71
     3
 72
    20
 73
    16
 74
     0
 42
0.0000000001
 43
0.0000000001
 40
0.0
 40
0.0
 40
0.0
 40
0.0
 40
0.25
 40
0.25
 40
0.25
 40
0.25
 40
0.5
 40
0.5
 40
0.5
 40
0.5
 40
0.75
 40
0.75
 40
0.75
 40
0.75
 40
1.0
 40
1.0
 40
1.0
 40
1.0
 10
-132.6325
 20
-40.5518
 30
0.0
 10
-131.6662
 20
-40.5518
 30
0.0
 10
-130.8824
 20
-39.7682
 30
0.0
 10
-130.8824
 20
-38.8018
 30
0.0
 10
-130.8824
 20
-38.8018
 30
0.0
 10
-130.8824
 20
-37.8354
 30
0.0
 10
-131.6662
 20
-37.0518
 30
0.0
 10
-132.6325
 20
-37.0518
 30
0.0
 10
-132.6325
 20
-37.0518
 30
0.0
 10
-133.5987
 20
-37.0518
 30
0.0
 10
-134.3824
 20
-37.8354
 30
0.0
 10
-134.3824
 20
-38.8018
 30
0.0
 10
-134.3824
 20
-38.8018
 30
0.0
 10
-134.3824
 20
-39.7682
 30
0.0
 10
-133.5987
 20
-40.5518
 30
0.0
 10
-132.6325
 20
-40.5518
 30
0.0
  0
SPLINE
  5
2D
330
1F
100
AcDbEntity
  8
52
 62
   250
370
     5
100
AcDbSpline
210
0.0
220
0.0
230
1.0
 70
    11
 71
     3
 72
    20
 73
    16
 74
     0
 42
0.0000000001
 43
0.0000000001
 40
0.0
 40
0.0
 40
0.0
 40
0.0
 40
0.25
 40
0.25
 40
0.25
 40
0.25
 40
0.5
 40
0.5
 40
0.5
 40
0.5
 40
0.75
 40
0.75
 40
0.75
 40
0.75
 40
1.0
 40
1.0
 40
1.0
 40
1.0
 10
127.3671
 20
-40.5518
 30
0.0
 10
126.4008
 20
-40.5518
 30
0.0
 10
125.617
 20
-39.7682
 30
0.0
 10
125.617
 20
-38.8018
 30
0.0
 10
125.617
 20
-38.8018
 30
0.0
 10
125.617
 20
-37.8354
 30
0.0
 10
126.4008
 20
-37.0518
 30
0.0
 10
127.3671
 20
-37.0518
 30
0.0
 10
127.3671
 20
-37.0518
 30
0.0
 10
128.3333
 20
-37.0518
 30
0.0
 10
129.117
 20
-37.8354
 30
0.0
 10
129.117
 20
-38.8018
 30
0.0
 10
129.117
 20
-38.8018
 30
0.0
 10
129.117
 20
-39.7682
 30
0.0
 10
128.3333
 20
-40.5518
 30
0.0
 10
127.3671
 20
-40.5518
 30
0.0
  0
SPLINE
  5
2E
330
1F
100
AcDbEntity
  8
52
 62
   250
370
     5
100
AcDbSpline
210
0.0
220
0.0
230
1.0
 70
    11
 71
     3
 72
    20
 73
    16
 74
     0
 42
0.0000000001
 43
0.0000000001
 40
0.0
 40
0.0
 40
0.0
 40
0.0
 40
0.25
 40
0.25
 40
0.25
 40
0.25
 40
0.5
 40
0.5
 40
0.5
 40
0.5
 40
0.75
 40
0.75
 40
0.75
 40
0.75
 40
1.0
 40
1.0
 40
1.0
 40
1.0
 10
-2.6327
 20
-40.5518
 30
0.0
 10
-1.6664
 20
-40.5518
 30
0.0
 10
-0.8826000000000001
 20
-39.7682
 30
0.0
 10
-0.8826000000000001
 20
-38.8018
 30
0.0
 10
-0.8826000000000001
 20
-38.8018
 30
0.0
 10
-0.8826000000000001
 20
-37.8354
 30
0.0
 10
-1.6664
 20
-37.0518
 30
0.0
 10
-2.6327
 20
-37.0518
 30
0.0
 10
-2.6327
 20
-37.0518
 30
0.0
 10
-3.5989
 20
-37.0518
 30
0.0
 10
-4.3826
 20
-37.8354
 30
0.0
 10
-4.3826
 20
-38.8018
 30
0.0
 10
-4.3826
 20
-38.8018
 30
0.0
 10
-4.3826
 20
-39.7682
 30
0.0
 10
-3.5989
 20
-40.5518
 30
0.0
 10
-2.6327
 20
-40.5518
 30
0.0
  0
SPLINE
  5
2F
330
1F
100
AcDbEntity
  8
52
 62
   250
370
     5
100
AcDbSpline
210
0.0
220
0.0
230
1.0
 70
    11
 71
     3
 72
    20
 73
    16
 74
     0
 42
0.0000000001
 43
0.0000000001
 40
0.0
 40
0.0
 40
0.0
 40
0.0
 40
0.25
 40
0.25
 40
0.25
 40
0.25
 40
0.5
 40
0.5
 40
0.5
 40
0.5
 40
0.75
 40
0.75
 40
0.75
 40
0.75
 40
1.0
 40
1.0
 40
1.0
 40
1.0
 10
-132.6325
 20
82.9478
 30
0.0
 10
-131.6662
 20
82.9478
 30
0.0
 10
-130.8824
 20
82.16420000000001
 30
0.0
 10
-130.8824
 20
81.1978
 30
0.0
 10
-130.8824
 20
81.1978
 30
0.0
 10
-130.8824
 20
80.23140000000001
 30
0.0
 10
-131.6662
 20
79.4478
 30
0.0
 10
-132.6325
 20
79.4478
 30
0.0
 10
-132.6325
 20
79.4478
 30
0.0
 10
-133.5987
 20
79.4478
 30
0.0
 10
-134.3824
 20
80.23140000000001
 30
0.0
 10
-134.3824
 20
81.1978
 30
0.0
 10
-134.3824
 20
81.1978
 30
0.0
 10
-134.3824
 20
82.16420000000001
 30
0.0
 10
-133.5987
 20
82.9478
 30
0.0
 10
-132.6325
 20
82.9478
 30
0.0
  0
SPLINE
  5
30
330
1F
100
AcDbEntity
  8
52
 62
   250
370
     5
100
AcDbSpline
210
0.0
220
0.0
230
1.0
 70
    11
 71
     3
 72
    20
 73
    16
 74
     0
 42
0.0000000001
 43
0.0000000001
 40
0.0
 40
0.0
 40
0.0
 40
0.0
 40
0.25
 40
0.25
 40
0.25
 40
0.25
 40
0.5
 40
0.5
 40
0.5
 40
0.5
 40
0.75
 40
0.75
 40
0.75
 40
0.75
 40
1.0
 40
1.0
 40
1.0
 40
1.0
 10
127.3671
 20
82.9478
 30
0.0
 10
126.4008
 20
82.9478
 30
0.0
 10
125.617
 20
82.16420000000001
 30
0.0
 10
125.617
 20
81.1978
 30
0.0
 10
125.617
 20
81.1978
 30
0.0
 10
125.617
 20
80.23140000000001
 30
0.0
 10
126.4008
 20
79.4478
 30
0.0
 10
127.3671
 20
79.4478
 30
0.0
 10
127.3671
 20
79.4478
 30
0.0
 10
128.3333
 20
79.4478
 30
0.0
 10
129.117
 20
80.23140000000001
 30
0.0
 10
129.117
 20
81.1978
 30
0.0
 10
129.117
 20
81.1978
 30
0.0
 10
129.117
 20
82.16420000000001
 30
0.0
 10
128.3333
 20
82.9478
 30
0.0
 10
127.3671
 20
82.9478
 30
0.0
  0
SPLINE
  5
31
330
1F
100
AcDbEntity
  8
52
 62
   250
370
     5
100
AcDbSpline
210
0.0
220
0.0
230
1.0
 70
    11
 71
     3
 72
    20
 73
    16
 74
     0
 42
0.0000000001
 43
0.0000000001
 40
0.0
 40
0.0
 40
0.0
 40
0.0
 40
0.25
 40
0.25
 40
0.25
 40
0.25
 40
0.5
 40
0.5
 40
0.5
 40
0.5
 40
0.75
 40
0.75
 40
0.75
 40
0.75
 40
1.0
 40
1.0
 40
1.0
 40
1.0
 10
-2.6327
 20
82.9478
 30
0.0
 10
-1.6664
 20
82.9478
 30
0.0
 10
-0.8826000000000001
 20
82.16420000000001
 30
0.0
 10
-0.8826000000000001
 20
81.1978
 30
0.0
 10
-0.8826000000000001
 20
81.1978
 30
0.0
 10
-0.8826000000000001
 20
80.23140000000001
 30
0.0
 10
-1.6664
 20
79.4478
 30
0.0
 10
-2.6327
 20
79.4478
 30
0.0
 10
-2.6327
 20
79.4478
 30
0.0
 10
-3.5989
 20
79.4478
 30
0.0
 10
-4.3826
 20
80.23140000000001
 30
0.0
 10
-4.3826
 20
81.1978
 30
0.0
 10
-4.3826
 20
81.1978
 30
0.0
 10
-4.3826
 20
82.16420000000001
 30
0.0
 10
-3.5989
 20
82.9478
 30
0.0
 10
-2.6327
 20
82.9478
 30
0.0
  0
SPLINE
  5
32
330
1F
100
AcDbEntity
  8
52
 62
   250
370
     5
100
AcDbSpline
210
0.0
220
0.0
230
1.0
 70
    11
 71
     3
 72
   140
 73
   136
 74
     0
 42
0.0000000001
 43
0.0000000001
 40
0.0
 40
0.0
 40
0.0
 40
0.0
 40
0.0294117647058824
 40
0.0294117647058824
 40
0.0294117647058824
 40
0.0294117647058824
 40
0.0588235294117647
 40
0.0588235294117647
 40
0.0588235294117647
 40
0.0588235294117647
 40
0.0882352941176471
 40
0.0882352941176471
 40
0.0882352941176471
 40
0.0882352941176471
 40
0.1176470588235294
 40
0.1176470588235294
 40
0.1176470588235294
 40
0.1176470588235294
 40
0.1470588235294118
 40
0.1470588235294118
 40
0.1470588235294118
 40
0.1470588235294118
 40
0.1764705882352941
 40
0.1764705882352941
 40
0.1764705882352941
 40
0.1764705882352941
 40
0.2058823529411765
 40
0.2058823529411765
 40
0.2058823529411765
 40
0.2058823529411765
 40
0.2352941176470589
 40
0.2352941176470589
 40
0.2352941176470589
 40
0.2352941176470589
 40
0.2647058823529412
 40
0.2647058823529412
 40
0.2647058823529412
 40
0.2647058823529412
 40
0.2941176470588235
 40
0.2941176470588235
 40
0.2941176470588235
 40
0.2941176470588235
 40
0.3235294117647059
 40
0.3235294117647059
 40
0.3235294117647059
 40
0.3235294117647059
 40
0.3529411764705883
 40
0.3529411764705883
 40
0.3529411764705883
 40
0.3529411764705883
 40
0.3823529411764706
 40
0.3823529411764706
 40
0.3823529411764706
 40
0.3823529411764706
 40
0.411764705882353
 40
0.411764705882353
 40
0.411764705882353
 40
0.411764705882353
 40
0.4411764705882353
 40
0.4411764705882353
 40
0.4411764705882353
 40
0.4411764705882353
 40
0.4705882352941177
 40
0.4705882352941177
 40
0.4705882352941177
 40
0.4705882352941177
 40
0.5
 40
0.5
 40
0.5
 40
0.5
 40
0.5294117647058824
 40
0.5294117647058824
 40
0.5294117647058824
 40
0.5294117647058824
 40
0.5588235294117647
 40
0.5588235294117647
 40
0.5588235294117647
 40
0.5588235294117647
 40
0.5882352941176471
 40
0.5882352941176471
 40
0.5882352941176471
 40
0.5882352941176471
 40
0.6176470588235294
 40
0.6176470588235294
 40
0.6176470588235294
 40
0.6176470588235294
 40
0.6470588235294118
 40
0.6470588235294118
 40
0.6470588235294118
 40
0.6470588235294118
 40
0.6764705882352942
 40
0.6764705882352942
 40
0.6764705882352942
 40
0.6764705882352942
 40
0.7058823529411765
 40
0.7058823529411765
 40
0.7058823529411765
 40
0.7058823529411765
 40
0.7352941176470589
 40
0.7352941176470589
 40
0.7352941176470589
 40
0.7352941176470589
 40
0.7647058823529412
 40
0.7647058823529412
 40
0.7647058823529412
 40
0.7647058823529412
 40
0.7941176470588236
 40
0.7941176470588236
 40
0.7941176470588236
 40
0.7941176470588236
 40
0.823529411764706
 40
0.823529411764706
 40
0.823529411764706
 40
0.823529411764706
 40
0.8529411764705883
 40
0.8529411764705883
 40
0.8529411764705883
 40
0.8529411764705883
 40
0.8823529411764707
 40
0.8823529411764707
 40
0.8823529411764707
 40
0.8823529411764707
 40
0.911764705882353
 40
0.911764705882353
 40
0.911764705882353
 40
0.911764705882353
 40
0.9411764705882354
 40
0.9411764705882354
 40
0.9411764705882354
 40
0.9411764705882354
 40
0.9705882352941178
 40
0.9705882352941178
 40
0.9705882352941178
 40
0.9705882352941178
 40
1.0
 40
1.0
 40
1.0
 40
1.0
 10
128.3112
 20
86.1978
 30
0.0
 10
128.3112
 20
86.1978
 30
0.0
 10
127.3671
 20
86.1978
 30
0.0
 10
127.3671
 20
86.1978
 30
0.0
 10
127.3671
 20
86.1978
 30
0.0
 10
127.3671
 20
86.1978
 30
0.0
 10
-2.6327
 20
86.1978
 30
0.0
 10
-2.6327
 20
86.1978
 30
0.0
 10
-2.6327
 20
86.1978
 30
0.0
 10
-2.6327
 20
86.1978
 30
0.0
 10
-132.6325
 20
86.1978
 30
0.0
 10
-132.6325
 20
86.1978
 30
0.0
 10
-132.6325
 20
86.1978
 30
0.0
 10
-132.6325
 20
86.1978
 30
0.0
 10
-133.5763
 20
86.1978
 30
0.0
 10
-133.5763
 20
86.1978
 30
0.0
 10
-133.5763
 20
86.1978
 30
0.0
 10
-133.5763
 20
86.1978
 30
0.0
 10
-133.6325
 20
86.1982
 30
0.0
 10
-133.6325
 20
86.1982
 30
0.0
 10
-133.6325
 20
86.1982
 30
0.0
 10
-133.6325
 20
86.1982
 30
0.0
 10
-133.6873
 20
86.1978
 30
0.0
 10
-133.6873
 20
86.1978
 30
0.0
 10
-133.6873
 20
86.1978
 30
0.0
 10
-135.8709
 20
86.16850000000001
 30
0.0
 10
-137.6325
 20
84.3887
 30
0.0
 10
-137.6325
 20
82.1982
 30
0.0
 10
-137.6325
 20
82.1982
 30
0.0
 10
-137.6325
 20
82.1982
 30
0.0
 10
-137.6325
 20
82.1704
 30
0.0
 10
-137.6325
 20
82.1704
 30
0.0
 10
-137.6325
 20
82.1704
 30
0.0
 10
-137.6325
 20
82.1704
 30
0.0
 10
-137.6325
 20
81.1978
 30
0.0
 10
-137.6325
 20
81.1978
 30
0.0
 10
-137.6325
 20
81.1978
 30
0.0
 10
-137.6325
 20
81.1978
 30
0.0
 10
-137.6325
 20
-38.8018
 30
0.0
 10
-137.6325
 20
-38.8018
 30
0.0
 10
-137.6325
 20
-38.8018
 30
0.0
 10
-137.6325
 20
-38.8018
 30
0.0
 10
-137.6325
 20
-39.774
 30
0.0
 10
-137.6325
 20
-39.774
 30
0.0
 10
-137.6325
 20
-39.774
 30
0.0
 10
-137.6325
 20
-39.774
 30
0.0
 10
-137.6325
 20
-39.8018
 30
0.0
 10
-137.6325
 20
-39.8018
 30
0.0
 10
-137.6325
 20
-39.8018
 30
0.0
 10
-137.6325
 20
-41.9934
 30
0.0
 10
-135.8691
 20
-43.7738
 30
0.0
 10
-133.6841
 20
-43.8014
 30
0.0
 10
-133.6841
 20
-43.8014
 30
0.0
 10
-133.6841
 20
-43.8014
 30
0.0
 10
-133.6325
 20
-43.8018
 30
0.0
 10
-133.6325
 20
-43.8018
 30
0.0
 10
-133.6325
 20
-43.8018
 30
0.0
 10
-133.6325
 20
-43.8018
 30
0.0
 10
-133.5763
 20
-43.8014
 30
0.0
 10
-133.5763
 20
-43.8014
 30
0.0
 10
-133.5763
 20
-43.8014
 30
0.0
 10
-133.5763
 20
-43.8014
 30
0.0
 10
-132.6628
 20
-43.8014
 30
0.0
 10
-132.6628
 20
-43.8014
 30
0.0
 10
-132.6628
 20
-43.8014
 30
0.0
 10
-132.6628
 20
-43.8014
 30
0.0
 10
-132.6325
 20
-43.8018
 30
0.0
 10
-132.6325
 20
-43.8018
 30
0.0
 10
-132.6325
 20
-43.8018
 30
0.0
 10
-132.6325
 20
-43.8018
 30
0.0
 10
-132.6021
 20
-43.8014
 30
0.0
 10
-132.6021
 20
-43.8014
 30
0.0
 10
-132.6021
 20
-43.8014
 30
0.0
 10
-132.6021
 20
-43.8014
 30
0.0
 10
-2.663
 20
-43.8014
 30
0.0
 10
-2.663
 20
-43.8014
 30
0.0
 10
-2.663
 20
-43.8014
 30
0.0
 10
-2.663
 20
-43.8014
 30
0.0
 10
-2.6327
 20
-43.8018
 30
0.0
 10
-2.6327
 20
-43.8018
 30
0.0
 10
-2.6327
 20
-43.8018
 30
0.0
 10
-2.6327
 20
-43.8018
 30
0.0
 10
-2.6023
 20
-43.8014
 30
0.0
 10
-2.6023
 20
-43.8014
 30
0.0
 10
-2.6023
 20
-43.8014
 30
0.0
 10
-2.6023
 20
-43.8014
 30
0.0
 10
127.3368
 20
-43.8014
 30
0.0
 10
127.3368
 20
-43.8014
 30
0.0
 10
127.3368
 20
-43.8014
 30
0.0
 10
127.3368
 20
-43.8014
 30
0.0
 10
127.3671
 20
-43.8018
 30
0.0
 10
127.3671
 20
-43.8018
 30
0.0
 10
127.3671
 20
-43.8018
 30
0.0
 10
127.3671
 20
-43.8018
 30
0.0
 10
127.3975
 20
-43.8014
 30
0.0
 10
127.3975
 20
-43.8014
 30
0.0
 10
127.3975
 20
-43.8014
 30
0.0
 10
127.3975
 20
-43.8014
 30
0.0
 10
128.3112
 20
-43.8014
 30
0.0
 10
128.3112
 20
-43.8014
 30
0.0
 10
128.3112
 20
-43.8014
 30
0.0
 10
128.3112
 20
-43.8014
 30
0.0
 10
128.3675
 20
-43.8018
 30
0.0
 10
128.3675
 20
-43.8018
 30
0.0
 10
128.3675
 20
-43.8018
 30
0.0
 10
128.3675
 20
-43.8018
 30
0.0
 10
128.4187
 20
-43.8014
 30
0.0
 10
128.4187
 20
-43.8014
 30
0.0
 10
128.4187
 20
-43.8014
 30
0.0
 10
130.6039
 20
-43.7741
 30
0.0
 10
132.3675
 20
-41.9935
 30
0.0
 10
132.3675
 20
-39.8018
 30
0.0
 10
132.3675
 20
-39.8018
 30
0.0
 10
132.3675
 20
-39.8018
 30
0.0
 10
132.3674
 20
-39.7745
 30
0.0
 10
132.3674
 20
-39.7745
 30
0.0
 10
132.3674
 20
-39.7745
 30
0.0
 10
132.3674
 20
-39.7745
 30
0.0
 10
132.3674
 20
82.1704
 30
0.0
 10
132.3674
 20
82.1704
 30
0.0
 10
132.3674
 20
82.1704
 30
0.0
 10
132.3674
 20
82.1704
 30
0.0
 10
132.3675
 20
82.1982
 30
0.0
 10
132.3675
 20
82.1982
 30
0.0
 10
132.3675
 20
82.1982
 30
0.0
 10
132.3675
 20
84.39020000000001
 30
0.0
 10
130.6034
 20
86.17100000000001
 30
0.0
 10
128.4177
 20
86.1978
 30
0.0
 10
128.4177
 20
86.1978
 30
0.0
 10
128.4177
 20
86.1978
 30
0.0
 10
128.3675
 20
86.1982
 30
0.0
 10
128.3675
 20
86.1982
 30
0.0
 10
128.3675
 20
86.1982
 30
0.0
 10
128.3675
 20
86.1982
 30
0.0
 10
128.3112
 20
86.1978
 30
0.0
 10
128.3112
 20
86.1978
 30
0.0
  0
SPLINE
  5
33
330
1F
100
AcDbEntity
  8
52
 62
     7
370
     5
100
AcDbSpline
210
0.0
220
0.0
230
1.0
 70
    11
 71
     3
 72
    20
 73
    16
 74
     0
 42
0.0000000001
 43
0.0000000001
 40
0.0
 40
0.0
 40
0.0
 40
0.0
 40
0.25
 40
0.25
 40
0.25
 40
0.25
 40
0.5
 40
0.5
 40
0.5
 40
0.5
 40
0.75
 40
0.75
 40
0.75
 40
0.75
 40
1.0
 40
1.0
 40
1.0
 40
1.0
 10
-98.80720000000001
 20
41.4988
 30
0.0
 10
-86.99030000000001
 20
41.4988
 30
0.0
 10
-77.4072
 20
31.9157
 30
0.0
 10
-77.4072
 20
20.0988
 30
0.0
 10
-77.4072
 20
20.0988
 30
0.0
 10
-77.4072
 20
8.2819
 30
0.0
 10
-86.99030000000001
 20
-1.3012
 30
0.0
 10
-98.80720000000001
 20
-1.3012
 30
0.0
 10
-98.80720000000001
 20
-1.3012
 30
0.0
 10
-110.6241
 20
-1.3012
 30
0.0
 10
-120.2072
 20
8.2819
 30
0.0
 10
-120.2072
 20
20.0988
 30
0.0
 10
-120.2072
 20
20.0988
 30
0.0
 10
-120.2072
 20
31.9157
 30
0.0
 10
-110.6241
 20
41.4988
 30
0.0
 10
-98.80720000000001
 20
41.4988
 30
0.0
  0
SPLINE
  5
34
330
1F
100
AcDbEntity
  8
52
 62
     7
370
     5
100
AcDbSpline
210
0.0
220
0.0
230
1.0
 70
    11
 71
     3
 72
    20
 73
    16
 74
     0
 42
0.0000000001
 43
0.0000000001
 40
0.0
 40
0.0
 40
0.0
 40
0.0
 40
0.25
 40
0.25
 40
0.25
 40
0.25
 40
0.5
 40
0.5
 40
0.5
 40
0.5
 40
0.75
 40
0.75
 40
0.75
 40
0.75
 40
1.0
 40
1.0
 40
1.0
 40
1.0
 10
-76.52930000000001
 20
8.849300000000001
 30
0.0
 10
-75.7287
 20
8.849300000000001
 30
0.0
 10
-75.0793
 20
8.200000000000001
 30
0.0
 10
-75.0793
 20
7.3993
 30
0.0
 10
-75.0793
 20
7.3993
 30
0.0
 10
-75.0793
 20
6.5986
 30
0.0
 10
-75.7287
 20
5.9493
 30
0.0
 10
-76.52930000000001
 20
5.9493
 30
0.0
 10
-76.52930000000001
 20
5.9493
 30
0.0
 10
-77.33
 20
5.9493
 30
0.0
 10
-77.97930000000001
 20
6.5986
 30
0.0
 10
-77.97930000000001
 20
7.3993
 30
0.0
 10
-77.97930000000001
 20
7.3993
 30
0.0
 10
-77.97930000000001
 20
8.200000000000001
 30
0.0
 10
-77.33
 20
8.849300000000001
 30
0.0
 10
-76.52930000000001
 20
8.849300000000001
 30
0.0
  0
SPLINE
  5
35
330
1F
100
AcDbEntity
  8
52
 62
     7
370
     5
100
AcDbSpline
210
0.0
220
0.0
230
1.0
 70
    11
 71
     3
 72
    20
 73
    16
 74
     0
 42
0.0000000001
 43
0.0000000001
 40
0.0
 40
0.0
 40
0.0
 40
0.0
 40
0.25
 40
0.25
 40
0.25
 40
0.25
 40
0.5
 40
0.5
 40
0.5
 40
0.5
 40
0.75
 40
0.75
 40
0.75
 40
0.75
 40
1.0
 40
1.0
 40
1.0
 40
1.0
 10
-120.7293
 20
8.203800000000001
 30
0.0
 10
-119.9287
 20
8.203800000000001
 30
0.0
 10
-119.2793
 20
7.5545
 30
0.0
 10
-119.2793
 20
6.7538
 30
0.0
 10
-119.2793
 20
6.7538
 30
0.0
 10
-119.2793
 20
5.9531
 30
0.0
 10
-119.9287
 20
5.3038
 30
0.0
 10
-120.7293
 20
5.3038
 30
0.0
 10
-120.7293
 20
5.3038
 30
0.0
 10
-121.53
 20
5.3038
 30
0.0
 10
-122.1793
 20
5.9531
 30
0.0
 10
-122.1793
 20
6.7538
 30
0.0
 10
-122.1793
 20
6.7538
 30
0.0
 10
-122.1793
 20
7.5545
 30
0.0
 10
-121.53
 20
8.203800000000001
 30
0.0
 10
-120.7293
 20
8.203800000000001
 30
0.0
  0
SPLINE
  5
36
330
1F
100
AcDbEntity
  8
52
 62
     7
370
     5
100
AcDbSpline
210
0.0
220
0.0
230
1.0
 70
    11
 71
     3
 72
    20
 73
    16
 74
     0
 42
0.0000000001
 43
0.0000000001
 40
0.0
 40
0.0
 40
0.0
 40
0.0
 40
0.25
 40
0.25
 40
0.25
 40
0.25
 40
0.5
 40
0.5
 40
0.5
 40
0.5
 40
0.75
 40
0.75
 40
0.75
 40
0.75
 40
1.0
 40
1.0
 40
1.0
 40
1.0
 10
-98.80720000000001
 20
47.0488
 30
0.0
 10
-98.00660000000001
 20
47.0488
 30
0.0
 10
-97.35720000000001
 20
46.3995
 30
0.0
 10
-97.35720000000001
 20
45.5988
 30
0.0
 10
-97.35720000000001
 20
45.5988
 30
0.0
 10
-97.35720000000001
 20
44.79810000000001
 30
0.0
 10
-98.00660000000001
 20
44.1488
 30
0.0
 10
-98.80720000000001
 20
44.1488
 30
0.0
 10
-98.80720000000001
 20
44.1488
 30
0.0
 10
-99.6079
 20
44.1488
 30
0.0
 10
-100.2572
 20
44.79810000000001
 30
0.0
 10
-100.2572
 20
45.5988
 30
0.0
 10
-100.2572
 20
45.5988
 30
0.0
 10
-100.2572
 20
46.3995
 30
0.0
 10
-99.6079
 20
47.0488
 30
0.0
 10
-98.80720000000001
 20
47.0488
 30
0.0
  0
SPLINE
  5
37
330
1F
100
AcDbEntity
  8
52
 62
     7
370
     5
100
AcDbSpline
210
0.0
220
0.0
230
1.0
 70
    11
 71
     3
 72
    20
 73
    16
 74
     0
 42
0.0000000001
 43
0.0000000001
 40
0.0
 40
0.0
 40
0.0
 40
0.0
 40
0.25
 40
0.25
 40
0.25
 40
0.25
 40
0.5
 40
0.5
 40
0.5
 40
0.5
 40
0.75
 40
0.75
 40
0.75
 40
0.75
 40
1.0
 40
1.0
 40
1.0
 40
1.0
 10
100.5083
 20
-12.7027
 30
0.0
 10
94.4342
 20
-12.7027
 30
0.0
 10
89.5082
 20
-7.776800000000001
 30
0.0
 10
89.5082
 20
-1.7027
 30
0.0
 10
89.5082
 20
-1.7027
 30
0.0
 10
89.5082
 20
4.3714
 30
0.0
 10
94.4342
 20
9.2973
 30
0.0
 10
100.5083
 20
9.2973
 30
0.0
 10
100.5083
 20
9.2973
 30
0.0
 10
106.5823
 20
9.2973
 30
0.0
 10
111.5082
 20
4.3714
 30
0.0
 10
111.5082
 20
-1.7027
 30
0.0
 10
111.5082
 20
-1.7027
 30
0.0
 10
111.5082
 20
-7.776800000000001
 30
0.0
 10
106.5823
 20
-12.7027
 30
0.0
 10
100.5083
 20
-12.7027
 30
0.0
  0
SPLINE
  5
38
330
1F
100
AcDbEntity
  8
52
 62
     7
370
     5
100
AcDbSpline
210
0.0
220
0.0
230
1.0
 70
    11
 71
     3
 72
    20
 73
    16
 74
     0
 42
0.0000000001
 43
0.0000000001
 40
0.0
 40
0.0
 40
0.0
 40
0.0
 40
0.25
 40
0.25
 40
0.25
 40
0.25
 40
0.5
 40
0.5
 40
0.5
 40
0.5
 40
0.75
 40
0.75
 40
0.75
 40
0.75
 40
1.0
 40
1.0
 40
1.0
 40
1.0
 10
-29.3706
 20
9.605
 30
0.0
 10
-26.7477
 20
9.605
 30
0.0
 10
-24.6206
 20
7.4779
 30
0.0
 10
-24.6206
 20
4.855
 30
0.0
 10
-24.6206
 20
4.855
 30
0.0
 10
-24.6206
 20
2.2321
 30
0.0
 10
-26.7477
 20
0.105
 30
0.0
 10
-29.3706
 20
0.105
 30
0.0
 10
-29.3706
 20
0.105
 30
0.0
 10
-31.9935
 20
0.105
 30
0.0
 10
-34.1206
 20
2.2321
 30
0.0
 10
-34.1206
 20
4.855
 30
0.0
 10
-34.1206
 20
4.855
 30
0.0
 10
-34.1206
 20
7.4779
 30
0.0
 10
-31.9935
 20
9.605
 30
0.0
 10
-29.3706
 20
9.605
 30
0.0
  0
SPLINE
  5
39
330
1F
100
AcDbEntity
  8
52
 62
     7
370
     5
100
AcDbSpline
210
0.0
220
0.0
230
1.0
 70
    11
 71
     3
 72
    20
 73
    16
 74
     0
 42
0.0000000001
 43
0.0000000001
 40
0.0
 40
0.0
 40
0.0
 40
0.0
 40
0.25
 40
0.25
 40
0.25
 40
0.25
 40
0.5
 40
0.5
 40
0.5
 40
0.5
 40
0.75
 40
0.75
 40
0.75
 40
0.75
 40
1.0
 40
1.0
 40
1.0
 40
1.0
 10
-29.3706
 20
39.8785
 30
0.0
 10
-26.7477
 20
39.8785
 30
0.0
 10
-24.6206
 20
37.7514
 30
0.0
 10
-24.6206
 20
35.1285
 30
0.0
 10
-24.6206
 20
35.1285
 30
0.0
 10
-24.6206
 20
32.5056
 30
0.0
 10
-26.7477
 20
30.3785
 30
0.0
 10
-29.3706
 20
30.3785
 30
0.0
 10
-29.3706
 20
30.3785
 30
0.0
 10
-31.9935
 20
30.3785
 30
0.0
 10
-34.1206
 20
32.5056
 30
0.0
 10
-34.1206
 20
35.1285
 30
0.0
 10
-34.1206
 20
35.1285
 30
0.0
 10
-34.1206
 20
37.7514
 30
0.0
 10
-31.9935
 20
39.8785
 30
0.0
 10
-29.3706
 20
39.8785
 30
0.0
  0
LWPOLYLINE
  5
3A
330
1F
100
AcDbEntity
  8
52
 62
     7
370
     5
100
AcDbPolyline
 90
        5
 70
     1
 43
0.0
 10
7.681500000000001
 20
34.6546
 10
29.7815
 20
34.6546
 10
29.7815
 20
56.7546
 10
7.681500000000001
 20
56.7546
 10
7.681500000000001
 20
34.6546
  0
LWPOLYLINE
  5
3B
330
1F
100
AcDbEntity
  8
52
 62
     7
370
     5
100
AcDbPolyline
 90
        5
 70
     1
 43
0.0
 10
42.6815
 20
34.6546
 10
64.78150000000001
 20
34.6546
 10
64.78150000000001
 20
56.7546
 10
42.6815
 20
56.7546
 10
42.6815
 20
34.6546
  0
LWPOLYLINE
  5
3C
330
1F
100
AcDbEntity
  8
52
 62
     7
370
     5
100
AcDbPolyline
 90
        5
 70
     1
 43
0.0
 10
7.681500000000001
 20
-8.450900000000001
 10
29.7815
 20
-8.450900000000001
 10
29.7815
 20
13.6491
 10
7.681500000000001
 20
13.6491
 10
7.681500000000001
 20
-8.450900000000001
  0
LWPOLYLINE
  5
3D
330
1F
100
AcDbEntity
  8
52
 62
     7
370
     5
100
AcDbPolyline
 90
        5
 70
     1
 43
0.0
 10
42.6815
 20
-8.450900000000001
 10
64.78150000000001
 20
-8.450900000000001
 10
64.78150000000001
 20
13.6491
 10
42.6815
 20
13.6491
 10
42.6815
 20
-8.450900000000001
  0
SPLINE
  5
3E
330
1F
100
AcDbEntity
  8
52
 62
   250
370
     5
100
AcDbSpline
210
0.0
220
0.0
230
1.0
 70
    24
 71
     3
 72
     8
 73
     4
 74
     0
 42
0.0000000001
 43
0.0000000001
 40
0.0
 40
0.0
 40
0.0
 40
0.0
 40
1.0
 40
1.0
 40
1.0
 40
1.0
 10
-137.6325
 20
68.1082
 30
0.0
 10
-137.6325
 20
68.1082
 30
0.0
 10
-137.6325
 20
127.02
 30
0.0
 10
-137.6325
 20
127.02
 30
0.0
  0
SPLINE
  5
3F
330
1F
100
AcDbEntity
  8
52
 62
   250
370
     5
100
AcDbSpline
210
0.0
220
0.0
230
1.0
 70
    24
 71
     3
 72
     8
 73
     4
 74
     0
 42
0.0000000001
 43
0.0000000001
 40
0.0
 40
0.0
 40
0.0
 40
0.0
 40
1.0
 40
1.0
 40
1.0
 40
1.0
 10
132.3674
 20
63.8008
 30
0.0
 10
132.3674
 20
63.8008
 30
0.0
 10
132.3674
 20
127.02
 30
0.0
 10
132.3674
 20
127.02
 30
0.0
  0
SPLINE
  5
40
330
1F
100
AcDbEntity
  8
52
 62
   250
370
     5
100
AcDbSpline
210
0.0
220
0.0
230
1.0
 70
    24
 71
     3
 72
     8
 73
     4
 74
     0
 42
0.0000000001
 43
0.0000000001
 40
0.0
 40
0.0
 40
0.0
 40
0.0
 40
1.0
 40
1.0
 40
1.0
 40
1.0
 10
-137.6325
 20
121.94
 30
0.0
 10
-137.6325
 20
121.94
 30
0.0
 10
-22.7414
 20
121.94
 30
0.0
 10
-22.7414
 20
121.94
 30
0.0
  0
SPLINE
  5
41
330
1F
100
AcDbEntity
  8
52
 62
   250
370
     5
100
AcDbSpline
210
0.0
220
0.0
230
1.0
 70
    24
 71
     3
 72
     8
 73
     4
 74
     0
 42
0.0000000001
 43
0.0000000001
 40
0.0
 40
0.0
 40
0.0
 40
0.0
 40
1.0
 40
1.0
 40
1.0
 40
1.0
 10
31.7672
 20
121.94
 30
0.0
 10
31.7672
 20
121.94
 30
0.0
 10
132.3674
 20
121.94
 30
0.0
 10
132.3674
 20
121.94
 30
0.0
  0
SPLINE
  5
42
330
1F
100
AcDbEntity
  8
52
 62
   250
100
AcDbSpline
210
0.0
220
0.0
230
1.0
 70
    11
 71
     3
 72
    92
 73
    88
 74
     0
 42
0.0000000001
 43
0.0000000001
 40
0.0
 40
0.0
 40
0.0
 40
0.0
 40
0.0454545454545455
 40
0.0454545454545455
 40
0.0454545454545455
 40
0.0454545454545455
 40
0.0909090909090909
 40
0.0909090909090909
 40
0.0909090909090909
 40
0.0909090909090909
 40
0.1363636363636364
 40
0.1363636363636364
 40
0.1363636363636364
 40
0.1363636363636364
 40
0.1818181818181818
 40
0.1818181818181818
 40
0.1818181818181818
 40
0.1818181818181818
 40
0.2272727272727273
 40
0.2272727272727273
 40
0.2272727272727273
 40
0.2272727272727273
 40
0.2727272727272728
 40
0.2727272727272728
 40
0.2727272727272728
 40
0.2727272727272728
 40
0.3181818181818182
 40
0.3181818181818182
 40
0.3181818181818182
 40
0.3181818181818182
 40
0.3636363636363637
 40
0.3636363636363637
 40
0.3636363636363637
 40
0.3636363636363637
 40
0.4090909090909092
 40
0.4090909090909092
 40
0.4090909090909092
 40
0.4090909090909092
 40
0.4545454545454546
 40
0.4545454545454546
 40
0.4545454545454546
 40
0.4545454545454546
 40
0.5000000000000001
 40
0.5000000000000001
 40
0.5000000000000001
 40
0.5000000000000001
 40
0.5454545454545455
 40
0.5454545454545455
 40
0.5454545454545455
 40
0.5454545454545455
 40
0.5909090909090909
 40
0.5909090909090909
 40
0.5909090909090909
 40
0.5909090909090909
 40
0.6363636363636364
 40
0.6363636363636364
 40
0.6363636363636364
 40
0.6363636363636364
 40
0.6818181818181818
 40
0.6818181818181818
 40
0.6818181818181818
 40
0.6818181818181818
 40
0.7272727272727272
 40
0.7272727272727272
 40
0.7272727272727272
 40
0.7272727272727272
 40
0.7727272727272726
 40
0.7727272727272726
 40
0.7727272727272726
 40
0.7727272727272726
 40
0.818181818181818
 40
0.818181818181818
 40
0.818181818181818
 40
0.818181818181818
 40
0.8636363636363634
 40
0.8636363636363634
 40
0.8636363636363634
 40
0.8636363636363634
 40
0.9090909090909088
 40
0.9090909090909088
 40
0.9090909090909088
 40
0.9090909090909088
 40
0.9545454545454543
 40
0.9545454545454543
 40
0.9545454545454543
 40
0.9545454545454543
 40
1.0
 40
1.0
 40
1.0
 40
1.0
 10
-12.1284
 20
119.6639
 30
0.0
 10
-12.1284
 20
119.6639
 30
0.0
 10
-12.1284
 20
118.9485
 30
0.0
 10
-12.1284
 20
118.9485
 30
0.0
 10
-12.1284
 20
118.9485
 30
0.0
 10
-12.1284
 20
118.9485
 30
0.0
 10
-16.1346
 20
118.9485
 30
0.0
 10
-16.1346
 20
118.9485
 30
0.0
 10
-16.1346
 20
118.9485
 30
0.0
 10
-16.1402
 20
119.1277
 30
0.0
 10
-16.112
 20
119.2999
 30
0.0
 10
-16.0485
 20
119.465
 30
0.0
 10
-16.0485
 20
119.465
 30
0.0
 10
-15.9469
 20
119.7387
 30
0.0
 10
-15.7832
 20
120.0068
 30
0.0
 10
-15.5588
 20
120.2721
 30
0.0
 10
-15.5588
 20
120.2721
 30
0.0
 10
-15.3331
 20
120.536
 30
0.0
 10
-15.0085
 20
120.8422
 30
0.0
 10
-14.5852
 20
121.1894
 30
0.0
 10
-14.5852
 20
121.1894
 30
0.0
 10
-13.9262
 20
121.7298
 30
0.0
 10
-13.4803
 20
122.1574
 30
0.0
 10
-13.2488
 20
122.4735
 30
0.0
 10
-13.2488
 20
122.4735
 30
0.0
 10
-13.0174
 20
122.7881
 30
0.0
 10
-12.9017
 20
123.0873
 30
0.0
 10
-12.9017
 20
123.3681
 30
0.0
 10
-12.9017
 20
123.3681
 30
0.0
 10
-12.9017
 20
123.663
 30
0.0
 10
-13.0075
 20
123.9114
 30
0.0
 10
-13.2178
 20
124.1146
 30
0.0
 10
-13.2178
 20
124.1146
 30
0.0
 10
-13.4295
 20
124.3164
 30
0.0
 10
-13.7046
 20
124.418
 30
0.0
 10
-14.0433
 20
124.418
 30
0.0
 10
-14.0433
 20
124.418
 30
0.0
 10
-14.4017
 20
124.418
 30
0.0
 10
-14.6882
 20
124.3107
 30
0.0
 10
-14.9027
 20
124.0948
 30
0.0
 10
-14.9027
 20
124.0948
 30
0.0
 10
-15.1186
 20
123.8804
 30
0.0
 10
-15.2272
 20
123.5826
 30
0.0
 10
-15.2301
 20
123.203
 30
0.0
 10
-15.2301
 20
123.203
 30
0.0
 10
-15.2301
 20
123.203
 30
0.0
 10
-15.9949
 20
123.2806
 30
0.0
 10
-15.9949
 20
123.2806
 30
0.0
 10
-15.9949
 20
123.2806
 30
0.0
 10
-15.9427
 20
123.8521
 30
0.0
 10
-15.7451
 20
124.2868
 30
0.0
 10
-15.4036
 20
124.5859
 30
0.0
 10
-15.4036
 20
124.5859
 30
0.0
 10
-15.0621
 20
124.8851
 30
0.0
 10
-14.6021
 20
125.0346
 30
0.0
 10
-14.0264
 20
125.0346
 30
0.0
 10
-14.0264
 20
125.0346
 30
0.0
 10
-13.445
 20
125.0346
 30
0.0
 10
-12.985
 20
124.8724
 30
0.0
 10
-12.6463
 20
124.5506
 30
0.0
 10
-12.6463
 20
124.5506
 30
0.0
 10
-12.3062
 20
124.2275
 30
0.0
 10
-12.1369
 20
123.8281
 30
0.0
 10
-12.1369
 20
123.3512
 30
0.0
 10
-12.1369
 20
123.3512
 30
0.0
 10
-12.1369
 20
123.1085
 30
0.0
 10
-12.1863
 20
122.87
 30
0.0
 10
-12.2865
 20
122.6357
 30
0.0
 10
-12.2865
 20
122.6357
 30
0.0
 10
-12.3852
 20
122.4015
 30
0.0
 10
-12.5503
 20
122.1546
 30
0.0
 10
-12.7804
 20
121.8963
 30
0.0
 10
-12.7804
 20
121.8963
 30
0.0
 10
-13.0104
 20
121.6367
 30
0.0
 10
-13.3928
 20
121.2811
 30
0.0
 10
-13.9276
 20
120.8295
 30
0.0
 10
-13.9276
 20
120.8295
 30
0.0
 10
-14.3735
 20
120.4542
 30
0.0
 10
-14.66
 20
120.2002
 30
0.0
 10
-14.787
 20
120.0661
 30
0.0
 10
-14.787
 20
120.0661
 30
0.0
 10
-14.914
 20
119.9335
 30
0.0
 10
-15.0184
 20
119.7994
 30
0.0
 10
-15.1016
 20
119.6639
 30
0.0
 10
-15.1016
 20
119.6639
 30
0.0
 10
-15.1016
 20
119.6639
 30
0.0
 10
-12.1284
 20
119.6639
 30
0.0
 10
-12.1284
 20
119.6639
 30
0.0
  0
SPLINE
  5
43
330
1F
100
AcDbEntity
  8
52
 62
   250
100
AcDbSpline
210
0.0
220
0.0
230
1.0
 70
    11
 71
     3
 72
    48
 73
    44
 74
     0
 42
0.0000000001
 43
0.0000000001
 40
0.0
 40
0.0
 40
0.0
 40
0.0
 40
0.0909090909090909
 40
0.0909090909090909
 40
0.0909090909090909
 40
0.0909090909090909
 40
0.1818181818181818
 40
0.1818181818181818
 40
0.1818181818181818
 40
0.1818181818181818
 40
0.2727272727272727
 40
0.2727272727272727
 40
0.2727272727272727
 40
0.2727272727272727
 40
0.3636363636363637
 40
0.3636363636363637
 40
0.3636363636363637
 40
0.3636363636363637
 40
0.4545454545454546
 40
0.4545454545454546
 40
0.4545454545454546
 40
0.4545454545454546
 40
0.5454545454545455
 40
0.5454545454545455
 40
0.5454545454545455
 40
0.5454545454545455
 40
0.6363636363636365
 40
0.6363636363636365
 40
0.6363636363636365
 40
0.6363636363636365
 40
0.7272727272727274
 40
0.7272727272727274
 40
0.7272727272727274
 40
0.7272727272727274
 40
0.8181818181818183
 40
0.8181818181818183
 40
0.8181818181818183
 40
0.8181818181818183
 40
0.9090909090909093
 40
0.9090909090909093
 40
0.9090909090909093
 40
0.9090909090909093
 40
1.0
 40
1.0
 40
1.0
 40
1.0
 10
-11.2817
 20
124.2148
 30
0.0
 10
-11.2817
 20
124.2148
 30
0.0
 10
-11.2817
 20
124.9302
 30
0.0
 10
-11.2817
 20
124.9302
 30
0.0
 10
-11.2817
 20
124.9302
 30
0.0
 10
-11.2817
 20
124.9302
 30
0.0
 10
-7.358800000000001
 20
124.9302
 30
0.0
 10
-7.358800000000001
 20
124.9302
 30
0.0
 10
-7.358800000000001
 20
124.9302
 30
0.0
 10
-7.358800000000001
 20
124.9302
 30
0.0
 10
-7.358800000000001
 20
124.3517
 30
0.0
 10
-7.358800000000001
 20
124.3517
 30
0.0
 10
-7.358800000000001
 20
124.3517
 30
0.0
 10
-7.7441
 20
123.941
 30
0.0
 10
-8.1265
 20
123.3949
 30
0.0
 10
-8.5061
 20
122.7148
 30
0.0
 10
-8.5061
 20
122.7148
 30
0.0
 10
-8.8843
 20
122.0346
 30
0.0
 10
-9.177800000000001
 20
121.3333
 30
0.0
 10
-9.383800000000001
 20
120.615
 30
0.0
 10
-9.383800000000001
 20
120.615
 30
0.0
 10
-9.5334
 20
120.107
 30
0.0
 10
-9.6279
 20
119.5525
 30
0.0
 10
-9.668800000000001
 20
118.9485
 30
0.0
 10
-9.668800000000001
 20
118.9485
 30
0.0
 10
-9.668800000000001
 20
118.9485
 30
0.0
 10
-10.4337
 20
118.9485
 30
0.0
 10
-10.4337
 20
118.9485
 30
0.0
 10
-10.4337
 20
118.9485
 30
0.0
 10
-10.4252
 20
119.4255
 30
0.0
 10
-10.3321
 20
120.0012
 30
0.0
 10
-10.1528
 20
120.6771
 30
0.0
 10
-10.1528
 20
120.6771
 30
0.0
 10
-9.973600000000001
 20
121.3516
 30
0.0
 10
-9.716800000000001
 20
122.0036
 30
0.0
 10
-9.382400000000001
 20
122.6301
 30
0.0
 10
-9.382400000000001
 20
122.6301
 30
0.0
 10
-9.0465
 20
123.2566
 30
0.0
 10
-8.690900000000001
 20
123.7858
 30
0.0
 10
-8.312800000000001
 20
124.2148
 30
0.0
 10
-8.312800000000001
 20
124.2148
 30
0.0
 10
-8.312800000000001
 20
124.2148
 30
0.0
 10
-11.2817
 20
124.2148
 30
0.0
 10
-11.2817
 20
124.2148
 30
0.0
  0
SPLINE
  5
44
330
1F
100
AcDbEntity
  8
52
 62
   250
100
AcDbSpline
210
0.0
220
0.0
230
1.0
 70
    11
 71
     3
 72
    52
 73
    48
 74
     0
 42
0.0000000001
 43
0.0000000001
 40
0.0
 40
0.0
 40
0.0
 40
0.0
 40
0.0833333333333333
 40
0.0833333333333333
 40
0.0833333333333333
 40
0.0833333333333333
 40
0.1666666666666667
 40
0.1666666666666667
 40
0.1666666666666667
 40
0.1666666666666667
 40
0.25
 40
0.25
 40
0.25
 40
0.25
 40
0.3333333333333333
 40
0.3333333333333333
 40
0.3333333333333333
 40
0.3333333333333333
 40
0.4166666666666666
 40
0.4166666666666666
 40
0.4166666666666666
 40
0.4166666666666666
 40
0.4999999999999999
 40
0.4999999999999999
 40
0.4999999999999999
 40
0.4999999999999999
 40
0.5833333333333333
 40
0.5833333333333333
 40
0.5833333333333333
 40
0.5833333333333333
 40
0.6666666666666666
 40
0.6666666666666666
 40
0.6666666666666666
 40
0.6666666666666666
 40
0.75
 40
0.75
 40
0.75
 40
0.75
 40
0.8333333333333334
 40
0.8333333333333334
 40
0.8333333333333334
 40
0.8333333333333334
 40
0.9166666666666667
 40
0.9166666666666667
 40
0.9166666666666667
 40
0.9166666666666667
 40
1.0
 40
1.0
 40
1.0
 40
1.0
 10
-6.6222
 20
121.9372
 30
0.0
 10
-6.6222
 20
122.6541
 30
0.0
 10
-6.548900000000001
 20
123.2312
 30
0.0
 10
-6.400700000000001
 20
123.6673
 30
0.0
 10
-6.400700000000001
 20
123.6673
 30
0.0
 10
-6.253900000000001
 20
124.1047
 30
0.0
 10
-6.0338
 20
124.442
 30
0.0
 10
-5.7431
 20
124.679
 30
0.0
 10
-5.7431
 20
124.679
 30
0.0
 10
-5.4524
 20
124.9161
 30
0.0
 10
-5.0869
 20
125.0346
 30
0.0
 10
-4.6467
 20
125.0346
 30
0.0
 10
-4.6467
 20
125.0346
 30
0.0
 10
-4.3207
 20
125.0346
 30
0.0
 10
-4.0357
 20
124.9683
 30
0.0
 10
-3.7901
 20
124.8371
 30
0.0
 10
-3.7901
 20
124.8371
 30
0.0
 10
-3.5446
 20
124.7073
 30
0.0
 10
-3.3428
 20
124.5182
 30
0.0
 10
-3.1819
 20
124.2712
 30
0.0
 10
-3.1819
 20
124.2712
 30
0.0
 10
-3.0225
 20
124.0243
 30
0.0
 10
-2.8969
 20
123.7237
 30
0.0
 10
-2.8066
 20
123.3695
 30
0.0
 10
-2.8066
 20
123.3695
 30
0.0
 10
-2.7148
 20
123.0153
 30
0.0
 10
-2.6697
 20
122.5384
 30
0.0
 10
-2.6697
 20
121.9372
 30
0.0
 10
-2.6697
 20
121.9372
 30
0.0
 10
-2.6697
 20
121.226
 30
0.0
 10
-2.7431
 20
120.6531
 30
0.0
 10
-2.8884
 20
120.2157
 30
0.0
 10
-2.8884
 20
120.2157
 30
0.0
 10
-3.0352
 20
119.7782
 30
0.0
 10
-3.2539
 20
119.441
 30
0.0
 10
-3.5446
 20
119.2025
 30
0.0
 10
-3.5446
 20
119.2025
 30
0.0
 10
-3.8353
 20
118.964
 30
0.0
 10
-4.2022
 20
118.8455
 30
0.0
 10
-4.6467
 20
118.8455
 30
0.0
 10
-4.6467
 20
118.8455
 30
0.0
 10
-5.2309
 20
118.8455
 30
0.0
 10
-5.689500000000001
 20
119.0543
 30
0.0
 10
-6.0225
 20
119.4734
 30
0.0
 10
-6.0225
 20
119.4734
 30
0.0
 10
-6.4219
 20
119.9772
 30
0.0
 10
-6.6222
 20
120.7999
 30
0.0
 10
-6.6222
 20
121.9372
 30
0.0
  0
SPLINE
  5
45
330
1F
100
AcDbEntity
  8
52
 62
   250
100
AcDbSpline
210
0.0
220
0.0
230
1.0
 70
    11
 71
     3
 72
    36
 73
    32
 74
     0
 42
0.0000000001
 43
0.0000000001
 40
0.0
 40
0.0
 40
0.0
 40
0.0
 40
0.125
 40
0.125
 40
0.125
 40
0.125
 40
0.25
 40
0.25
 40
0.25
 40
0.25
 40
0.375
 40
0.375
 40
0.375
 40
0.375
 40
0.5
 40
0.5
 40
0.5
 40
0.5
 40
0.625
 40
0.625
 40
0.625
 40
0.625
 40
0.75
 40
0.75
 40
0.75
 40
0.75
 40
0.875
 40
0.875
 40
0.875
 40
0.875
 40
1.0
 40
1.0
 40
1.0
 40
1.0
 10
-5.8574
 20
121.9372
 30
0.0
 10
-5.8574
 20
120.9424
 30
0.0
 10
-5.7403
 20
120.2806
 30
0.0
 10
-5.507400000000001
 20
119.9504
 30
0.0
 10
-5.507400000000001
 20
119.9504
 30
0.0
 10
-5.2746
 20
119.6216
 30
0.0
 10
-4.9882
 20
119.4565
 30
0.0
 10
-4.6467
 20
119.4565
 30
0.0
 10
-4.6467
 20
119.4565
 30
0.0
 10
-4.3038
 20
119.4565
 30
0.0
 10
-4.017300000000001
 20
119.623
 30
0.0
 10
-3.7845
 20
119.9532
 30
0.0
 10
-3.7845
 20
119.9532
 30
0.0
 10
-3.5516
 20
120.2834
 30
0.0
 10
-3.4345
 20
120.9452
 30
0.0
 10
-3.4345
 20
121.9372
 30
0.0
 10
-3.4345
 20
121.9372
 30
0.0
 10
-3.4345
 20
122.9349
 30
0.0
 10
-3.5516
 20
123.5981
 30
0.0
 10
-3.7845
 20
123.9255
 30
0.0
 10
-3.7845
 20
123.9255
 30
0.0
 10
-4.017300000000001
 20
124.2543
 30
0.0
 10
-4.3066
 20
124.418
 30
0.0
 10
-4.653700000000001
 20
124.418
 30
0.0
 10
-4.653700000000001
 20
124.418
 30
0.0
 10
-4.9966
 20
124.418
 30
0.0
 10
-5.269
 20
124.2726
 30
0.0
 10
-5.4736
 20
123.9834
 30
0.0
 10
-5.4736
 20
123.9834
 30
0.0
 10
-5.729
 20
123.6151
 30
0.0
 10
-5.8574
 20
122.9321
 30
0.0
 10
-5.8574
 20
121.9372
 30
0.0
  0
SPLINE
  5
46
330
1F
100
AcDbEntity
  8
52
 62
   250
100
AcDbSpline
210
0.0
220
0.0
230
1.0
 70
    11
 71
     3
 72
    20
 73
    16
 74
     0
 42
0.0000000001
 43
0.0000000001
 40
0.0
 40
0.0
 40
0.0
 40
0.0
 40
0.25
 40
0.25
 40
0.25
 40
0.25
 40
0.5
 40
0.5
 40
0.5
 40
0.5
 40
0.75
 40
0.75
 40
0.75
 40
0.75
 40
1.0
 40
1.0
 40
1.0
 40
1.0
 10
-1.4956
 20
118.9485
 30
0.0
 10
-1.4956
 20
118.9485
 30
0.0
 10
-1.4956
 20
119.7966
 30
0.0
 10
-1.4956
 20
119.7966
 30
0.0
 10
-1.4956
 20
119.7966
 30
0.0
 10
-1.4956
 20
119.7966
 30
0.0
 10
-0.6476000000000001
 20
119.7966
 30
0.0
 10
-0.6476000000000001
 20
119.7966
 30
0.0
 10
-0.6476000000000001
 20
119.7966
 30
0.0
 10
-0.6476000000000001
 20
119.7966
 30
0.0
 10
-0.6476000000000001
 20
118.9485
 30
0.0
 10
-0.6476000000000001
 20
118.9485
 30
0.0
 10
-0.6476000000000001
 20
118.9485
 30
0.0
 10
-0.6476000000000001
 20
118.9485
 30
0.0
 10
-1.4956
 20
118.9485
 30
0.0
 10
-1.4956
 20
118.9485
 30
0.0
  0
SPLINE
  5
47
330
1F
100
AcDbEntity
  8
52
 62
   250
100
AcDbSpline
210
0.0
220
0.0
230
1.0
 70
    11
 71
     3
 72
    52
 73
    48
 74
     0
 42
0.0000000001
 43
0.0000000001
 40
0.0
 40
0.0
 40
0.0
 40
0.0
 40
0.0833333333333333
 40
0.0833333333333333
 40
0.0833333333333333
 40
0.0833333333333333
 40
0.1666666666666667
 40
0.1666666666666667
 40
0.1666666666666667
 40
0.1666666666666667
 40
0.25
 40
0.25
 40
0.25
 40
0.25
 40
0.3333333333333333
 40
0.3333333333333333
 40
0.3333333333333333
 40
0.3333333333333333
 40
0.4166666666666666
 40
0.4166666666666666
 40
0.4166666666666666
 40
0.4166666666666666
 40
0.4999999999999999
 40
0.4999999999999999
 40
0.4999999999999999
 40
0.4999999999999999
 40
0.5833333333333333
 40
0.5833333333333333
 40
0.5833333333333333
 40
0.5833333333333333
 40
0.6666666666666666
 40
0.6666666666666666
 40
0.6666666666666666
 40
0.6666666666666666
 40
0.75
 40
0.75
 40
0.75
 40
0.75
 40
0.8333333333333334
 40
0.8333333333333334
 40
0.8333333333333334
 40
0.8333333333333334
 40
0.9166666666666667
 40
0.9166666666666667
 40
0.9166666666666667
 40
0.9166666666666667
 40
1.0
 40
1.0
 40
1.0
 40
1.0
 10
0.439
 20
121.9372
 30
0.0
 10
0.439
 20
122.6541
 30
0.0
 10
0.5123
 20
123.2312
 30
0.0
 10
0.6605000000000001
 20
123.6673
 30
0.0
 10
0.6605000000000001
 20
123.6673
 30
0.0
 10
0.8073
 20
124.1047
 30
0.0
 10
1.0274
 20
124.442
 30
0.0
 10
1.3181
 20
124.679
 30
0.0
 10
1.3181
 20
124.679
 30
0.0
 10
1.6088
 20
124.9161
 30
0.0
 10
1.9743
 20
125.0346
 30
0.0
 10
2.4145
 20
125.0346
 30
0.0
 10
2.4145
 20
125.0346
 30
0.0
 10
2.7405
 20
125.0346
 30
0.0
 10
3.0255
 20
124.9683
 30
0.0
 10
3.2711
 20
124.8371
 30
0.0
 10
3.2711
 20
124.8371
 30
0.0
 10
3.5166
 20
124.7073
 30
0.0
 10
3.7184
 20
124.5182
 30
0.0
 10
3.8793
 20
124.2712
 30
0.0
 10
3.8793
 20
124.2712
 30
0.0
 10
4.0387
 20
124.0243
 30
0.0
 10
4.1643
 20
123.7237
 30
0.0
 10
4.2546
 20
123.3695
 30
0.0
 10
4.2546
 20
123.3695
 30
0.0
 10
4.3464
 20
123.0153
 30
0.0
 10
4.391500000000001
 20
122.5384
 30
0.0
 10
4.391500000000001
 20
121.9372
 30
0.0
 10
4.391500000000001
 20
121.9372
 30
0.0
 10
4.391500000000001
 20
121.226
 30
0.0
 10
4.3181
 20
120.6531
 30
0.0
 10
4.172800000000001
 20
120.2157
 30
0.0
 10
4.172800000000001
 20
120.2157
 30
0.0
 10
4.026
 20
119.7782
 30
0.0
 10
3.8073
 20
119.441
 30
0.0
 10
3.5166
 20
119.2025
 30
0.0
 10
3.5166
 20
119.2025
 30
0.0
 10
3.2259
 20
118.964
 30
0.0
 10
2.859
 20
118.8455
 30
0.0
 10
2.4145
 20
118.8455
 30
0.0
 10
2.4145
 20
118.8455
 30
0.0
 10
1.8303
 20
118.8455
 30
0.0
 10
1.3717
 20
119.0543
 30
0.0
 10
1.0387
 20
119.4734
 30
0.0
 10
1.0387
 20
119.4734
 30
0.0
 10
0.6393
 20
119.9772
 30
0.0
 10
0.439
 20
120.7999
 30
0.0
 10
0.439
 20
121.9372
 30
0.0
  0
SPLINE
  5
48
330
1F
100
AcDbEntity
  8
52
 62
   250
100
AcDbSpline
210
0.0
220
0.0
230
1.0
 70
    11
 71
     3
 72
    36
 73
    32
 74
     0
 42
0.0000000001
 43
0.0000000001
 40
0.0
 40
0.0
 40
0.0
 40
0.0
 40
0.125
 40
0.125
 40
0.125
 40
0.125
 40
0.25
 40
0.25
 40
0.25
 40
0.25
 40
0.375
 40
0.375
 40
0.375
 40
0.375
 40
0.5
 40
0.5
 40
0.5
 40
0.5
 40
0.625
 40
0.625
 40
0.625
 40
0.625
 40
0.75
 40
0.75
 40
0.75
 40
0.75
 40
0.875
 40
0.875
 40
0.875
 40
0.875
 40
1.0
 40
1.0
 40
1.0
 40
1.0
 10
1.2038
 20
121.9372
 30
0.0
 10
1.2038
 20
120.9424
 30
0.0
 10
1.3209
 20
120.2806
 30
0.0
 10
1.5538
 20
119.9504
 30
0.0
 10
1.5538
 20
119.9504
 30
0.0
 10
1.7866
 20
119.6216
 30
0.0
 10
2.073
 20
119.4565
 30
0.0
 10
2.4145
 20
119.4565
 30
0.0
 10
2.4145
 20
119.4565
 30
0.0
 10
2.7574
 20
119.4565
 30
0.0
 10
3.0439
 20
119.623
 30
0.0
 10
3.2767
 20
119.9532
 30
0.0
 10
3.2767
 20
119.9532
 30
0.0
 10
3.5096
 20
120.2834
 30
0.0
 10
3.6267
 20
120.9452
 30
0.0
 10
3.6267
 20
121.9372
 30
0.0
 10
3.6267
 20
121.9372
 30
0.0
 10
3.6267
 20
122.9349
 30
0.0
 10
3.5096
 20
123.5981
 30
0.0
 10
3.2767
 20
123.9255
 30
0.0
 10
3.2767
 20
123.9255
 30
0.0
 10
3.0439
 20
124.2543
 30
0.0
 10
2.7546
 20
124.418
 30
0.0
 10
2.4075
 20
124.418
 30
0.0
 10
2.4075
 20
124.418
 30
0.0
 10
2.0646
 20
124.418
 30
0.0
 10
1.7922
 20
124.2726
 30
0.0
 10
1.5876
 20
123.9834
 30
0.0
 10
1.5876
 20
123.9834
 30
0.0
 10
1.3322
 20
123.6151
 30
0.0
 10
1.2038
 20
122.9321
 30
0.0
 10
1.2038
 20
121.9372
 30
0.0
  0
SPLINE
  5
49
330
1F
100
AcDbEntity
  8
52
 62
   250
100
AcDbSpline
210
0.0
220
0.0
230
1.0
 70
    11
 71
     3
 72
    52
 73
    48
 74
     0
 42
0.0000000001
 43
0.0000000001
 40
0.0
 40
0.0
 40
0.0
 40
0.0
 40
0.0833333333333333
 40
0.0833333333333333
 40
0.0833333333333333
 40
0.0833333333333333
 40
0.1666666666666667
 40
0.1666666666666667
 40
0.1666666666666667
 40
0.1666666666666667
 40
0.25
 40
0.25
 40
0.25
 40
0.25
 40
0.3333333333333333
 40
0.3333333333333333
 40
0.3333333333333333
 40
0.3333333333333333
 40
0.4166666666666666
 40
0.4166666666666666
 40
0.4166666666666666
 40
0.4166666666666666
 40
0.4999999999999999
 40
0.4999999999999999
 40
0.4999999999999999
 40
0.4999999999999999
 40
0.5833333333333333
 40
0.5833333333333333
 40
0.5833333333333333
 40
0.5833333333333333
 40
0.6666666666666666
 40
0.6666666666666666
 40
0.6666666666666666
 40
0.6666666666666666
 40
0.75
 40
0.75
 40
0.75
 40
0.75
 40
0.8333333333333334
 40
0.8333333333333334
 40
0.8333333333333334
 40
0.8333333333333334
 40
0.9166666666666667
 40
0.9166666666666667
 40
0.9166666666666667
 40
0.9166666666666667
 40
1.0
 40
1.0
 40
1.0
 40
1.0
 10
5.1479
 20
121.9372
 30
0.0
 10
5.1479
 20
122.6541
 30
0.0
 10
5.221200000000001
 20
123.2312
 30
0.0
 10
5.369400000000001
 20
123.6673
 30
0.0
 10
5.369400000000001
 20
123.6673
 30
0.0
 10
5.5162
 20
124.1047
 30
0.0
 10
5.7363
 20
124.442
 30
0.0
 10
6.027
 20
124.679
 30
0.0
 10
6.027
 20
124.679
 30
0.0
 10
6.3177
 20
124.9161
 30
0.0
 10
6.6832
 20
125.0346
 30
0.0
 10
7.1234
 20
125.0346
 30
0.0
 10
7.1234
 20
125.0346
 30
0.0
 10
7.449400000000001
 20
125.0346
 30
0.0
 10
7.7344
 20
124.9683
 30
0.0
 10
7.98
 20
124.8371
 30
0.0
 10
7.98
 20
124.8371
 30
0.0
 10
8.2255
 20
124.7073
 30
0.0
 10
8.427300000000001
 20
124.5182
 30
0.0
 10
8.588200000000001
 20
124.2712
 30
0.0
 10
8.588200000000001
 20
124.2712
 30
0.0
 10
8.7476
 20
124.0243
 30
0.0
 10
8.873200000000001
 20
123.7237
 30
0.0
 10
8.9635
 20
123.3695
 30
0.0
 10
8.9635
 20
123.3695
 30
0.0
 10
9.055300000000001
 20
123.0153
 30
0.0
 10
9.100400000000001
 20
122.5384
 30
0.0
 10
9.100400000000001
 20
121.9372
 30
0.0
 10
9.100400000000001
 20
121.9372
 30
0.0
 10
9.100400000000001
 20
121.226
 30
0.0
 10
9.027000000000001
 20
120.6531
 30
0.0
 10
8.8817
 20
120.2157
 30
0.0
 10
8.8817
 20
120.2157
 30
0.0
 10
8.7349
 20
119.7782
 30
0.0
 10
8.5162
 20
119.441
 30
0.0
 10
8.2255
 20
119.2025
 30
0.0
 10
8.2255
 20
119.2025
 30
0.0
 10
7.9348
 20
118.964
 30
0.0
 10
7.567900000000001
 20
118.8455
 30
0.0
 10
7.1234
 20
118.8455
 30
0.0
 10
7.1234
 20
118.8455
 30
0.0
 10
6.5392
 20
118.8455
 30
0.0
 10
6.0806
 20
119.0543
 30
0.0
 10
5.7476
 20
119.4734
 30
0.0
 10
5.7476
 20
119.4734
 30
0.0
 10
5.3482
 20
119.9772
 30
0.0
 10
5.1479
 20
120.7999
 30
0.0
 10
5.1479
 20
121.9372
 30
0.0
  0
SPLINE
  5
4A
330
1F
100
AcDbEntity
  8
52
 62
   250
100
AcDbSpline
210
0.0
220
0.0
230
1.0
 70
    11
 71
     3
 72
    36
 73
    32
 74
     0
 42
0.0000000001
 43
0.0000000001
 40
0.0
 40
0.0
 40
0.0
 40
0.0
 40
0.125
 40
0.125
 40
0.125
 40
0.125
 40
0.25
 40
0.25
 40
0.25
 40
0.25
 40
0.375
 40
0.375
 40
0.375
 40
0.375
 40
0.5
 40
0.5
 40
0.5
 40
0.5
 40
0.625
 40
0.625
 40
0.625
 40
0.625
 40
0.75
 40
0.75
 40
0.75
 40
0.75
 40
0.875
 40
0.875
 40
0.875
 40
0.875
 40
1.0
 40
1.0
 40
1.0
 40
1.0
 10
5.9127
 20
121.9372
 30
0.0
 10
5.9127
 20
120.9424
 30
0.0
 10
6.029800000000001
 20
120.2806
 30
0.0
 10
6.262700000000001
 20
119.9504
 30
0.0
 10
6.262700000000001
 20
119.9504
 30
0.0
 10
6.495500000000001
 20
119.6216
 30
0.0
 10
6.7819
 20
119.4565
 30
0.0
 10
7.1234
 20
119.4565
 30
0.0
 10
7.1234
 20
119.4565
 30
0.0
 10
7.4663
 20
119.4565
 30
0.0
 10
7.752800000000001
 20
119.623
 30
0.0
 10
7.985600000000001
 20
119.9532
 30
0.0
 10
7.985600000000001
 20
119.9532
 30
0.0
 10
8.218500000000001
 20
120.2834
 30
0.0
 10
8.335600000000001
 20
120.9452
 30
0.0
 10
8.335600000000001
 20
121.9372
 30
0.0
 10
8.335600000000001
 20
121.9372
 30
0.0
 10
8.335600000000001
 20
122.9349
 30
0.0
 10
8.218500000000001
 20
123.5981
 30
0.0
 10
7.985600000000001
 20
123.9255
 30
0.0
 10
7.985600000000001
 20
123.9255
 30
0.0
 10
7.752800000000001
 20
124.2543
 30
0.0
 10
7.463500000000001
 20
124.418
 30
0.0
 10
7.116400000000001
 20
124.418
 30
0.0
 10
7.116400000000001
 20
124.418
 30
0.0
 10
6.7735
 20
124.418
 30
0.0
 10
6.5011
 20
124.2726
 30
0.0
 10
6.2965
 20
123.9834
 30
0.0
 10
6.2965
 20
123.9834
 30
0.0
 10
6.0411
 20
123.6151
 30
0.0
 10
5.9127
 20
122.9321
 30
0.0
 10
5.9127
 20
121.9372
 30
0.0
  0
SPLINE
  5
4B
330
1F
100
AcDbEntity
  8
52
 62
   250
100
AcDbSpline
210
0.0
220
0.0
230
1.0
 70
    11
 71
     3
 72
   116
 73
   112
 74
     0
 42
0.0000000001
 43
0.0000000001
 40
0.0
 40
0.0
 40
0.0
 40
0.0
 40
0.0357142857142857
 40
0.0357142857142857
 40
0.0357142857142857
 40
0.0357142857142857
 40
0.0714285714285714
 40
0.0714285714285714
 40
0.0714285714285714
 40
0.0714285714285714
 40
0.1071428571428571
 40
0.1071428571428571
 40
0.1071428571428571
 40
0.1071428571428571
 40
0.1428571428571429
 40
0.1428571428571429
 40
0.1428571428571429
 40
0.1428571428571429
 40
0.1785714285714286
 40
0.1785714285714286
 40
0.1785714285714286
 40
0.1785714285714286
 40
0.2142857142857143
 40
0.2142857142857143
 40
0.2142857142857143
 40
0.2142857142857143
 40
0.2499999999999999
 40
0.2499999999999999
 40
0.2499999999999999
 40
0.2499999999999999
 40
0.2857142857142856
 40
0.2857142857142856
 40
0.2857142857142856
 40
0.2857142857142856
 40
0.3214285714285713
 40
0.3214285714285713
 40
0.3214285714285713
 40
0.3214285714285713
 40
0.357142857142857
 40
0.357142857142857
 40
0.357142857142857
 40
0.357142857142857
 40
0.3928571428571427
 40
0.3928571428571427
 40
0.3928571428571427
 40
0.3928571428571427
 40
0.4285714285714284
 40
0.4285714285714284
 40
0.4285714285714284
 40
0.4285714285714284
 40
0.4642857142857141
 40
0.4642857142857141
 40
0.4642857142857141
 40
0.4642857142857141
 40
0.4999999999999998
 40
0.4999999999999998
 40
0.4999999999999998
 40
0.4999999999999998
 40
0.5357142857142856
 40
0.5357142857142856
 40
0.5357142857142856
 40
0.5357142857142856
 40
0.5714285714285713
 40
0.5714285714285713
 40
0.5714285714285713
 40
0.5714285714285713
 40
0.607142857142857
 40
0.607142857142857
 40
0.607142857142857
 40
0.607142857142857
 40
0.6428571428571427
 40
0.6428571428571427
 40
0.6428571428571427
 40
0.6428571428571427
 40
0.6785714285714284
 40
0.6785714285714284
 40
0.6785714285714284
 40
0.6785714285714284
 40
0.7142857142857141
 40
0.7142857142857141
 40
0.7142857142857141
 40
0.7142857142857141
 40
0.7499999999999998
 40
0.7499999999999998
 40
0.7499999999999998
 40
0.7499999999999998
 40
0.7857142857142855
 40
0.7857142857142855
 40
0.7857142857142855
 40
0.7857142857142855
 40
0.8214285714285712
 40
0.8214285714285712
 40
0.8214285714285712
 40
0.8214285714285712
 40
0.8571428571428569
 40
0.8571428571428569
 40
0.8571428571428569
 40
0.8571428571428569
 40
0.8928571428571426
 40
0.8928571428571426
 40
0.8928571428571426
 40
0.8928571428571426
 40
0.9285714285714283
 40
0.9285714285714283
 40
0.9285714285714283
 40
0.9285714285714283
 40
0.964285714285714
 40
0.964285714285714
 40
0.964285714285714
 40
0.964285714285714
 40
1.0
 40
1.0
 40
1.0
 40
1.0
 10
12.4165
 20
118.9485
 30
0.0
 10
12.4165
 20
118.9485
 30
0.0
 10
12.4165
 20
123.3385
 30
0.0
 10
12.4165
 20
123.3385
 30
0.0
 10
12.4165
 20
123.3385
 30
0.0
 10
12.4165
 20
123.3385
 30
0.0
 10
13.0811
 20
123.3385
 30
0.0
 10
13.0811
 20
123.3385
 30
0.0
 10
13.0811
 20
123.3385
 30
0.0
 10
13.0811
 20
123.3385
 30
0.0
 10
13.0811
 20
122.7232
 30
0.0
 10
13.0811
 20
122.7232
 30
0.0
 10
13.0811
 20
122.7232
 30
0.0
 10
13.2194
 20
122.9377
 30
0.0
 10
13.4029
 20
123.1113
 30
0.0
 10
13.6315
 20
123.2411
 30
0.0
 10
13.6315
 20
123.2411
 30
0.0
 10
13.8601
 20
123.3724
 30
0.0
 10
14.1211
 20
123.4387
 30
0.0
 10
14.4132
 20
123.4387
 30
0.0
 10
14.4132
 20
123.4387
 30
0.0
 10
14.7378
 20
123.4387
 30
0.0
 10
15.0045
 20
123.3709
 30
0.0
 10
15.2119
 20
123.2355
 30
0.0
 10
15.2119
 20
123.2355
 30
0.0
 10
15.4208
 20
123.1
 30
0.0
 10
15.5675
 20
122.9123
 30
0.0
 10
15.6522
 20
122.6696
 30
0.0
 10
15.6522
 20
122.6696
 30
0.0
 10
16.0007
 20
123.1819
 30
0.0
 10
16.4523
 20
123.4387
 30
0.0
 10
17.0083
 20
123.4387
 30
0.0
 10
17.0083
 20
123.4387
 30
0.0
 10
17.4443
 20
123.4387
 30
0.0
 10
17.7787
 20
123.3173
 30
0.0
 10
18.013
 20
123.076
 30
0.0
 10
18.013
 20
123.076
 30
0.0
 10
18.2472
 20
122.8347
 30
0.0
 10
18.3644
 20
122.4636
 30
0.0
 10
18.3644
 20
121.9626
 30
0.0
 10
18.3644
 20
121.9626
 30
0.0
 10
18.3644
 20
121.9626
 30
0.0
 10
18.3644
 20
118.9485
 30
0.0
 10
18.3644
 20
118.9485
 30
0.0
 10
18.3644
 20
118.9485
 30
0.0
 10
18.3644
 20
118.9485
 30
0.0
 10
17.6249
 20
118.9485
 30
0.0
 10
17.6249
 20
118.9485
 30
0.0
 10
17.6249
 20
118.9485
 30
0.0
 10
17.6249
 20
118.9485
 30
0.0
 10
17.6249
 20
121.7143
 30
0.0
 10
17.6249
 20
121.7143
 30
0.0
 10
17.6249
 20
121.7143
 30
0.0
 10
17.6249
 20
122.012
 30
0.0
 10
17.6009
 20
122.2265
 30
0.0
 10
17.553
 20
122.3578
 30
0.0
 10
17.553
 20
122.3578
 30
0.0
 10
17.5036
 20
122.4876
 30
0.0
 10
17.4161
 20
122.5934
 30
0.0
 10
17.2905
 20
122.6738
 30
0.0
 10
17.2905
 20
122.6738
 30
0.0
 10
17.1635
 20
122.7529
 30
0.0
 10
17.0139
 20
122.7938
 30
0.0
 10
16.8432
 20
122.7938
 30
0.0
 10
16.8432
 20
122.7938
 30
0.0
 10
16.5341
 20
122.7938
 30
0.0
 10
16.2787
 20
122.6908
 30
0.0
 10
16.0741
 20
122.4848
 30
0.0
 10
16.0741
 20
122.4848
 30
0.0
 10
15.8709
 20
122.2801
 30
0.0
 10
15.7679
 20
121.9514
 30
0.0
 10
15.7679
 20
121.4998
 30
0.0
 10
15.7679
 20
121.4998
 30
0.0
 10
15.7679
 20
121.4998
 30
0.0
 10
15.7679
 20
118.9485
 30
0.0
 10
15.7679
 20
118.9485
 30
0.0
 10
15.7679
 20
118.9485
 30
0.0
 10
15.7679
 20
118.9485
 30
0.0
 10
15.0242
 20
118.9485
 30
0.0
 10
15.0242
 20
118.9485
 30
0.0
 10
15.0242
 20
118.9485
 30
0.0
 10
15.0242
 20
118.9485
 30
0.0
 10
15.0242
 20
121.8004
 30
0.0
 10
15.0242
 20
121.8004
 30
0.0
 10
15.0242
 20
121.8004
 30
0.0
 10
15.0242
 20
122.132
 30
0.0
 10
14.9636
 20
122.3803
 30
0.0
 10
14.8422
 20
122.5454
 30
0.0
 10
14.8422
 20
122.5454
 30
0.0
 10
14.7209
 20
122.7105
 30
0.0
 10
14.5233
 20
122.7938
 30
0.0
 10
14.2467
 20
122.7938
 30
0.0
 10
14.2467
 20
122.7938
 30
0.0
 10
14.0379
 20
122.7938
 30
0.0
 10
13.8446
 20
122.7388
 30
0.0
 10
13.6668
 20
122.6273
 30
0.0
 10
13.6668
 20
122.6273
 30
0.0
 10
13.489
 20
122.5172
 30
0.0
 10
13.3591
 20
122.3563
 30
0.0
 10
13.2801
 20
122.1447
 30
0.0
 10
13.2801
 20
122.1447
 30
0.0
 10
13.1997
 20
121.9316
 30
0.0
 10
13.1602
 20
121.6254
 30
0.0
 10
13.1602
 20
121.226
 30
0.0
 10
13.1602
 20
121.226
 30
0.0
 10
13.1602
 20
121.226
 30
0.0
 10
13.1602
 20
118.9485
 30
0.0
 10
13.1602
 20
118.9485
 30
0.0
 10
13.1602
 20
118.9485
 30
0.0
 10
13.1602
 20
118.9485
 30
0.0
 10
12.4165
 20
118.9485
 30
0.0
 10
12.4165
 20
118.9485
 30
0.0
  0
SPLINE
  5
4C
330
1F
100
AcDbEntity
  8
52
 62
   250
100
AcDbSpline
210
0.0
220
0.0
230
1.0
 70
    11
 71
     3
 72
   116
 73
   112
 74
     0
 42
0.0000000001
 43
0.0000000001
 40
0.0
 40
0.0
 40
0.0
 40
0.0
 40
0.0357142857142857
 40
0.0357142857142857
 40
0.0357142857142857
 40
0.0357142857142857
 40
0.0714285714285714
 40
0.0714285714285714
 40
0.0714285714285714
 40
0.0714285714285714
 40
0.1071428571428571
 40
0.1071428571428571
 40
0.1071428571428571
 40
0.1071428571428571
 40
0.1428571428571429
 40
0.1428571428571429
 40
0.1428571428571429
 40
0.1428571428571429
 40
0.1785714285714286
 40
0.1785714285714286
 40
0.1785714285714286
 40
0.1785714285714286
 40
0.2142857142857143
 40
0.2142857142857143
 40
0.2142857142857143
 40
0.2142857142857143
 40
0.2499999999999999
 40
0.2499999999999999
 40
0.2499999999999999
 40
0.2499999999999999
 40
0.2857142857142856
 40
0.2857142857142856
 40
0.2857142857142856
 40
0.2857142857142856
 40
0.3214285714285713
 40
0.3214285714285713
 40
0.3214285714285713
 40
0.3214285714285713
 40
0.357142857142857
 40
0.357142857142857
 40
0.357142857142857
 40
0.357142857142857
 40
0.3928571428571427
 40
0.3928571428571427
 40
0.3928571428571427
 40
0.3928571428571427
 40
0.4285714285714284
 40
0.4285714285714284
 40
0.4285714285714284
 40
0.4285714285714284
 40
0.4642857142857141
 40
0.4642857142857141
 40
0.4642857142857141
 40
0.4642857142857141
 40
0.4999999999999998
 40
0.4999999999999998
 40
0.4999999999999998
 40
0.4999999999999998
 40
0.5357142857142856
 40
0.5357142857142856
 40
0.5357142857142856
 40
0.5357142857142856
 40
0.5714285714285713
 40
0.5714285714285713
 40
0.5714285714285713
 40
0.5714285714285713
 40
0.607142857142857
 40
0.607142857142857
 40
0.607142857142857
 40
0.607142857142857
 40
0.6428571428571427
 40
0.6428571428571427
 40
0.6428571428571427
 40
0.6428571428571427
 40
0.6785714285714284
 40
0.6785714285714284
 40
0.6785714285714284
 40
0.6785714285714284
 40
0.7142857142857141
 40
0.7142857142857141
 40
0.7142857142857141
 40
0.7142857142857141
 40
0.7499999999999998
 40
0.7499999999999998
 40
0.7499999999999998
 40
0.7499999999999998
 40
0.7857142857142855
 40
0.7857142857142855
 40
0.7857142857142855
 40
0.7857142857142855
 40
0.8214285714285712
 40
0.8214285714285712
 40
0.8214285714285712
 40
0.8214285714285712
 40
0.8571428571428569
 40
0.8571428571428569
 40
0.8571428571428569
 40
0.8571428571428569
 40
0.8928571428571426
 40
0.8928571428571426
 40
0.8928571428571426
 40
0.8928571428571426
 40
0.9285714285714283
 40
0.9285714285714283
 40
0.9285714285714283
 40
0.9285714285714283
 40
0.964285714285714
 40
0.964285714285714
 40
0.964285714285714
 40
0.964285714285714
 40
1.0
 40
1.0
 40
1.0
 40
1.0
 10
19.4693
 20
118.9485
 30
0.0
 10
19.4693
 20
118.9485
 30
0.0
 10
19.4693
 20
123.3385
 30
0.0
 10
19.4693
 20
123.3385
 30
0.0
 10
19.4693
 20
123.3385
 30
0.0
 10
19.4693
 20
123.3385
 30
0.0
 10
20.1339
 20
123.3385
 30
0.0
 10
20.1339
 20
123.3385
 30
0.0
 10
20.1339
 20
123.3385
 30
0.0
 10
20.1339
 20
123.3385
 30
0.0
 10
20.1339
 20
122.7232
 30
0.0
 10
20.1339
 20
122.7232
 30
0.0
 10
20.1339
 20
122.7232
 30
0.0
 10
20.2722
 20
122.9377
 30
0.0
 10
20.4557
 20
123.1113
 30
0.0
 10
20.6843
 20
123.2411
 30
0.0
 10
20.6843
 20
123.2411
 30
0.0
 10
20.9129
 20
123.3724
 30
0.0
 10
21.1739
 20
123.4387
 30
0.0
 10
21.466
 20
123.4387
 30
0.0
 10
21.466
 20
123.4387
 30
0.0
 10
21.7906
 20
123.4387
 30
0.0
 10
22.0573
 20
123.3709
 30
0.0
 10
22.2647
 20
123.2355
 30
0.0
 10
22.2647
 20
123.2355
 30
0.0
 10
22.4736
 20
123.1
 30
0.0
 10
22.6203
 20
122.9123
 30
0.0
 10
22.705
 20
122.6696
 30
0.0
 10
22.705
 20
122.6696
 30
0.0
 10
23.0535
 20
123.1819
 30
0.0
 10
23.5051
 20
123.4387
 30
0.0
 10
24.0611
 20
123.4387
 30
0.0
 10
24.0611
 20
123.4387
 30
0.0
 10
24.4971
 20
123.4387
 30
0.0
 10
24.8315
 20
123.3173
 30
0.0
 10
25.0658
 20
123.076
 30
0.0
 10
25.0658
 20
123.076
 30
0.0
 10
25.3
 20
122.8347
 30
0.0
 10
25.4172
 20
122.4636
 30
0.0
 10
25.4172
 20
121.9626
 30
0.0
 10
25.4172
 20
121.9626
 30
0.0
 10
25.4172
 20
121.9626
 30
0.0
 10
25.4172
 20
118.9485
 30
0.0
 10
25.4172
 20
118.9485
 30
0.0
 10
25.4172
 20
118.9485
 30
0.0
 10
25.4172
 20
118.9485
 30
0.0
 10
24.6777
 20
118.9485
 30
0.0
 10
24.6777
 20
118.9485
 30
0.0
 10
24.6777
 20
118.9485
 30
0.0
 10
24.6777
 20
118.9485
 30
0.0
 10
24.6777
 20
121.7143
 30
0.0
 10
24.6777
 20
121.7143
 30
0.0
 10
24.6777
 20
121.7143
 30
0.0
 10
24.6777
 20
122.012
 30
0.0
 10
24.6537
 20
122.2265
 30
0.0
 10
24.6058
 20
122.3578
 30
0.0
 10
24.6058
 20
122.3578
 30
0.0
 10
24.5564
 20
122.4876
 30
0.0
 10
24.4689
 20
122.5934
 30
0.0
 10
24.3433
 20
122.6738
 30
0.0
 10
24.3433
 20
122.6738
 30
0.0
 10
24.2163
 20
122.7529
 30
0.0
 10
24.0667
 20
122.7938
 30
0.0
 10
23.896
 20
122.7938
 30
0.0
 10
23.896
 20
122.7938
 30
0.0
 10
23.5869
 20
122.7938
 30
0.0
 10
23.3315
 20
122.6908
 30
0.0
 10
23.1269
 20
122.4848
 30
0.0
 10
23.1269
 20
122.4848
 30
0.0
 10
22.9237
 20
122.2801
 30
0.0
 10
22.8207
 20
121.9514
 30
0.0
 10
22.8207
 20
121.4998
 30
0.0
 10
22.8207
 20
121.4998
 30
0.0
 10
22.8207
 20
121.4998
 30
0.0
 10
22.8207
 20
118.9485
 30
0.0
 10
22.8207
 20
118.9485
 30
0.0
 10
22.8207
 20
118.9485
 30
0.0
 10
22.8207
 20
118.9485
 30
0.0
 10
22.077
 20
118.9485
 30
0.0
 10
22.077
 20
118.9485
 30
0.0
 10
22.077
 20
118.9485
 30
0.0
 10
22.077
 20
118.9485
 30
0.0
 10
22.077
 20
121.8004
 30
0.0
 10
22.077
 20
121.8004
 30
0.0
 10
22.077
 20
121.8004
 30
0.0
 10
22.077
 20
122.132
 30
0.0
 10
22.0164
 20
122.3803
 30
0.0
 10
21.895
 20
122.5454
 30
0.0
 10
21.895
 20
122.5454
 30
0.0
 10
21.7737
 20
122.7105
 30
0.0
 10
21.5761
 20
122.7938
 30
0.0
 10
21.2995
 20
122.7938
 30
0.0
 10
21.2995
 20
122.7938
 30
0.0
 10
21.0907
 20
122.7938
 30
0.0
 10
20.8974
 20
122.7388
 30
0.0
 10
20.7196
 20
122.6273
 30
0.0
 10
20.7196
 20
122.6273
 30
0.0
 10
20.5418
 20
122.5172
 30
0.0
 10
20.4119
 20
122.3563
 30
0.0
 10
20.3329
 20
122.1447
 30
0.0
 10
20.3329
 20
122.1447
 30
0.0
 10
20.2525
 20
121.9316
 30
0.0
 10
20.213
 20
121.6254
 30
0.0
 10
20.213
 20
121.226
 30
0.0
 10
20.213
 20
121.226
 30
0.0
 10
20.213
 20
121.226
 30
0.0
 10
20.213
 20
118.9485
 30
0.0
 10
20.213
 20
118.9485
 30
0.0
 10
20.213
 20
118.9485
 30
0.0
 10
20.213
 20
118.9485
 30
0.0
 10
19.4693
 20
118.9485
 30
0.0
 10
19.4693
 20
118.9485
 30
0.0
  0
SPLINE
  5
4D
330
1F
100
AcDbEntity
  8
52
 62
   250
370
     5
100
AcDbSpline
210
0.0
220
0.0
230
1.0
 70
    24
 71
     3
 72
     8
 73
     4
 74
     0
 42
0.0000000001
 43
0.0000000001
 40
0.0
 40
0.0
 40
0.0
 40
0.0
 40
1.0
 40
1.0
 40
1.0
 40
1.0
 10
-132.6324
 20
83.73780000000001
 30
0.0
 10
-132.6324
 20
83.73780000000001
 30
0.0
 10
-132.6324
 20
106.436
 30
0.0
 10
-132.6324
 20
106.436
 30
0.0
  0
SPLINE
  5
4E
330
1F
100
AcDbEntity
  8
52
 62
   250
370
     5
100
AcDbSpline
210
0.0
220
0.0
230
1.0
 70
    24
 71
     3
 72
     8
 73
     4
 74
     0
 42
0.0000000001
 43
0.0000000001
 40
0.0
 40
0.0
 40
0.0
 40
0.0
 40
1.0
 40
1.0
 40
1.0
 40
1.0
 10
-2.6326
 20
83.73780000000001
 30
0.0
 10
-2.6326
 20
83.73780000000001
 30
0.0
 10
-2.6326
 20
106.436
 30
0.0
 10
-2.6326
 20
106.436
 30
0.0
  0
SPLINE
  5
4F
330
1F
100
AcDbEntity
  8
52
 62
   250
370
     5
100
AcDbSpline
210
0.0
220
0.0
230
1.0
 70
    24
 71
     3
 72
     8
 73
     4
 74
     0
 42
0.0000000001
 43
0.0000000001
 40
0.0
 40
0.0
 40
0.0
 40
0.0
 40
1.0
 40
1.0
 40
1.0
 40
1.0
 10
-132.6324
 20
101.356
 30
0.0
 10
-132.6324
 20
101.356
 30
0.0
 10
-76.8232
 20
101.356
 30
0.0
 10
-76.8232
 20
101.356
 30
0.0
  0
SPLINE
  5
50
330
1F
100
AcDbEntity
  8
52
 62
   250
370
     5
100
AcDbSpline
210
0.0
220
0.0
230
1.0
 70
    24
 71
     3
 72
     8
 73
     4
 74
     0
 42
0.0000000001
 43
0.0000000001
 40
0.0
 40
0.0
 40
0.0
 40
0.0
 40
1.0
 40
1.0
 40
1.0
 40
1.0
 10
-22.3146
 20
101.356
 30
0.0
 10
-22.3146
 20
101.356
 30
0.0
 10
-2.6326
 20
101.356
 30
0.0
 10
-2.6326
 20
101.356
 30
0.0
  0
SPLINE
  5
51
330
1F
100
AcDbEntity
  8
52
 62
   250
100
AcDbSpline
210
0.0
220
0.0
230
1.0
 70
    11
 71
     3
 72
    40
 73
    36
 74
     0
 42
0.0000000001
 43
0.0000000001
 40
0.0
 40
0.0
 40
0.0
 40
0.0
 40
0.1111111111111111
 40
0.1111111111111111
 40
0.1111111111111111
 40
0.1111111111111111
 40
0.2222222222222222
 40
0.2222222222222222
 40
0.2222222222222222
 40
0.2222222222222222
 40
0.3333333333333333
 40
0.3333333333333333
 40
0.3333333333333333
 40
0.3333333333333333
 40
0.4444444444444444
 40
0.4444444444444444
 40
0.4444444444444444
 40
0.4444444444444444
 40
0.5555555555555556
 40
0.5555555555555556
 40
0.5555555555555556
 40
0.5555555555555556
 40
0.6666666666666667
 40
0.6666666666666667
 40
0.6666666666666667
 40
0.6666666666666667
 40
0.7777777777777779
 40
0.7777777777777779
 40
0.7777777777777779
 40
0.7777777777777779
 40
0.8888888888888891
 40
0.8888888888888891
 40
0.8888888888888891
 40
0.8888888888888891
 40
1.0
 40
1.0
 40
1.0
 40
1.0
 10
-67.3194
 20
98.36660000000001
 30
0.0
 10
-67.3194
 20
98.36660000000001
 30
0.0
 10
-68.063
 20
98.36660000000001
 30
0.0
 10
-68.063
 20
98.36660000000001
 30
0.0
 10
-68.063
 20
98.36660000000001
 30
0.0
 10
-68.063
 20
98.36660000000001
 30
0.0
 10
-68.063
 20
103.108
 30
0.0
 10
-68.063
 20
103.108
 30
0.0
 10
-68.063
 20
103.108
 30
0.0
 10
-68.2422
 20
102.9372
 30
0.0
 10
-68.4765
 20
102.7665
 30
0.0
 10
-68.7672
 20
102.5957
 30
0.0
 10
-68.7672
 20
102.5957
 30
0.0
 10
-69.05930000000001
 20
102.425
 30
0.0
 10
-69.3203
 20
102.2966
 30
0.0
 10
-69.5517
 20
102.2119
 30
0.0
 10
-69.5517
 20
102.2119
 30
0.0
 10
-69.5517
 20
102.2119
 30
0.0
 10
-69.5517
 20
102.9302
 30
0.0
 10
-69.5517
 20
102.9302
 30
0.0
 10
-69.5517
 20
102.9302
 30
0.0
 10
-69.13550000000001
 20
103.1263
 30
0.0
 10
-68.7714
 20
103.3634
 30
0.0
 10
-68.45950000000001
 20
103.6414
 30
0.0
 10
-68.45950000000001
 20
103.6414
 30
0.0
 10
-68.1491
 20
103.9208
 30
0.0
 10
-67.92750000000001
 20
104.1903
 30
0.0
 10
-67.79770000000001
 20
104.4527
 30
0.0
 10
-67.79770000000001
 20
104.4527
 30
0.0
 10
-67.79770000000001
 20
104.4527
 30
0.0
 10
-67.3194
 20
104.4527
 30
0.0
 10
-67.3194
 20
104.4527
 30
0.0
 10
-67.3194
 20
104.4527
 30
0.0
 10
-67.3194
 20
104.4527
 30
0.0
 10
-67.3194
 20
98.36660000000001
 30
0.0
 10
-67.3194
 20
98.36660000000001
 30
0.0
  0
SPLINE
  5
52
330
1F
100
AcDbEntity
  8
52
 62
   250
100
AcDbSpline
210
0.0
220
0.0
230
1.0
 70
    11
 71
     3
 72
   124
 73
   120
 74
     0
 42
0.0000000001
 43
0.0000000001
 40
0.0
 40
0.0
 40
0.0
 40
0.0
 40
0.0333333333333333
 40
0.0333333333333333
 40
0.0333333333333333
 40
0.0333333333333333
 40
0.0666666666666667
 40
0.0666666666666667
 40
0.0666666666666667
 40
0.0666666666666667
 40
0.1
 40
0.1
 40
0.1
 40
0.1
 40
0.1333333333333333
 40
0.1333333333333333
 40
0.1333333333333333
 40
0.1333333333333333
 40
0.1666666666666667
 40
0.1666666666666667
 40
0.1666666666666667
 40
0.1666666666666667
 40
0.2
 40
0.2
 40
0.2
 40
0.2
 40
0.2333333333333333
 40
0.2333333333333333
 40
0.2333333333333333
 40
0.2333333333333333
 40
0.2666666666666667
 40
0.2666666666666667
 40
0.2666666666666667
 40
0.2666666666666667
 40
0.3
 40
0.3
 40
0.3
 40
0.3
 40
0.3333333333333333
 40
0.3333333333333333
 40
0.3333333333333333
 40
0.3333333333333333
 40
0.3666666666666666
 40
0.3666666666666666
 40
0.3666666666666666
 40
0.3666666666666666
 40
0.4
 40
0.4
 40
0.4
 40
0.4
 40
0.4333333333333333
 40
0.4333333333333333
 40
0.4333333333333333
 40
0.4333333333333333
 40
0.4666666666666666
 40
0.4666666666666666
 40
0.4666666666666666
 40
0.4666666666666666
 40
0.4999999999999999
 40
0.4999999999999999
 40
0.4999999999999999
 40
0.4999999999999999
 40
0.5333333333333333
 40
0.5333333333333333
 40
0.5333333333333333
 40
0.5333333333333333
 40
0.5666666666666667
 40
0.5666666666666667
 40
0.5666666666666667
 40
0.5666666666666667
 40
0.6
 40
0.6
 40
0.6
 40
0.6
 40
0.6333333333333333
 40
0.6333333333333333
 40
0.6333333333333333
 40
0.6333333333333333
 40
0.6666666666666666
 40
0.6666666666666666
 40
0.6666666666666666
 40
0.6666666666666666
 40
0.7
 40
0.7
 40
0.7
 40
0.7
 40
0.7333333333333333
 40
0.7333333333333333
 40
0.7333333333333333
 40
0.7333333333333333
 40
0.7666666666666666
 40
0.7666666666666666
 40
0.7666666666666666
 40
0.7666666666666666
 40
0.7999999999999999
 40
0.7999999999999999
 40
0.7999999999999999
 40
0.7999999999999999
 40
0.8333333333333333
 40
0.8333333333333333
 40
0.8333333333333333
 40
0.8333333333333333
 40
0.8666666666666666
 40
0.8666666666666666
 40
0.8666666666666666
 40
0.8666666666666666
 40
0.8999999999999999
 40
0.8999999999999999
 40
0.8999999999999999
 40
0.8999999999999999
 40
0.9333333333333332
 40
0.9333333333333332
 40
0.9333333333333332
 40
0.9333333333333332
 40
0.9666666666666666
 40
0.9666666666666666
 40
0.9666666666666666
 40
0.9666666666666666
 40
1.0
 40
1.0
 40
1.0
 40
1.0
 10
-65.4087
 20
99.96680000000001
 30
0.0
 10
-65.4087
 20
99.96680000000001
 30
0.0
 10
-64.66500000000001
 20
100.0656
 30
0.0
 10
-64.66500000000001
 20
100.0656
 30
0.0
 10
-64.66500000000001
 20
100.0656
 30
0.0
 10
-64.57900000000001
 20
99.64370000000001
 30
0.0
 10
-64.4336
 20
99.3403
 30
0.0
 10
-64.229
 20
99.15400000000001
 30
0.0
 10
-64.229
 20
99.15400000000001
 30
0.0
 10
-64.023
 20
98.96770000000001
 30
0.0
 10
-63.7732
 20
98.8746
 30
0.0
 10
-63.4783
 20
98.8746
 30
0.0
 10
-63.4783
 20
98.8746
 30
0.0
 10
-63.1283
 20
98.8746
 30
0.0
 10
-62.832
 20
98.99600000000001
 30
0.0
 10
-62.59070000000001
 20
99.23870000000001
 30
0.0
 10
-62.59070000000001
 20
99.23870000000001
 30
0.0
 10
-62.3508
 20
99.48140000000001
 30
0.0
 10
-62.2295
 20
99.78200000000001
 30
0.0
 10
-62.2295
 20
100.1404
 30
0.0
 10
-62.2295
 20
100.1404
 30
0.0
 10
-62.2295
 20
100.4819
 30
0.0
 10
-62.34090000000001
 20
100.7641
 30
0.0
 10
-62.5639
 20
100.9856
 30
0.0
 10
-62.5639
 20
100.9856
 30
0.0
 10
-62.7883
 20
101.2072
 30
0.0
 10
-63.07190000000001
 20
101.3187
 30
0.0
 10
-63.4162
 20
101.3187
 30
0.0
 10
-63.4162
 20
101.3187
 30
0.0
 10
-63.55730000000001
 20
101.3187
 30
0.0
 10
-63.7323
 20
101.2904
 30
0.0
 10
-63.94110000000001
 20
101.2354
 30
0.0
 10
-63.94110000000001
 20
101.2354
 30
0.0
 10
-63.94110000000001
 20
101.2354
 30
0.0
 10
-63.8579
 20
101.8887
 30
0.0
 10
-63.8579
 20
101.8887
 30
0.0
 10
-63.8579
 20
101.8887
 30
0.0
 10
-63.8085
 20
101.8831
 30
0.0
 10
-63.76900000000001
 20
101.8803
 30
0.0
 10
-63.7379
 20
101.8803
 30
0.0
 10
-63.7379
 20
101.8803
 30
0.0
 10
-63.42180000000001
 20
101.8803
 30
0.0
 10
-63.1368
 20
101.9635
 30
0.0
 10
-62.8828
 20
102.1286
 30
0.0
 10
-62.8828
 20
102.1286
 30
0.0
 10
-62.62880000000001
 20
102.2937
 30
0.0
 10
-62.5018
 20
102.5491
 30
0.0
 10
-62.5018
 20
102.8935
 30
0.0
 10
-62.5018
 20
102.8935
 30
0.0
 10
-62.5018
 20
103.1658
 30
0.0
 10
-62.5949
 20
103.393
 30
0.0
 10
-62.7798
 20
103.5708
 30
0.0
 10
-62.7798
 20
103.5708
 30
0.0
 10
-62.9646
 20
103.75
 30
0.0
 10
-63.20310000000001
 20
103.8403
 30
0.0
 10
-63.4952
 20
103.8403
 30
0.0
 10
-63.4952
 20
103.8403
 30
0.0
 10
-63.7845
 20
103.8403
 30
0.0
 10
-64.0258
 20
103.7486
 30
0.0
 10
-64.21770000000001
 20
103.568
 30
0.0
 10
-64.21770000000001
 20
103.568
 30
0.0
 10
-64.411
 20
103.3859
 30
0.0
 10
-64.5352
 20
103.1122
 30
0.0
 10
-64.5903
 20
102.7481
 30
0.0
 10
-64.5903
 20
102.7481
 30
0.0
 10
-64.5903
 20
102.7481
 30
0.0
 10
-65.3339
 20
102.8808
 30
0.0
 10
-65.3339
 20
102.8808
 30
0.0
 10
-65.3339
 20
102.8808
 30
0.0
 10
-65.2436
 20
103.3803
 30
0.0
 10
-65.03620000000001
 20
103.7669
 30
0.0
 10
-64.7144
 20
104.0407
 30
0.0
 10
-64.7144
 20
104.0407
 30
0.0
 10
-64.3913
 20
104.3145
 30
0.0
 10
-63.9905
 20
104.4527
 30
0.0
 10
-63.5107
 20
104.4527
 30
0.0
 10
-63.5107
 20
104.4527
 30
0.0
 10
-63.1805
 20
104.4527
 30
0.0
 10
-62.8757
 20
104.3808
 30
0.0
 10
-62.59780000000001
 20
104.2397
 30
0.0
 10
-62.59780000000001
 20
104.2397
 30
0.0
 10
-62.3198
 20
104.0971
 30
0.0
 10
-62.1067
 20
103.9038
 30
0.0
 10
-61.9585
 20
103.6583
 30
0.0
 10
-61.9585
 20
103.6583
 30
0.0
 10
-61.81180000000001
 20
103.4128
 30
0.0
 10
-61.737
 20
103.1531
 30
0.0
 10
-61.737
 20
102.8765
 30
0.0
 10
-61.737
 20
102.8765
 30
0.0
 10
-61.737
 20
102.6155
 30
0.0
 10
-61.80750000000001
 20
102.377
 30
0.0
 10
-61.94860000000001
 20
102.1611
 30
0.0
 10
-61.94860000000001
 20
102.1611
 30
0.0
 10
-62.0898
 20
101.9466
 30
0.0
 10
-62.2972
 20
101.7759
 30
0.0
 10
-62.5724
 20
101.6489
 30
0.0
 10
-62.5724
 20
101.6489
 30
0.0
 10
-62.2139
 20
101.567
 30
0.0
 10
-61.9359
 20
101.3949
 30
0.0
 10
-61.737
 20
101.1338
 30
0.0
 10
-61.737
 20
101.1338
 30
0.0
 10
-61.5394
 20
100.8742
 30
0.0
 10
-61.4406
 20
100.5482
 30
0.0
 10
-61.4406
 20
100.1573
 30
0.0
 10
-61.4406
 20
100.1573
 30
0.0
 10
-61.4406
 20
99.6281
 30
0.0
 10
-61.6326
 20
99.1794
 30
0.0
 10
-62.01920000000001
 20
98.81110000000001
 30
0.0
 10
-62.01920000000001
 20
98.81110000000001
 30
0.0
 10
-62.4044
 20
98.44280000000001
 30
0.0
 10
-62.89270000000001
 20
98.2594
 30
0.0
 10
-63.4825
 20
98.2594
 30
0.0
 10
-63.4825
 20
98.2594
 30
0.0
 10
-64.0145
 20
98.2594
 30
0.0
 10
-64.45620000000001
 20
98.4174
 30
0.0
 10
-64.80760000000001
 20
98.73490000000001
 30
0.0
 10
-64.80760000000001
 20
98.73490000000001
 30
0.0
 10
-65.1589
 20
99.051
 30
0.0
 10
-65.35930000000001
 20
99.4616
 30
0.0
 10
-65.4087
 20
99.96680000000001
 30
0.0
  0
SPLINE
  5
53
330
1F
100
AcDbEntity
  8
52
 62
   250
100
AcDbSpline
210
0.0
220
0.0
230
1.0
 70
    11
 71
     3
 72
    52
 73
    48
 74
     0
 42
0.0000000001
 43
0.0000000001
 40
0.0
 40
0.0
 40
0.0
 40
0.0
 40
0.0833333333333333
 40
0.0833333333333333
 40
0.0833333333333333
 40
0.0833333333333333
 40
0.1666666666666667
 40
0.1666666666666667
 40
0.1666666666666667
 40
0.1666666666666667
 40
0.25
 40
0.25
 40
0.25
 40
0.25
 40
0.3333333333333333
 40
0.3333333333333333
 40
0.3333333333333333
 40
0.3333333333333333
 40
0.4166666666666666
 40
0.4166666666666666
 40
0.4166666666666666
 40
0.4166666666666666
 40
0.4999999999999999
 40
0.4999999999999999
 40
0.4999999999999999
 40
0.4999999999999999
 40
0.5833333333333333
 40
0.5833333333333333
 40
0.5833333333333333
 40
0.5833333333333333
 40
0.6666666666666666
 40
0.6666666666666666
 40
0.6666666666666666
 40
0.6666666666666666
 40
0.75
 40
0.75
 40
0.75
 40
0.75
 40
0.8333333333333334
 40
0.8333333333333334
 40
0.8333333333333334
 40
0.8333333333333334
 40
0.9166666666666667
 40
0.9166666666666667
 40
0.9166666666666667
 40
0.9166666666666667
 40
1.0
 40
1.0
 40
1.0
 40
1.0
 10
-60.704
 20
101.3553
 30
0.0
 10
-60.704
 20
102.0722
 30
0.0
 10
-60.6307
 20
102.6493
 30
0.0
 10
-60.4825
 20
103.0854
 30
0.0
 10
-60.4825
 20
103.0854
 30
0.0
 10
-60.3357
 20
103.5228
 30
0.0
 10
-60.1156
 20
103.8601
 30
0.0
 10
-59.8249
 20
104.0971
 30
0.0
 10
-59.8249
 20
104.0971
 30
0.0
 10
-59.53420000000001
 20
104.3342
 30
0.0
 10
-59.1687
 20
104.4527
 30
0.0
 10
-58.7285
 20
104.4527
 30
0.0
 10
-58.7285
 20
104.4527
 30
0.0
 10
-58.4025
 20
104.4527
 30
0.0
 10
-58.1175
 20
104.3864
 30
0.0
 10
-57.8719
 20
104.2552
 30
0.0
 10
-57.8719
 20
104.2552
 30
0.0
 10
-57.6264
 20
104.1254
 30
0.0
 10
-57.42460000000001
 20
103.9363
 30
0.0
 10
-57.2637
 20
103.6893
 30
0.0
 10
-57.2637
 20
103.6893
 30
0.0
 10
-57.1043
 20
103.4424
 30
0.0
 10
-56.9787
 20
103.1418
 30
0.0
 10
-56.8884
 20
102.7876
 30
0.0
 10
-56.8884
 20
102.7876
 30
0.0
 10
-56.79660000000001
 20
102.4334
 30
0.0
 10
-56.7515
 20
101.9565
 30
0.0
 10
-56.7515
 20
101.3553
 30
0.0
 10
-56.7515
 20
101.3553
 30
0.0
 10
-56.7515
 20
100.6441
 30
0.0
 10
-56.8249
 20
100.0712
 30
0.0
 10
-56.97020000000001
 20
99.63380000000001
 30
0.0
 10
-56.97020000000001
 20
99.63380000000001
 30
0.0
 10
-57.117
 20
99.19630000000001
 30
0.0
 10
-57.3357
 20
98.8591
 30
0.0
 10
-57.6264
 20
98.62060000000001
 30
0.0
 10
-57.6264
 20
98.62060000000001
 30
0.0
 10
-57.91710000000001
 20
98.38210000000001
 30
0.0
 10
-58.28400000000001
 20
98.26360000000001
 30
0.0
 10
-58.7285
 20
98.26360000000001
 30
0.0
 10
-58.7285
 20
98.26360000000001
 30
0.0
 10
-59.3127
 20
98.26360000000001
 30
0.0
 10
-59.7713
 20
98.47240000000001
 30
0.0
 10
-60.1043
 20
98.89150000000001
 30
0.0
 10
-60.1043
 20
98.89150000000001
 30
0.0
 10
-60.5037
 20
99.39530000000001
 30
0.0
 10
-60.704
 20
100.218
 30
0.0
 10
-60.704
 20
101.3553
 30
0.0
  0
SPLINE
  5
54
330
1F
100
AcDbEntity
  8
52
 62
   250
100
AcDbSpline
210
0.0
220
0.0
230
1.0
 70
    11
 71
     3
 72
    36
 73
    32
 74
     0
 42
0.0000000001
 43
0.0000000001
 40
0.0
 40
0.0
 40
0.0
 40
0.0
 40
0.125
 40
0.125
 40
0.125
 40
0.125
 40
0.25
 40
0.25
 40
0.25
 40
0.25
 40
0.375
 40
0.375
 40
0.375
 40
0.375
 40
0.5
 40
0.5
 40
0.5
 40
0.5
 40
0.625
 40
0.625
 40
0.625
 40
0.625
 40
0.75
 40
0.75
 40
0.75
 40
0.75
 40
0.875
 40
0.875
 40
0.875
 40
0.875
 40
1.0
 40
1.0
 40
1.0
 40
1.0
 10
-59.9392
 20
101.3553
 30
0.0
 10
-59.9392
 20
100.3605
 30
0.0
 10
-59.82210000000001
 20
99.6987
 30
0.0
 10
-59.58920000000001
 20
99.36850000000001
 30
0.0
 10
-59.58920000000001
 20
99.36850000000001
 30
0.0
 10
-59.3564
 20
99.03970000000001
 30
0.0
 10
-59.07
 20
98.8746
 30
0.0
 10
-58.7285
 20
98.8746
 30
0.0
 10
-58.7285
 20
98.8746
 30
0.0
 10
-58.3856
 20
98.8746
 30
0.0
 10
-58.0991
 20
99.0411
 30
0.0
 10
-57.8663
 20
99.37130000000001
 30
0.0
 10
-57.8663
 20
99.37130000000001
 30
0.0
 10
-57.6334
 20
99.70150000000001
 30
0.0
 10
-57.5163
 20
100.3633
 30
0.0
 10
-57.5163
 20
101.3553
 30
0.0
 10
-57.5163
 20
101.3553
 30
0.0
 10
-57.5163
 20
102.353
 30
0.0
 10
-57.6334
 20
103.0162
 30
0.0
 10
-57.8663
 20
103.3436
 30
0.0
 10
-57.8663
 20
103.3436
 30
0.0
 10
-58.0991
 20
103.6724
 30
0.0
 10
-58.3884
 20
103.8361
 30
0.0
 10
-58.7355
 20
103.8361
 30
0.0
 10
-58.7355
 20
103.8361
 30
0.0
 10
-59.0784
 20
103.8361
 30
0.0
 10
-59.3508
 20
103.6907
 30
0.0
 10
-59.55540000000001
 20
103.4015
 30
0.0
 10
-59.55540000000001
 20
103.4015
 30
0.0
 10
-59.8108
 20
103.0332
 30
0.0
 10
-59.9392
 20
102.3502
 30
0.0
 10
-59.9392
 20
101.3553
 30
0.0
  0
SPLINE
  5
55
330
1F
100
AcDbEntity
  8
52
 62
   250
100
AcDbSpline
210
0.0
220
0.0
230
1.0
 70
    11
 71
     3
 72
    20
 73
    16
 74
     0
 42
0.0000000001
 43
0.0000000001
 40
0.0
 40
0.0
 40
0.0
 40
0.0
 40
0.25
 40
0.25
 40
0.25
 40
0.25
 40
0.5
 40
0.5
 40
0.5
 40
0.5
 40
0.75
 40
0.75
 40
0.75
 40
0.75
 40
1.0
 40
1.0
 40
1.0
 40
1.0
 10
-55.5774
 20
98.36660000000001
 30
0.0
 10
-55.5774
 20
98.36660000000001
 30
0.0
 10
-55.5774
 20
99.21470000000001
 30
0.0
 10
-55.5774
 20
99.21470000000001
 30
0.0
 10
-55.5774
 20
99.21470000000001
 30
0.0
 10
-55.5774
 20
99.21470000000001
 30
0.0
 10
-54.72940000000001
 20
99.21470000000001
 30
0.0
 10
-54.72940000000001
 20
99.21470000000001
 30
0.0
 10
-54.72940000000001
 20
99.21470000000001
 30
0.0
 10
-54.72940000000001
 20
99.21470000000001
 30
0.0
 10
-54.72940000000001
 20
98.36660000000001
 30
0.0
 10
-54.72940000000001
 20
98.36660000000001
 30
0.0
 10
-54.72940000000001
 20
98.36660000000001
 30
0.0
 10
-54.72940000000001
 20
98.36660000000001
 30
0.0
 10
-55.5774
 20
98.36660000000001
 30
0.0
 10
-55.5774
 20
98.36660000000001
 30
0.0
  0
SPLINE
  5
56
330
1F
100
AcDbEntity
  8
52
 62
   250
100
AcDbSpline
210
0.0
220
0.0
230
1.0
 70
    11
 71
     3
 72
    52
 73
    48
 74
     0
 42
0.0000000001
 43
0.0000000001
 40
0.0
 40
0.0
 40
0.0
 40
0.0
 40
0.0833333333333333
 40
0.0833333333333333
 40
0.0833333333333333
 40
0.0833333333333333
 40
0.1666666666666667
 40
0.1666666666666667
 40
0.1666666666666667
 40
0.1666666666666667
 40
0.25
 40
0.25
 40
0.25
 40
0.25
 40
0.3333333333333333
 40
0.3333333333333333
 40
0.3333333333333333
 40
0.3333333333333333
 40
0.4166666666666666
 40
0.4166666666666666
 40
0.4166666666666666
 40
0.4166666666666666
 40
0.4999999999999999
 40
0.4999999999999999
 40
0.4999999999999999
 40
0.4999999999999999
 40
0.5833333333333333
 40
0.5833333333333333
 40
0.5833333333333333
 40
0.5833333333333333
 40
0.6666666666666666
 40
0.6666666666666666
 40
0.6666666666666666
 40
0.6666666666666666
 40
0.75
 40
0.75
 40
0.75
 40
0.75
 40
0.8333333333333334
 40
0.8333333333333334
 40
0.8333333333333334
 40
0.8333333333333334
 40
0.9166666666666667
 40
0.9166666666666667
 40
0.9166666666666667
 40
0.9166666666666667
 40
1.0
 40
1.0
 40
1.0
 40
1.0
 10
-53.6428
 20
101.3553
 30
0.0
 10
-53.6428
 20
102.0722
 30
0.0
 10
-53.56950000000001
 20
102.6493
 30
0.0
 10
-53.4213
 20
103.0854
 30
0.0
 10
-53.4213
 20
103.0854
 30
0.0
 10
-53.2745
 20
103.5228
 30
0.0
 10
-53.0544
 20
103.8601
 30
0.0
 10
-52.7637
 20
104.0971
 30
0.0
 10
-52.7637
 20
104.0971
 30
0.0
 10
-52.473
 20
104.3342
 30
0.0
 10
-52.1075
 20
104.4527
 30
0.0
 10
-51.6673
 20
104.4527
 30
0.0
 10
-51.6673
 20
104.4527
 30
0.0
 10
-51.3413
 20
104.4527
 30
0.0
 10
-51.0563
 20
104.3864
 30
0.0
 10
-50.8107
 20
104.2552
 30
0.0
 10
-50.8107
 20
104.2552
 30
0.0
 10
-50.5652
 20
104.1254
 30
0.0
 10
-50.36340000000001
 20
103.9363
 30
0.0
 10
-50.2025
 20
103.6893
 30
0.0
 10
-50.2025
 20
103.6893
 30
0.0
 10
-50.0431
 20
103.4424
 30
0.0
 10
-49.9175
 20
103.1418
 30
0.0
 10
-49.82720000000001
 20
102.7876
 30
0.0
 10
-49.82720000000001
 20
102.7876
 30
0.0
 10
-49.73540000000001
 20
102.4334
 30
0.0
 10
-49.6903
 20
101.9565
 30
0.0
 10
-49.6903
 20
101.3553
 30
0.0
 10
-49.6903
 20
101.3553
 30
0.0
 10
-49.6903
 20
100.6441
 30
0.0
 10
-49.7637
 20
100.0712
 30
0.0
 10
-49.909
 20
99.63380000000001
 30
0.0
 10
-49.909
 20
99.63380000000001
 30
0.0
 10
-50.05580000000001
 20
99.19630000000001
 30
0.0
 10
-50.2745
 20
98.8591
 30
0.0
 10
-50.5652
 20
98.62060000000001
 30
0.0
 10
-50.5652
 20
98.62060000000001
 30
0.0
 10
-50.85590000000001
 20
98.38210000000001
 30
0.0
 10
-51.2228
 20
98.26360000000001
 30
0.0
 10
-51.6673
 20
98.26360000000001
 30
0.0
 10
-51.6673
 20
98.26360000000001
 30
0.0
 10
-52.2515
 20
98.26360000000001
 30
0.0
 10
-52.7101
 20
98.47240000000001
 30
0.0
 10
-53.0431
 20
98.89150000000001
 30
0.0
 10
-53.0431
 20
98.89150000000001
 30
0.0
 10
-53.4425
 20
99.39530000000001
 30
0.0
 10
-53.6428
 20
100.218
 30
0.0
 10
-53.6428
 20
101.3553
 30
0.0
  0
SPLINE
  5
57
330
1F
100
AcDbEntity
  8
52
 62
   250
100
AcDbSpline
210
0.0
220
0.0
230
1.0
 70
    11
 71
     3
 72
    36
 73
    32
 74
     0
 42
0.0000000001
 43
0.0000000001
 40
0.0
 40
0.0
 40
0.0
 40
0.0
 40
0.125
 40
0.125
 40
0.125
 40
0.125
 40
0.25
 40
0.25
 40
0.25
 40
0.25
 40
0.375
 40
0.375
 40
0.375
 40
0.375
 40
0.5
 40
0.5
 40
0.5
 40
0.5
 40
0.625
 40
0.625
 40
0.625
 40
0.625
 40
0.75
 40
0.75
 40
0.75
 40
0.75
 40
0.875
 40
0.875
 40
0.875
 40
0.875
 40
1.0
 40
1.0
 40
1.0
 40
1.0
 10
-52.878
 20
101.3553
 30
0.0
 10
-52.878
 20
100.3605
 30
0.0
 10
-52.7609
 20
99.6987
 30
0.0
 10
-52.52800000000001
 20
99.36850000000001
 30
0.0
 10
-52.52800000000001
 20
99.36850000000001
 30
0.0
 10
-52.2952
 20
99.03970000000001
 30
0.0
 10
-52.0088
 20
98.8746
 30
0.0
 10
-51.6673
 20
98.8746
 30
0.0
 10
-51.6673
 20
98.8746
 30
0.0
 10
-51.3244
 20
98.8746
 30
0.0
 10
-51.0379
 20
99.0411
 30
0.0
 10
-50.8051
 20
99.37130000000001
 30
0.0
 10
-50.8051
 20
99.37130000000001
 30
0.0
 10
-50.5722
 20
99.70150000000001
 30
0.0
 10
-50.4551
 20
100.3633
 30
0.0
 10
-50.4551
 20
101.3553
 30
0.0
 10
-50.4551
 20
101.3553
 30
0.0
 10
-50.4551
 20
102.353
 30
0.0
 10
-50.5722
 20
103.0162
 30
0.0
 10
-50.8051
 20
103.3436
 30
0.0
 10
-50.8051
 20
103.3436
 30
0.0
 10
-51.0379
 20
103.6724
 30
0.0
 10
-51.32720000000001
 20
103.8361
 30
0.0
 10
-51.6743
 20
103.8361
 30
0.0
 10
-51.6743
 20
103.8361
 30
0.0
 10
-52.0172
 20
103.8361
 30
0.0
 10
-52.2896
 20
103.6907
 30
0.0
 10
-52.4942
 20
103.4015
 30
0.0
 10
-52.4942
 20
103.4015
 30
0.0
 10
-52.7496
 20
103.0332
 30
0.0
 10
-52.878
 20
102.3502
 30
0.0
 10
-52.878
 20
101.3553
 30
0.0
  0
SPLINE
  5
58
330
1F
100
AcDbEntity
  8
52
 62
   250
100
AcDbSpline
210
0.0
220
0.0
230
1.0
 70
    11
 71
     3
 72
    52
 73
    48
 74
     0
 42
0.0000000001
 43
0.0000000001
 40
0.0
 40
0.0
 40
0.0
 40
0.0
 40
0.0833333333333333
 40
0.0833333333333333
 40
0.0833333333333333
 40
0.0833333333333333
 40
0.1666666666666667
 40
0.1666666666666667
 40
0.1666666666666667
 40
0.1666666666666667
 40
0.25
 40
0.25
 40
0.25
 40
0.25
 40
0.3333333333333333
 40
0.3333333333333333
 40
0.3333333333333333
 40
0.3333333333333333
 40
0.4166666666666666
 40
0.4166666666666666
 40
0.4166666666666666
 40
0.4166666666666666
 40
0.4999999999999999
 40
0.4999999999999999
 40
0.4999999999999999
 40
0.4999999999999999
 40
0.5833333333333333
 40
0.5833333333333333
 40
0.5833333333333333
 40
0.5833333333333333
 40
0.6666666666666666
 40
0.6666666666666666
 40
0.6666666666666666
 40
0.6666666666666666
 40
0.75
 40
0.75
 40
0.75
 40
0.75
 40
0.8333333333333334
 40
0.8333333333333334
 40
0.8333333333333334
 40
0.8333333333333334
 40
0.9166666666666667
 40
0.9166666666666667
 40
0.9166666666666667
 40
0.9166666666666667
 40
1.0
 40
1.0
 40
1.0
 40
1.0
 10
-48.9339
 20
101.3553
 30
0.0
 10
-48.9339
 20
102.0722
 30
0.0
 10
-48.86060000000001
 20
102.6493
 30
0.0
 10
-48.7124
 20
103.0854
 30
0.0
 10
-48.7124
 20
103.0854
 30
0.0
 10
-48.5656
 20
103.5228
 30
0.0
 10
-48.3455
 20
103.8601
 30
0.0
 10
-48.0548
 20
104.0971
 30
0.0
 10
-48.0548
 20
104.0971
 30
0.0
 10
-47.7641
 20
104.3342
 30
0.0
 10
-47.3986
 20
104.4527
 30
0.0
 10
-46.95840000000001
 20
104.4527
 30
0.0
 10
-46.95840000000001
 20
104.4527
 30
0.0
 10
-46.6324
 20
104.4527
 30
0.0
 10
-46.3474
 20
104.3864
 30
0.0
 10
-46.1018
 20
104.2552
 30
0.0
 10
-46.1018
 20
104.2552
 30
0.0
 10
-45.85630000000001
 20
104.1254
 30
0.0
 10
-45.6545
 20
103.9363
 30
0.0
 10
-45.4936
 20
103.6893
 30
0.0
 10
-45.4936
 20
103.6893
 30
0.0
 10
-45.3342
 20
103.4424
 30
0.0
 10
-45.2086
 20
103.1418
 30
0.0
 10
-45.11830000000001
 20
102.7876
 30
0.0
 10
-45.11830000000001
 20
102.7876
 30
0.0
 10
-45.0265
 20
102.4334
 30
0.0
 10
-44.9814
 20
101.9565
 30
0.0
 10
-44.9814
 20
101.3553
 30
0.0
 10
-44.9814
 20
101.3553
 30
0.0
 10
-44.9814
 20
100.6441
 30
0.0
 10
-45.0548
 20
100.0712
 30
0.0
 10
-45.2001
 20
99.63380000000001
 30
0.0
 10
-45.2001
 20
99.63380000000001
 30
0.0
 10
-45.34690000000001
 20
99.19630000000001
 30
0.0
 10
-45.5656
 20
98.8591
 30
0.0
 10
-45.85630000000001
 20
98.62060000000001
 30
0.0
 10
-45.85630000000001
 20
98.62060000000001
 30
0.0
 10
-46.14700000000001
 20
98.38210000000001
 30
0.0
 10
-46.5139
 20
98.26360000000001
 30
0.0
 10
-46.95840000000001
 20
98.26360000000001
 30
0.0
 10
-46.95840000000001
 20
98.26360000000001
 30
0.0
 10
-47.5426
 20
98.26360000000001
 30
0.0
 10
-48.0012
 20
98.47240000000001
 30
0.0
 10
-48.3342
 20
98.89150000000001
 30
0.0
 10
-48.3342
 20
98.89150000000001
 30
0.0
 10
-48.7336
 20
99.39530000000001
 30
0.0
 10
-48.9339
 20
100.218
 30
0.0
 10
-48.9339
 20
101.3553
 30
0.0
  0
SPLINE
  5
59
330
1F
100
AcDbEntity
  8
52
 62
   250
100
AcDbSpline
210
0.0
220
0.0
230
1.0
 70
    11
 71
     3
 72
    36
 73
    32
 74
     0
 42
0.0000000001
 43
0.0000000001
 40
0.0
 40
0.0
 40
0.0
 40
0.0
 40
0.125
 40
0.125
 40
0.125
 40
0.125
 40
0.25
 40
0.25
 40
0.25
 40
0.25
 40
0.375
 40
0.375
 40
0.375
 40
0.375
 40
0.5
 40
0.5
 40
0.5
 40
0.5
 40
0.625
 40
0.625
 40
0.625
 40
0.625
 40
0.75
 40
0.75
 40
0.75
 40
0.75
 40
0.875
 40
0.875
 40
0.875
 40
0.875
 40
1.0
 40
1.0
 40
1.0
 40
1.0
 10
-48.1691
 20
101.3553
 30
0.0
 10
-48.1691
 20
100.3605
 30
0.0
 10
-48.052
 20
99.6987
 30
0.0
 10
-47.8191
 20
99.36850000000001
 30
0.0
 10
-47.8191
 20
99.36850000000001
 30
0.0
 10
-47.5863
 20
99.03970000000001
 30
0.0
 10
-47.2999
 20
98.8746
 30
0.0
 10
-46.95840000000001
 20
98.8746
 30
0.0
 10
-46.95840000000001
 20
98.8746
 30
0.0
 10
-46.6155
 20
98.8746
 30
0.0
 10
-46.329
 20
99.0411
 30
0.0
 10
-46.0962
 20
99.37130000000001
 30
0.0
 10
-46.0962
 20
99.37130000000001
 30
0.0
 10
-45.8633
 20
99.70150000000001
 30
0.0
 10
-45.7462
 20
100.3633
 30
0.0
 10
-45.7462
 20
101.3553
 30
0.0
 10
-45.7462
 20
101.3553
 30
0.0
 10
-45.7462
 20
102.353
 30
0.0
 10
-45.8633
 20
103.0162
 30
0.0
 10
-46.0962
 20
103.3436
 30
0.0
 10
-46.0962
 20
103.3436
 30
0.0
 10
-46.329
 20
103.6724
 30
0.0
 10
-46.61830000000001
 20
103.8361
 30
0.0
 10
-46.9654
 20
103.8361
 30
0.0
 10
-46.9654
 20
103.8361
 30
0.0
 10
-47.3083
 20
103.8361
 30
0.0
 10
-47.5807
 20
103.6907
 30
0.0
 10
-47.7853
 20
103.4015
 30
0.0
 10
-47.7853
 20
103.4015
 30
0.0
 10
-48.0407
 20
103.0332
 30
0.0
 10
-48.1691
 20
102.3502
 30
0.0
 10
-48.1691
 20
101.3553
 30
0.0
  0
SPLINE
  5
5A
330
1F
100
AcDbEntity
  8
52
 62
   250
100
AcDbSpline
210
0.0
220
0.0
230
1.0
 70
    11
 71
     3
 72
   116
 73
   112
 74
     0
 42
0.0000000001
 43
0.0000000001
 40
0.0
 40
0.0
 40
0.0
 40
0.0
 40
0.0357142857142857
 40
0.0357142857142857
 40
0.0357142857142857
 40
0.0357142857142857
 40
0.0714285714285714
 40
0.0714285714285714
 40
0.0714285714285714
 40
0.0714285714285714
 40
0.1071428571428571
 40
0.1071428571428571
 40
0.1071428571428571
 40
0.1071428571428571
 40
0.1428571428571429
 40
0.1428571428571429
 40
0.1428571428571429
 40
0.1428571428571429
 40
0.1785714285714286
 40
0.1785714285714286
 40
0.1785714285714286
 40
0.1785714285714286
 40
0.2142857142857143
 40
0.2142857142857143
 40
0.2142857142857143
 40
0.2142857142857143
 40
0.2499999999999999
 40
0.2499999999999999
 40
0.2499999999999999
 40
0.2499999999999999
 40
0.2857142857142856
 40
0.2857142857142856
 40
0.2857142857142856
 40
0.2857142857142856
 40
0.3214285714285713
 40
0.3214285714285713
 40
0.3214285714285713
 40
0.3214285714285713
 40
0.357142857142857
 40
0.357142857142857
 40
0.357142857142857
 40
0.357142857142857
 40
0.3928571428571427
 40
0.3928571428571427
 40
0.3928571428571427
 40
0.3928571428571427
 40
0.4285714285714284
 40
0.4285714285714284
 40
0.4285714285714284
 40
0.4285714285714284
 40
0.4642857142857141
 40
0.4642857142857141
 40
0.4642857142857141
 40
0.4642857142857141
 40
0.4999999999999998
 40
0.4999999999999998
 40
0.4999999999999998
 40
0.4999999999999998
 40
0.5357142857142856
 40
0.5357142857142856
 40
0.5357142857142856
 40
0.5357142857142856
 40
0.5714285714285713
 40
0.5714285714285713
 40
0.5714285714285713
 40
0.5714285714285713
 40
0.607142857142857
 40
0.607142857142857
 40
0.607142857142857
 40
0.607142857142857
 40
0.6428571428571427
 40
0.6428571428571427
 40
0.6428571428571427
 40
0.6428571428571427
 40
0.6785714285714284
 40
0.6785714285714284
 40
0.6785714285714284
 40
0.6785714285714284
 40
0.7142857142857141
 40
0.7142857142857141
 40
0.7142857142857141
 40
0.7142857142857141
 40
0.7499999999999998
 40
0.7499999999999998
 40
0.7499999999999998
 40
0.7499999999999998
 40
0.7857142857142855
 40
0.7857142857142855
 40
0.7857142857142855
 40
0.7857142857142855
 40
0.8214285714285712
 40
0.8214285714285712
 40
0.8214285714285712
 40
0.8214285714285712
 40
0.8571428571428569
 40
0.8571428571428569
 40
0.8571428571428569
 40
0.8571428571428569
 40
0.8928571428571426
 40
0.8928571428571426
 40
0.8928571428571426
 40
0.8928571428571426
 40
0.9285714285714283
 40
0.9285714285714283
 40
0.9285714285714283
 40
0.9285714285714283
 40
0.964285714285714
 40
0.964285714285714
 40
0.964285714285714
 40
0.964285714285714
 40
1.0
 40
1.0
 40
1.0
 40
1.0
 10
-41.6653
 20
98.36660000000001
 30
0.0
 10
-41.6653
 20
98.36660000000001
 30
0.0
 10
-41.6653
 20
102.7566
 30
0.0
 10
-41.6653
 20
102.7566
 30
0.0
 10
-41.6653
 20
102.7566
 30
0.0
 10
-41.6653
 20
102.7566
 30
0.0
 10
-41.0007
 20
102.7566
 30
0.0
 10
-41.0007
 20
102.7566
 30
0.0
 10
-41.0007
 20
102.7566
 30
0.0
 10
-41.0007
 20
102.7566
 30
0.0
 10
-41.0007
 20
102.1413
 30
0.0
 10
-41.0007
 20
102.1413
 30
0.0
 10
-41.0007
 20
102.1413
 30
0.0
 10
-40.8624
 20
102.3558
 30
0.0
 10
-40.6789
 20
102.5294
 30
0.0
 10
-40.4503
 20
102.6592
 30
0.0
 10
-40.4503
 20
102.6592
 30
0.0
 10
-40.2217
 20
102.7905
 30
0.0
 10
-39.9607
 20
102.8568
 30
0.0
 10
-39.66860000000001
 20
102.8568
 30
0.0
 10
-39.66860000000001
 20
102.8568
 30
0.0
 10
-39.344
 20
102.8568
 30
0.0
 10
-39.0773
 20
102.789
 30
0.0
 10
-38.8699
 20
102.6536
 30
0.0
 10
-38.8699
 20
102.6536
 30
0.0
 10
-38.661
 20
102.5181
 30
0.0
 10
-38.5143
 20
102.3304
 30
0.0
 10
-38.4296
 20
102.0877
 30
0.0
 10
-38.4296
 20
102.0877
 30
0.0
 10
-38.0811
 20
102.6
 30
0.0
 10
-37.6295
 20
102.8568
 30
0.0
 10
-37.0735
 20
102.8568
 30
0.0
 10
-37.0735
 20
102.8568
 30
0.0
 10
-36.6375
 20
102.8568
 30
0.0
 10
-36.3031
 20
102.7354
 30
0.0
 10
-36.0688
 20
102.4941
 30
0.0
 10
-36.0688
 20
102.4941
 30
0.0
 10
-35.8346
 20
102.2528
 30
0.0
 10
-35.71740000000001
 20
101.8817
 30
0.0
 10
-35.71740000000001
 20
101.3807
 30
0.0
 10
-35.71740000000001
 20
101.3807
 30
0.0
 10
-35.71740000000001
 20
101.3807
 30
0.0
 10
-35.71740000000001
 20
98.36660000000001
 30
0.0
 10
-35.71740000000001
 20
98.36660000000001
 30
0.0
 10
-35.71740000000001
 20
98.36660000000001
 30
0.0
 10
-35.71740000000001
 20
98.36660000000001
 30
0.0
 10
-36.45690000000001
 20
98.36660000000001
 30
0.0
 10
-36.45690000000001
 20
98.36660000000001
 30
0.0
 10
-36.45690000000001
 20
98.36660000000001
 30
0.0
 10
-36.45690000000001
 20
98.36660000000001
 30
0.0
 10
-36.45690000000001
 20
101.1324
 30
0.0
 10
-36.45690000000001
 20
101.1324
 30
0.0
 10
-36.45690000000001
 20
101.1324
 30
0.0
 10
-36.45690000000001
 20
101.4301
 30
0.0
 10
-36.4809
 20
101.6446
 30
0.0
 10
-36.5288
 20
101.7759
 30
0.0
 10
-36.5288
 20
101.7759
 30
0.0
 10
-36.5782
 20
101.9057
 30
0.0
 10
-36.6657
 20
102.0115
 30
0.0
 10
-36.7913
 20
102.0919
 30
0.0
 10
-36.7913
 20
102.0919
 30
0.0
 10
-36.9183
 20
102.171
 30
0.0
 10
-37.0679
 20
102.2119
 30
0.0
 10
-37.23860000000001
 20
102.2119
 30
0.0
 10
-37.23860000000001
 20
102.2119
 30
0.0
 10
-37.5477
 20
102.2119
 30
0.0
 10
-37.8031
 20
102.1089
 30
0.0
 10
-38.0077
 20
101.9029
 30
0.0
 10
-38.0077
 20
101.9029
 30
0.0
 10
-38.2109
 20
101.6982
 30
0.0
 10
-38.3139
 20
101.3695
 30
0.0
 10
-38.3139
 20
100.9179
 30
0.0
 10
-38.3139
 20
100.9179
 30
0.0
 10
-38.3139
 20
100.9179
 30
0.0
 10
-38.3139
 20
98.36660000000001
 30
0.0
 10
-38.3139
 20
98.36660000000001
 30
0.0
 10
-38.3139
 20
98.36660000000001
 30
0.0
 10
-38.3139
 20
98.36660000000001
 30
0.0
 10
-39.0576
 20
98.36660000000001
 30
0.0
 10
-39.0576
 20
98.36660000000001
 30
0.0
 10
-39.0576
 20
98.36660000000001
 30
0.0
 10
-39.0576
 20
98.36660000000001
 30
0.0
 10
-39.0576
 20
101.2185
 30
0.0
 10
-39.0576
 20
101.2185
 30
0.0
 10
-39.0576
 20
101.2185
 30
0.0
 10
-39.0576
 20
101.5501
 30
0.0
 10
-39.1182
 20
101.7984
 30
0.0
 10
-39.2396
 20
101.9635
 30
0.0
 10
-39.2396
 20
101.9635
 30
0.0
 10
-39.3609
 20
102.1286
 30
0.0
 10
-39.5585
 20
102.2119
 30
0.0
 10
-39.8351
 20
102.2119
 30
0.0
 10
-39.8351
 20
102.2119
 30
0.0
 10
-40.0439
 20
102.2119
 30
0.0
 10
-40.2372
 20
102.1569
 30
0.0
 10
-40.415
 20
102.0454
 30
0.0
 10
-40.415
 20
102.0454
 30
0.0
 10
-40.5928
 20
101.9353
 30
0.0
 10
-40.7227
 20
101.7744
 30
0.0
 10
-40.8017
 20
101.5628
 30
0.0
 10
-40.8017
 20
101.5628
 30
0.0
 10
-40.8821
 20
101.3497
 30
0.0
 10
-40.92160000000001
 20
101.0435
 30
0.0
 10
-40.92160000000001
 20
100.6441
 30
0.0
 10
-40.92160000000001
 20
100.6441
 30
0.0
 10
-40.92160000000001
 20
100.6441
 30
0.0
 10
-40.92160000000001
 20
98.36660000000001
 30
0.0
 10
-40.92160000000001
 20
98.36660000000001
 30
0.0
 10
-40.92160000000001
 20
98.36660000000001
 30
0.0
 10
-40.92160000000001
 20
98.36660000000001
 30
0.0
 10
-41.6653
 20
98.36660000000001
 30
0.0
 10
-41.6653
 20
98.36660000000001
 30
0.0
  0
SPLINE
  5
5B
330
1F
100
AcDbEntity
  8
52
 62
   250
100
AcDbSpline
210
0.0
220
0.0
230
1.0
 70
    11
 71
     3
 72
   116
 73
   112
 74
     0
 42
0.0000000001
 43
0.0000000001
 40
0.0
 40
0.0
 40
0.0
 40
0.0
 40
0.0357142857142857
 40
0.0357142857142857
 40
0.0357142857142857
 40
0.0357142857142857
 40
0.0714285714285714
 40
0.0714285714285714
 40
0.0714285714285714
 40
0.0714285714285714
 40
0.1071428571428571
 40
0.1071428571428571
 40
0.1071428571428571
 40
0.1071428571428571
 40
0.1428571428571429
 40
0.1428571428571429
 40
0.1428571428571429
 40
0.1428571428571429
 40
0.1785714285714286
 40
0.1785714285714286
 40
0.1785714285714286
 40
0.1785714285714286
 40
0.2142857142857143
 40
0.2142857142857143
 40
0.2142857142857143
 40
0.2142857142857143
 40
0.2499999999999999
 40
0.2499999999999999
 40
0.2499999999999999
 40
0.2499999999999999
 40
0.2857142857142856
 40
0.2857142857142856
 40
0.2857142857142856
 40
0.2857142857142856
 40
0.3214285714285713
 40
0.3214285714285713
 40
0.3214285714285713
 40
0.3214285714285713
 40
0.357142857142857
 40
0.357142857142857
 40
0.357142857142857
 40
0.357142857142857
 40
0.3928571428571427
 40
0.3928571428571427
 40
0.3928571428571427
 40
0.3928571428571427
 40
0.4285714285714284
 40
0.4285714285714284
 40
0.4285714285714284
 40
0.4285714285714284
 40
0.4642857142857141
 40
0.4642857142857141
 40
0.4642857142857141
 40
0.4642857142857141
 40
0.4999999999999998
 40
0.4999999999999998
 40
0.4999999999999998
 40
0.4999999999999998
 40
0.5357142857142856
 40
0.5357142857142856
 40
0.5357142857142856
 40
0.5357142857142856
 40
0.5714285714285713
 40
0.5714285714285713
 40
0.5714285714285713
 40
0.5714285714285713
 40
0.607142857142857
 40
0.607142857142857
 40
0.607142857142857
 40
0.607142857142857
 40
0.6428571428571427
 40
0.6428571428571427
 40
0.6428571428571427
 40
0.6428571428571427
 40
0.6785714285714284
 40
0.6785714285714284
 40
0.6785714285714284
 40
0.6785714285714284
 40
0.7142857142857141
 40
0.7142857142857141
 40
0.7142857142857141
 40
0.7142857142857141
 40
0.7499999999999998
 40
0.7499999999999998
 40
0.7499999999999998
 40
0.7499999999999998
 40
0.7857142857142855
 40
0.7857142857142855
 40
0.7857142857142855
 40
0.7857142857142855
 40
0.8214285714285712
 40
0.8214285714285712
 40
0.8214285714285712
 40
0.8214285714285712
 40
0.8571428571428569
 40
0.8571428571428569
 40
0.8571428571428569
 40
0.8571428571428569
 40
0.8928571428571426
 40
0.8928571428571426
 40
0.8928571428571426
 40
0.8928571428571426
 40
0.9285714285714283
 40
0.9285714285714283
 40
0.9285714285714283
 40
0.9285714285714283
 40
0.964285714285714
 40
0.964285714285714
 40
0.964285714285714
 40
0.964285714285714
 40
1.0
 40
1.0
 40
1.0
 40
1.0
 10
-34.6125
 20
98.36660000000001
 30
0.0
 10
-34.6125
 20
98.36660000000001
 30
0.0
 10
-34.6125
 20
102.7566
 30
0.0
 10
-34.6125
 20
102.7566
 30
0.0
 10
-34.6125
 20
102.7566
 30
0.0
 10
-34.6125
 20
102.7566
 30
0.0
 10
-33.9479
 20
102.7566
 30
0.0
 10
-33.9479
 20
102.7566
 30
0.0
 10
-33.9479
 20
102.7566
 30
0.0
 10
-33.9479
 20
102.7566
 30
0.0
 10
-33.9479
 20
102.1413
 30
0.0
 10
-33.9479
 20
102.1413
 30
0.0
 10
-33.9479
 20
102.1413
 30
0.0
 10
-33.8096
 20
102.3558
 30
0.0
 10
-33.6261
 20
102.5294
 30
0.0
 10
-33.3975
 20
102.6592
 30
0.0
 10
-33.3975
 20
102.6592
 30
0.0
 10
-33.1689
 20
102.7905
 30
0.0
 10
-32.90790000000001
 20
102.8568
 30
0.0
 10
-32.6158
 20
102.8568
 30
0.0
 10
-32.6158
 20
102.8568
 30
0.0
 10
-32.2912
 20
102.8568
 30
0.0
 10
-32.0245
 20
102.789
 30
0.0
 10
-31.8171
 20
102.6536
 30
0.0
 10
-31.8171
 20
102.6536
 30
0.0
 10
-31.6082
 20
102.5181
 30
0.0
 10
-31.4615
 20
102.3304
 30
0.0
 10
-31.3768
 20
102.0877
 30
0.0
 10
-31.3768
 20
102.0877
 30
0.0
 10
-31.0283
 20
102.6
 30
0.0
 10
-30.5767
 20
102.8568
 30
0.0
 10
-30.0207
 20
102.8568
 30
0.0
 10
-30.0207
 20
102.8568
 30
0.0
 10
-29.5847
 20
102.8568
 30
0.0
 10
-29.2503
 20
102.7354
 30
0.0
 10
-29.016
 20
102.4941
 30
0.0
 10
-29.016
 20
102.4941
 30
0.0
 10
-28.7818
 20
102.2528
 30
0.0
 10
-28.6646
 20
101.8817
 30
0.0
 10
-28.6646
 20
101.3807
 30
0.0
 10
-28.6646
 20
101.3807
 30
0.0
 10
-28.6646
 20
101.3807
 30
0.0
 10
-28.6646
 20
98.36660000000001
 30
0.0
 10
-28.6646
 20
98.36660000000001
 30
0.0
 10
-28.6646
 20
98.36660000000001
 30
0.0
 10
-28.6646
 20
98.36660000000001
 30
0.0
 10
-29.4041
 20
98.36660000000001
 30
0.0
 10
-29.4041
 20
98.36660000000001
 30
0.0
 10
-29.4041
 20
98.36660000000001
 30
0.0
 10
-29.4041
 20
98.36660000000001
 30
0.0
 10
-29.4041
 20
101.1324
 30
0.0
 10
-29.4041
 20
101.1324
 30
0.0
 10
-29.4041
 20
101.1324
 30
0.0
 10
-29.4041
 20
101.4301
 30
0.0
 10
-29.4281
 20
101.6446
 30
0.0
 10
-29.476
 20
101.7759
 30
0.0
 10
-29.476
 20
101.7759
 30
0.0
 10
-29.5254
 20
101.9057
 30
0.0
 10
-29.6129
 20
102.0115
 30
0.0
 10
-29.7385
 20
102.0919
 30
0.0
 10
-29.7385
 20
102.0919
 30
0.0
 10
-29.8655
 20
102.171
 30
0.0
 10
-30.0151
 20
102.2119
 30
0.0
 10
-30.1858
 20
102.2119
 30
0.0
 10
-30.1858
 20
102.2119
 30
0.0
 10
-30.4949
 20
102.2119
 30
0.0
 10
-30.7503
 20
102.1089
 30
0.0
 10
-30.9549
 20
101.9029
 30
0.0
 10
-30.9549
 20
101.9029
 30
0.0
 10
-31.1581
 20
101.6982
 30
0.0
 10
-31.2611
 20
101.3695
 30
0.0
 10
-31.2611
 20
100.9179
 30
0.0
 10
-31.2611
 20
100.9179
 30
0.0
 10
-31.2611
 20
100.9179
 30
0.0
 10
-31.2611
 20
98.36660000000001
 30
0.0
 10
-31.2611
 20
98.36660000000001
 30
0.0
 10
-31.2611
 20
98.36660000000001
 30
0.0
 10
-31.2611
 20
98.36660000000001
 30
0.0
 10
-32.0048
 20
98.36660000000001
 30
0.0
 10
-32.0048
 20
98.36660000000001
 30
0.0
 10
-32.0048
 20
98.36660000000001
 30
0.0
 10
-32.0048
 20
98.36660000000001
 30
0.0
 10
-32.0048
 20
101.2185
 30
0.0
 10
-32.0048
 20
101.2185
 30
0.0
 10
-32.0048
 20
101.2185
 30
0.0
 10
-32.0048
 20
101.5501
 30
0.0
 10
-32.0654
 20
101.7984
 30
0.0
 10
-32.1868
 20
101.9635
 30
0.0
 10
-32.1868
 20
101.9635
 30
0.0
 10
-32.3081
 20
102.1286
 30
0.0
 10
-32.5057
 20
102.2119
 30
0.0
 10
-32.7823
 20
102.2119
 30
0.0
 10
-32.7823
 20
102.2119
 30
0.0
 10
-32.9911
 20
102.2119
 30
0.0
 10
-33.1844
 20
102.1569
 30
0.0
 10
-33.3622
 20
102.0454
 30
0.0
 10
-33.3622
 20
102.0454
 30
0.0
 10
-33.54
 20
101.9353
 30
0.0
 10
-33.6699
 20
101.7744
 30
0.0
 10
-33.7489
 20
101.5628
 30
0.0
 10
-33.7489
 20
101.5628
 30
0.0
 10
-33.8293
 20
101.3497
 30
0.0
 10
-33.8688
 20
101.0435
 30
0.0
 10
-33.8688
 20
100.6441
 30
0.0
 10
-33.8688
 20
100.6441
 30
0.0
 10
-33.8688
 20
100.6441
 30
0.0
 10
-33.8688
 20
98.36660000000001
 30
0.0
 10
-33.8688
 20
98.36660000000001
 30
0.0
 10
-33.8688
 20
98.36660000000001
 30
0.0
 10
-33.8688
 20
98.36660000000001
 30
0.0
 10
-34.6125
 20
98.36660000000001
 30
0.0
 10
-34.6125
 20
98.36660000000001
 30
0.0
  0
SPLINE
  5
5C
330
1F
100
AcDbEntity
  8
52
 62
   250
370
     5
100
AcDbSpline
210
0.0
220
0.0
230
1.0
 70
    24
 71
     3
 72
     8
 73
     4
 74
     0
 42
0.0000000001
 43
0.0000000001
 40
0.0
 40
0.0
 40
0.0
 40
0.0
 40
1.0
 40
1.0
 40
1.0
 40
1.0
 10
-2.6326
 20
83.73780000000001
 30
0.0
 10
-2.6326
 20
83.73780000000001
 30
0.0
 10
-2.6326
 20
106.9146
 30
0.0
 10
-2.6326
 20
106.9146
 30
0.0
  0
SPLINE
  5
5D
330
1F
100
AcDbEntity
  8
52
 62
   250
370
     5
100
AcDbSpline
210
0.0
220
0.0
230
1.0
 70
    24
 71
     3
 72
     8
 73
     4
 74
     0
 42
0.0000000001
 43
0.0000000001
 40
0.0
 40
0.0
 40
0.0
 40
0.0
 40
1.0
 40
1.0
 40
1.0
 40
1.0
 10
127.367
 20
83.73780000000001
 30
0.0
 10
127.367
 20
83.73780000000001
 30
0.0
 10
127.367
 20
106.9146
 30
0.0
 10
127.367
 20
106.9146
 30
0.0
  0
SPLINE
  5
5E
330
1F
100
AcDbEntity
  8
52
 62
   250
370
     5
100
AcDbSpline
210
0.0
220
0.0
230
1.0
 70
    24
 71
     3
 72
     8
 73
     4
 74
     0
 42
0.0000000001
 43
0.0000000001
 40
0.0
 40
0.0
 40
0.0
 40
0.0
 40
1.0
 40
1.0
 40
1.0
 40
1.0
 10
-2.6326
 20
101.8346
 30
0.0
 10
-2.6326
 20
101.8346
 30
0.0
 10
44.2626
 20
101.8346
 30
0.0
 10
44.2626
 20
101.8346
 30
0.0
  0
SPLINE
  5
5F
330
1F
100
AcDbEntity
  8
52
 62
   250
370
     5
100
AcDbSpline
210
0.0
220
0.0
230
1.0
 70
    24
 71
     3
 72
     8
 73
     4
 74
     0
 42
0.0000000001
 43
0.0000000001
 40
0.0
 40
0.0
 40
0.0
 40
0.0
 40
1.0
 40
1.0
 40
1.0
 40
1.0
 10
98.77120000000001
 20
101.8346
 30
0.0
 10
98.77120000000001
 20
101.8346
 30
0.0
 10
127.367
 20
101.8346
 30
0.0
 10
127.367
 20
101.8346
 30
0.0
  0
SPLINE
  5
60
330
1F
100
AcDbEntity
  8
52
 62
   250
100
AcDbSpline
210
0.0
220
0.0
230
1.0
 70
    11
 71
     3
 72
    40
 73
    36
 74
     0
 42
0.0000000001
 43
0.0000000001
 40
0.0
 40
0.0
 40
0.0
 40
0.0
 40
0.1111111111111111
 40
0.1111111111111111
 40
0.1111111111111111
 40
0.1111111111111111
 40
0.2222222222222222
 40
0.2222222222222222
 40
0.2222222222222222
 40
0.2222222222222222
 40
0.3333333333333333
 40
0.3333333333333333
 40
0.3333333333333333
 40
0.3333333333333333
 40
0.4444444444444444
 40
0.4444444444444444
 40
0.4444444444444444
 40
0.4444444444444444
 40
0.5555555555555556
 40
0.5555555555555556
 40
0.5555555555555556
 40
0.5555555555555556
 40
0.6666666666666667
 40
0.6666666666666667
 40
0.6666666666666667
 40
0.6666666666666667
 40
0.7777777777777779
 40
0.7777777777777779
 40
0.7777777777777779
 40
0.7777777777777779
 40
0.8888888888888891
 40
0.8888888888888891
 40
0.8888888888888891
 40
0.8888888888888891
 40
1.0
 40
1.0
 40
1.0
 40
1.0
 10
53.7664
 20
98.84520000000001
 30
0.0
 10
53.7664
 20
98.84520000000001
 30
0.0
 10
53.0228
 20
98.84520000000001
 30
0.0
 10
53.0228
 20
98.84520000000001
 30
0.0
 10
53.0228
 20
98.84520000000001
 30
0.0
 10
53.0228
 20
98.84520000000001
 30
0.0
 10
53.0228
 20
103.5866
 30
0.0
 10
53.0228
 20
103.5866
 30
0.0
 10
53.0228
 20
103.5866
 30
0.0
 10
52.8436
 20
103.4158
 30
0.0
 10
52.60930000000001
 20
103.2451
 30
0.0
 10
52.3186
 20
103.0743
 30
0.0
 10
52.3186
 20
103.0743
 30
0.0
 10
52.02650000000001
 20
102.9036
 30
0.0
 10
51.7655
 20
102.7752
 30
0.0
 10
51.5341
 20
102.6905
 30
0.0
 10
51.5341
 20
102.6905
 30
0.0
 10
51.5341
 20
102.6905
 30
0.0
 10
51.5341
 20
103.4088
 30
0.0
 10
51.5341
 20
103.4088
 30
0.0
 10
51.5341
 20
103.4088
 30
0.0
 10
51.95030000000001
 20
103.6049
 30
0.0
 10
52.3144
 20
103.842
 30
0.0
 10
52.6263
 20
104.12
 30
0.0
 10
52.6263
 20
104.12
 30
0.0
 10
52.9367
 20
104.3994
 30
0.0
 10
53.1583
 20
104.6689
 30
0.0
 10
53.2881
 20
104.9313
 30
0.0
 10
53.2881
 20
104.9313
 30
0.0
 10
53.2881
 20
104.9313
 30
0.0
 10
53.7664
 20
104.9313
 30
0.0
 10
53.7664
 20
104.9313
 30
0.0
 10
53.7664
 20
104.9313
 30
0.0
 10
53.7664
 20
104.9313
 30
0.0
 10
53.7664
 20
98.84520000000001
 30
0.0
 10
53.7664
 20
98.84520000000001
 30
0.0
  0
SPLINE
  5
61
330
1F
100
AcDbEntity
  8
52
 62
   250
100
AcDbSpline
210
0.0
220
0.0
230
1.0
 70
    11
 71
     3
 72
   124
 73
   120
 74
     0
 42
0.0000000001
 43
0.0000000001
 40
0.0
 40
0.0
 40
0.0
 40
0.0
 40
0.0333333333333333
 40
0.0333333333333333
 40
0.0333333333333333
 40
0.0333333333333333
 40
0.0666666666666667
 40
0.0666666666666667
 40
0.0666666666666667
 40
0.0666666666666667
 40
0.1
 40
0.1
 40
0.1
 40
0.1
 40
0.1333333333333333
 40
0.1333333333333333
 40
0.1333333333333333
 40
0.1333333333333333
 40
0.1666666666666667
 40
0.1666666666666667
 40
0.1666666666666667
 40
0.1666666666666667
 40
0.2
 40
0.2
 40
0.2
 40
0.2
 40
0.2333333333333333
 40
0.2333333333333333
 40
0.2333333333333333
 40
0.2333333333333333
 40
0.2666666666666667
 40
0.2666666666666667
 40
0.2666666666666667
 40
0.2666666666666667
 40
0.3
 40
0.3
 40
0.3
 40
0.3
 40
0.3333333333333333
 40
0.3333333333333333
 40
0.3333333333333333
 40
0.3333333333333333
 40
0.3666666666666666
 40
0.3666666666666666
 40
0.3666666666666666
 40
0.3666666666666666
 40
0.4
 40
0.4
 40
0.4
 40
0.4
 40
0.4333333333333333
 40
0.4333333333333333
 40
0.4333333333333333
 40
0.4333333333333333
 40
0.4666666666666666
 40
0.4666666666666666
 40
0.4666666666666666
 40
0.4666666666666666
 40
0.4999999999999999
 40
0.4999999999999999
 40
0.4999999999999999
 40
0.4999999999999999
 40
0.5333333333333333
 40
0.5333333333333333
 40
0.5333333333333333
 40
0.5333333333333333
 40
0.5666666666666667
 40
0.5666666666666667
 40
0.5666666666666667
 40
0.5666666666666667
 40
0.6
 40
0.6
 40
0.6
 40
0.6
 40
0.6333333333333333
 40
0.6333333333333333
 40
0.6333333333333333
 40
0.6333333333333333
 40
0.6666666666666666
 40
0.6666666666666666
 40
0.6666666666666666
 40
0.6666666666666666
 40
0.7
 40
0.7
 40
0.7
 40
0.7
 40
0.7333333333333333
 40
0.7333333333333333
 40
0.7333333333333333
 40
0.7333333333333333
 40
0.7666666666666666
 40
0.7666666666666666
 40
0.7666666666666666
 40
0.7666666666666666
 40
0.7999999999999999
 40
0.7999999999999999
 40
0.7999999999999999
 40
0.7999999999999999
 40
0.8333333333333333
 40
0.8333333333333333
 40
0.8333333333333333
 40
0.8333333333333333
 40
0.8666666666666666
 40
0.8666666666666666
 40
0.8666666666666666
 40
0.8666666666666666
 40
0.8999999999999999
 40
0.8999999999999999
 40
0.8999999999999999
 40
0.8999999999999999
 40
0.9333333333333332
 40
0.9333333333333332
 40
0.9333333333333332
 40
0.9333333333333332
 40
0.9666666666666666
 40
0.9666666666666666
 40
0.9666666666666666
 40
0.9666666666666666
 40
1.0
 40
1.0
 40
1.0
 40
1.0
 10
55.6771
 20
100.4454
 30
0.0
 10
55.6771
 20
100.4454
 30
0.0
 10
56.4208
 20
100.5442
 30
0.0
 10
56.4208
 20
100.5442
 30
0.0
 10
56.4208
 20
100.5442
 30
0.0
 10
56.50680000000001
 20
100.1223
 30
0.0
 10
56.6522
 20
99.8189
 30
0.0
 10
56.8568
 20
99.63260000000001
 30
0.0
 10
56.8568
 20
99.63260000000001
 30
0.0
 10
57.0628
 20
99.44630000000001
 30
0.0
 10
57.3126
 20
99.3532
 30
0.0
 10
57.6075
 20
99.3532
 30
0.0
 10
57.6075
 20
99.3532
 30
0.0
 10
57.9575
 20
99.3532
 30
0.0
 10
58.25380000000001
 20
99.47460000000001
 30
0.0
 10
58.4951
 20
99.71730000000001
 30
0.0
 10
58.4951
 20
99.71730000000001
 30
0.0
 10
58.735
 20
99.96000000000001
 30
0.0
 10
58.85630000000001
 20
100.2606
 30
0.0
 10
58.85630000000001
 20
100.619
 30
0.0
 10
58.85630000000001
 20
100.619
 30
0.0
 10
58.85630000000001
 20
100.9605
 30
0.0
 10
58.7449
 20
101.2427
 30
0.0
 10
58.5219
 20
101.4642
 30
0.0
 10
58.5219
 20
101.4642
 30
0.0
 10
58.2975
 20
101.6858
 30
0.0
 10
58.0139
 20
101.7973
 30
0.0
 10
57.6696
 20
101.7973
 30
0.0
 10
57.6696
 20
101.7973
 30
0.0
 10
57.5285
 20
101.7973
 30
0.0
 10
57.3535
 20
101.769
 30
0.0
 10
57.1447
 20
101.714
 30
0.0
 10
57.1447
 20
101.714
 30
0.0
 10
57.1447
 20
101.714
 30
0.0
 10
57.22790000000001
 20
102.3673
 30
0.0
 10
57.22790000000001
 20
102.3673
 30
0.0
 10
57.22790000000001
 20
102.3673
 30
0.0
 10
57.2773
 20
102.3617
 30
0.0
 10
57.3168
 20
102.3589
 30
0.0
 10
57.3479
 20
102.3589
 30
0.0
 10
57.3479
 20
102.3589
 30
0.0
 10
57.664
 20
102.3589
 30
0.0
 10
57.94900000000001
 20
102.4421
 30
0.0
 10
58.203
 20
102.6072
 30
0.0
 10
58.203
 20
102.6072
 30
0.0
 10
58.457
 20
102.7723
 30
0.0
 10
58.584
 20
103.0277
 30
0.0
 10
58.584
 20
103.3721
 30
0.0
 10
58.584
 20
103.3721
 30
0.0
 10
58.584
 20
103.6444
 30
0.0
 10
58.4909
 20
103.8716
 30
0.0
 10
58.306
 20
104.0494
 30
0.0
 10
58.306
 20
104.0494
 30
0.0
 10
58.1212
 20
104.2286
 30
0.0
 10
57.8827
 20
104.3189
 30
0.0
 10
57.5906
 20
104.3189
 30
0.0
 10
57.5906
 20
104.3189
 30
0.0
 10
57.30130000000001
 20
104.3189
 30
0.0
 10
57.06
 20
104.2272
 30
0.0
 10
56.86810000000001
 20
104.0466
 30
0.0
 10
56.86810000000001
 20
104.0466
 30
0.0
 10
56.67480000000001
 20
103.8645
 30
0.0
 10
56.5506
 20
103.5908
 30
0.0
 10
56.4955
 20
103.2267
 30
0.0
 10
56.4955
 20
103.2267
 30
0.0
 10
56.4955
 20
103.2267
 30
0.0
 10
55.7519
 20
103.3594
 30
0.0
 10
55.7519
 20
103.3594
 30
0.0
 10
55.7519
 20
103.3594
 30
0.0
 10
55.84220000000001
 20
103.8589
 30
0.0
 10
56.04960000000001
 20
104.2455
 30
0.0
 10
56.3714
 20
104.5193
 30
0.0
 10
56.3714
 20
104.5193
 30
0.0
 10
56.69450000000001
 20
104.7931
 30
0.0
 10
57.0953
 20
104.9313
 30
0.0
 10
57.57510000000001
 20
104.9313
 30
0.0
 10
57.57510000000001
 20
104.9313
 30
0.0
 10
57.9053
 20
104.9313
 30
0.0
 10
58.2101
 20
104.8594
 30
0.0
 10
58.488
 20
104.7183
 30
0.0
 10
58.488
 20
104.7183
 30
0.0
 10
58.76600000000001
 20
104.5757
 30
0.0
 10
58.9791
 20
104.3824
 30
0.0
 10
59.12730000000001
 20
104.1369
 30
0.0
 10
59.12730000000001
 20
104.1369
 30
0.0
 10
59.274
 20
103.8914
 30
0.0
 10
59.3488
 20
103.6317
 30
0.0
 10
59.3488
 20
103.3551
 30
0.0
 10
59.3488
 20
103.3551
 30
0.0
 10
59.3488
 20
103.0941
 30
0.0
 10
59.2783
 20
102.8556
 30
0.0
 10
59.1372
 20
102.6397
 30
0.0
 10
59.1372
 20
102.6397
 30
0.0
 10
58.996
 20
102.4252
 30
0.0
 10
58.7886
 20
102.2545
 30
0.0
 10
58.5134
 20
102.1275
 30
0.0
 10
58.5134
 20
102.1275
 30
0.0
 10
58.8719
 20
102.0456
 30
0.0
 10
59.1499
 20
101.8735
 30
0.0
 10
59.3488
 20
101.6124
 30
0.0
 10
59.3488
 20
101.6124
 30
0.0
 10
59.54640000000001
 20
101.3528
 30
0.0
 10
59.6452
 20
101.0268
 30
0.0
 10
59.6452
 20
100.6359
 30
0.0
 10
59.6452
 20
100.6359
 30
0.0
 10
59.6452
 20
100.1067
 30
0.0
 10
59.4532
 20
99.658
 30
0.0
 10
59.0666
 20
99.28970000000001
 30
0.0
 10
59.0666
 20
99.28970000000001
 30
0.0
 10
58.6814
 20
98.92140000000001
 30
0.0
 10
58.1931
 20
98.738
 30
0.0
 10
57.6033
 20
98.738
 30
0.0
 10
57.6033
 20
98.738
 30
0.0
 10
57.0713
 20
98.738
 30
0.0
 10
56.6296
 20
98.896
 30
0.0
 10
56.27820000000001
 20
99.21350000000001
 30
0.0
 10
56.27820000000001
 20
99.21350000000001
 30
0.0
 10
55.9269
 20
99.5296
 30
0.0
 10
55.7265
 20
99.9402
 30
0.0
 10
55.6771
 20
100.4454
 30
0.0
  0
SPLINE
  5
62
330
1F
100
AcDbEntity
  8
52
 62
   250
100
AcDbSpline
210
0.0
220
0.0
230
1.0
 70
    11
 71
     3
 72
    52
 73
    48
 74
     0
 42
0.0000000001
 43
0.0000000001
 40
0.0
 40
0.0
 40
0.0
 40
0.0
 40
0.0833333333333333
 40
0.0833333333333333
 40
0.0833333333333333
 40
0.0833333333333333
 40
0.1666666666666667
 40
0.1666666666666667
 40
0.1666666666666667
 40
0.1666666666666667
 40
0.25
 40
0.25
 40
0.25
 40
0.25
 40
0.3333333333333333
 40
0.3333333333333333
 40
0.3333333333333333
 40
0.3333333333333333
 40
0.4166666666666666
 40
0.4166666666666666
 40
0.4166666666666666
 40
0.4166666666666666
 40
0.4999999999999999
 40
0.4999999999999999
 40
0.4999999999999999
 40
0.4999999999999999
 40
0.5833333333333333
 40
0.5833333333333333
 40
0.5833333333333333
 40
0.5833333333333333
 40
0.6666666666666666
 40
0.6666666666666666
 40
0.6666666666666666
 40
0.6666666666666666
 40
0.75
 40
0.75
 40
0.75
 40
0.75
 40
0.8333333333333334
 40
0.8333333333333334
 40
0.8333333333333334
 40
0.8333333333333334
 40
0.9166666666666667
 40
0.9166666666666667
 40
0.9166666666666667
 40
0.9166666666666667
 40
1.0
 40
1.0
 40
1.0
 40
1.0
 10
60.38180000000001
 20
101.8339
 30
0.0
 10
60.38180000000001
 20
102.5508
 30
0.0
 10
60.4551
 20
103.1279
 30
0.0
 10
60.6033
 20
103.564
 30
0.0
 10
60.6033
 20
103.564
 30
0.0
 10
60.7501
 20
104.0014
 30
0.0
 10
60.97020000000001
 20
104.3387
 30
0.0
 10
61.2609
 20
104.5757
 30
0.0
 10
61.2609
 20
104.5757
 30
0.0
 10
61.5516
 20
104.8128
 30
0.0
 10
61.91710000000001
 20
104.9313
 30
0.0
 10
62.3573
 20
104.9313
 30
0.0
 10
62.3573
 20
104.9313
 30
0.0
 10
62.6833
 20
104.9313
 30
0.0
 10
62.96830000000001
 20
104.865
 30
0.0
 10
63.2139
 20
104.7338
 30
0.0
 10
63.2139
 20
104.7338
 30
0.0
 10
63.4594
 20
104.604
 30
0.0
 10
63.6612
 20
104.4149
 30
0.0
 10
63.82210000000001
 20
104.1679
 30
0.0
 10
63.82210000000001
 20
104.1679
 30
0.0
 10
63.9815
 20
103.921
 30
0.0
 10
64.1071
 20
103.6204
 30
0.0
 10
64.1974
 20
103.2662
 30
0.0
 10
64.1974
 20
103.2662
 30
0.0
 10
64.28920000000001
 20
102.912
 30
0.0
 10
64.3343
 20
102.4351
 30
0.0
 10
64.3343
 20
101.8339
 30
0.0
 10
64.3343
 20
101.8339
 30
0.0
 10
64.3343
 20
101.1227
 30
0.0
 10
64.26090000000001
 20
100.5498
 30
0.0
 10
64.1156
 20
100.1124
 30
0.0
 10
64.1156
 20
100.1124
 30
0.0
 10
63.9688
 20
99.67490000000001
 30
0.0
 10
63.7501
 20
99.3377
 30
0.0
 10
63.4594
 20
99.09920000000001
 30
0.0
 10
63.4594
 20
99.09920000000001
 30
0.0
 10
63.1687
 20
98.86070000000001
 30
0.0
 10
62.8018
 20
98.74220000000001
 30
0.0
 10
62.3573
 20
98.74220000000001
 30
0.0
 10
62.3573
 20
98.74220000000001
 30
0.0
 10
61.7731
 20
98.74220000000001
 30
0.0
 10
61.3145
 20
98.95100000000001
 30
0.0
 10
60.9815
 20
99.37010000000001
 30
0.0
 10
60.9815
 20
99.37010000000001
 30
0.0
 10
60.5821
 20
99.87390000000001
 30
0.0
 10
60.38180000000001
 20
100.6966
 30
0.0
 10
60.38180000000001
 20
101.8339
 30
0.0
  0
SPLINE
  5
63
330
1F
100
AcDbEntity
  8
52
 62
   250
100
AcDbSpline
210
0.0
220
0.0
230
1.0
 70
    11
 71
     3
 72
    36
 73
    32
 74
     0
 42
0.0000000001
 43
0.0000000001
 40
0.0
 40
0.0
 40
0.0
 40
0.0
 40
0.125
 40
0.125
 40
0.125
 40
0.125
 40
0.25
 40
0.25
 40
0.25
 40
0.25
 40
0.375
 40
0.375
 40
0.375
 40
0.375
 40
0.5
 40
0.5
 40
0.5
 40
0.5
 40
0.625
 40
0.625
 40
0.625
 40
0.625
 40
0.75
 40
0.75
 40
0.75
 40
0.75
 40
0.875
 40
0.875
 40
0.875
 40
0.875
 40
1.0
 40
1.0
 40
1.0
 40
1.0
 10
61.1466
 20
101.8339
 30
0.0
 10
61.1466
 20
100.8391
 30
0.0
 10
61.2637
 20
100.1773
 30
0.0
 10
61.4966
 20
99.84710000000001
 30
0.0
 10
61.4966
 20
99.84710000000001
 30
0.0
 10
61.72940000000001
 20
99.51830000000001
 30
0.0
 10
62.01580000000001
 20
99.3532
 30
0.0
 10
62.3573
 20
99.3532
 30
0.0
 10
62.3573
 20
99.3532
 30
0.0
 10
62.7002
 20
99.3532
 30
0.0
 10
62.98670000000001
 20
99.5197
 30
0.0
 10
63.2195
 20
99.84990000000001
 30
0.0
 10
63.2195
 20
99.84990000000001
 30
0.0
 10
63.4524
 20
100.1801
 30
0.0
 10
63.56950000000001
 20
100.8419
 30
0.0
 10
63.56950000000001
 20
101.8339
 30
0.0
 10
63.56950000000001
 20
101.8339
 30
0.0
 10
63.56950000000001
 20
102.8316
 30
0.0
 10
63.4524
 20
103.4948
 30
0.0
 10
63.2195
 20
103.8222
 30
0.0
 10
63.2195
 20
103.8222
 30
0.0
 10
62.98670000000001
 20
104.151
 30
0.0
 10
62.6974
 20
104.3147
 30
0.0
 10
62.3503
 20
104.3147
 30
0.0
 10
62.3503
 20
104.3147
 30
0.0
 10
62.0074
 20
104.3147
 30
0.0
 10
61.735
 20
104.1693
 30
0.0
 10
61.5304
 20
103.8801
 30
0.0
 10
61.5304
 20
103.8801
 30
0.0
 10
61.27500000000001
 20
103.5118
 30
0.0
 10
61.1466
 20
102.8288
 30
0.0
 10
61.1466
 20
101.8339
 30
0.0
  0
SPLINE
  5
64
330
1F
100
AcDbEntity
  8
52
 62
   250
100
AcDbSpline
210
0.0
220
0.0
230
1.0
 70
    11
 71
     3
 72
    20
 73
    16
 74
     0
 42
0.0000000001
 43
0.0000000001
 40
0.0
 40
0.0
 40
0.0
 40
0.0
 40
0.25
 40
0.25
 40
0.25
 40
0.25
 40
0.5
 40
0.5
 40
0.5
 40
0.5
 40
0.75
 40
0.75
 40
0.75
 40
0.75
 40
1.0
 40
1.0
 40
1.0
 40
1.0
 10
65.50840000000001
 20
98.84520000000001
 30
0.0
 10
65.50840000000001
 20
98.84520000000001
 30
0.0
 10
65.50840000000001
 20
99.69330000000001
 30
0.0
 10
65.50840000000001
 20
99.69330000000001
 30
0.0
 10
65.50840000000001
 20
99.69330000000001
 30
0.0
 10
65.50840000000001
 20
99.69330000000001
 30
0.0
 10
66.35640000000001
 20
99.69330000000001
 30
0.0
 10
66.35640000000001
 20
99.69330000000001
 30
0.0
 10
66.35640000000001
 20
99.69330000000001
 30
0.0
 10
66.35640000000001
 20
99.69330000000001
 30
0.0
 10
66.35640000000001
 20
98.84520000000001
 30
0.0
 10
66.35640000000001
 20
98.84520000000001
 30
0.0
 10
66.35640000000001
 20
98.84520000000001
 30
0.0
 10
66.35640000000001
 20
98.84520000000001
 30
0.0
 10
65.50840000000001
 20
98.84520000000001
 30
0.0
 10
65.50840000000001
 20
98.84520000000001
 30
0.0
  0
SPLINE
  5
65
330
1F
100
AcDbEntity
  8
52
 62
   250
100
AcDbSpline
210
0.0
220
0.0
230
1.0
 70
    11
 71
     3
 72
    52
 73
    48
 74
     0
 42
0.0000000001
 43
0.0000000001
 40
0.0
 40
0.0
 40
0.0
 40
0.0
 40
0.0833333333333333
 40
0.0833333333333333
 40
0.0833333333333333
 40
0.0833333333333333
 40
0.1666666666666667
 40
0.1666666666666667
 40
0.1666666666666667
 40
0.1666666666666667
 40
0.25
 40
0.25
 40
0.25
 40
0.25
 40
0.3333333333333333
 40
0.3333333333333333
 40
0.3333333333333333
 40
0.3333333333333333
 40
0.4166666666666666
 40
0.4166666666666666
 40
0.4166666666666666
 40
0.4166666666666666
 40
0.4999999999999999
 40
0.4999999999999999
 40
0.4999999999999999
 40
0.4999999999999999
 40
0.5833333333333333
 40
0.5833333333333333
 40
0.5833333333333333
 40
0.5833333333333333
 40
0.6666666666666666
 40
0.6666666666666666
 40
0.6666666666666666
 40
0.6666666666666666
 40
0.75
 40
0.75
 40
0.75
 40
0.75
 40
0.8333333333333334
 40
0.8333333333333334
 40
0.8333333333333334
 40
0.8333333333333334
 40
0.9166666666666667
 40
0.9166666666666667
 40
0.9166666666666667
 40
0.9166666666666667
 40
1.0
 40
1.0
 40
1.0
 40
1.0
 10
67.443
 20
101.8339
 30
0.0
 10
67.443
 20
102.5508
 30
0.0
 10
67.5163
 20
103.1279
 30
0.0
 10
67.6645
 20
103.564
 30
0.0
 10
67.6645
 20
103.564
 30
0.0
 10
67.8113
 20
104.0014
 30
0.0
 10
68.03140000000001
 20
104.3387
 30
0.0
 10
68.32210000000001
 20
104.5757
 30
0.0
 10
68.32210000000001
 20
104.5757
 30
0.0
 10
68.61280000000001
 20
104.8128
 30
0.0
 10
68.9783
 20
104.9313
 30
0.0
 10
69.41850000000001
 20
104.9313
 30
0.0
 10
69.41850000000001
 20
104.9313
 30
0.0
 10
69.7445
 20
104.9313
 30
0.0
 10
70.0295
 20
104.865
 30
0.0
 10
70.27510000000001
 20
104.7338
 30
0.0
 10
70.27510000000001
 20
104.7338
 30
0.0
 10
70.5206
 20
104.604
 30
0.0
 10
70.72240000000001
 20
104.4149
 30
0.0
 10
70.88330000000001
 20
104.1679
 30
0.0
 10
70.88330000000001
 20
104.1679
 30
0.0
 10
71.0427
 20
103.921
 30
0.0
 10
71.1683
 20
103.6204
 30
0.0
 10
71.2586
 20
103.2662
 30
0.0
 10
71.2586
 20
103.2662
 30
0.0
 10
71.35040000000001
 20
102.912
 30
0.0
 10
71.3955
 20
102.4351
 30
0.0
 10
71.3955
 20
101.8339
 30
0.0
 10
71.3955
 20
101.8339
 30
0.0
 10
71.3955
 20
101.1227
 30
0.0
 10
71.32210000000001
 20
100.5498
 30
0.0
 10
71.1768
 20
100.1124
 30
0.0
 10
71.1768
 20
100.1124
 30
0.0
 10
71.03
 20
99.67490000000001
 30
0.0
 10
70.8113
 20
99.3377
 30
0.0
 10
70.5206
 20
99.09920000000001
 30
0.0
 10
70.5206
 20
99.09920000000001
 30
0.0
 10
70.2299
 20
98.86070000000001
 30
0.0
 10
69.863
 20
98.74220000000001
 30
0.0
 10
69.41850000000001
 20
98.74220000000001
 30
0.0
 10
69.41850000000001
 20
98.74220000000001
 30
0.0
 10
68.8343
 20
98.74220000000001
 30
0.0
 10
68.37570000000001
 20
98.95100000000001
 30
0.0
 10
68.0427
 20
99.37010000000001
 30
0.0
 10
68.0427
 20
99.37010000000001
 30
0.0
 10
67.6433
 20
99.87390000000001
 30
0.0
 10
67.443
 20
100.6966
 30
0.0
 10
67.443
 20
101.8339
 30
0.0
  0
SPLINE
  5
66
330
1F
100
AcDbEntity
  8
52
 62
   250
100
AcDbSpline
210
0.0
220
0.0
230
1.0
 70
    11
 71
     3
 72
    36
 73
    32
 74
     0
 42
0.0000000001
 43
0.0000000001
 40
0.0
 40
0.0
 40
0.0
 40
0.0
 40
0.125
 40
0.125
 40
0.125
 40
0.125
 40
0.25
 40
0.25
 40
0.25
 40
0.25
 40
0.375
 40
0.375
 40
0.375
 40
0.375
 40
0.5
 40
0.5
 40
0.5
 40
0.5
 40
0.625
 40
0.625
 40
0.625
 40
0.625
 40
0.75
 40
0.75
 40
0.75
 40
0.75
 40
0.875
 40
0.875
 40
0.875
 40
0.875
 40
1.0
 40
1.0
 40
1.0
 40
1.0
 10
68.20780000000001
 20
101.8339
 30
0.0
 10
68.20780000000001
 20
100.8391
 30
0.0
 10
68.3249
 20
100.1773
 30
0.0
 10
68.5578
 20
99.84710000000001
 30
0.0
 10
68.5578
 20
99.84710000000001
 30
0.0
 10
68.7906
 20
99.51830000000001
 30
0.0
 10
69.077
 20
99.3532
 30
0.0
 10
69.41850000000001
 20
99.3532
 30
0.0
 10
69.41850000000001
 20
99.3532
 30
0.0
 10
69.76140000000001
 20
99.3532
 30
0.0
 10
70.0479
 20
99.5197
 30
0.0
 10
70.28070000000001
 20
99.84990000000001
 30
0.0
 10
70.28070000000001
 20
99.84990000000001
 30
0.0
 10
70.5136
 20
100.1801
 30
0.0
 10
70.6307
 20
100.8419
 30
0.0
 10
70.6307
 20
101.8339
 30
0.0
 10
70.6307
 20
101.8339
 30
0.0
 10
70.6307
 20
102.8316
 30
0.0
 10
70.5136
 20
103.4948
 30
0.0
 10
70.28070000000001
 20
103.8222
 30
0.0
 10
70.28070000000001
 20
103.8222
 30
0.0
 10
70.0479
 20
104.151
 30
0.0
 10
69.7586
 20
104.3147
 30
0.0
 10
69.4115
 20
104.3147
 30
0.0
 10
69.4115
 20
104.3147
 30
0.0
 10
69.0686
 20
104.3147
 30
0.0
 10
68.7962
 20
104.1693
 30
0.0
 10
68.5916
 20
103.8801
 30
0.0
 10
68.5916
 20
103.8801
 30
0.0
 10
68.33620000000001
 20
103.5118
 30
0.0
 10
68.20780000000001
 20
102.8288
 30
0.0
 10
68.20780000000001
 20
101.8339
 30
0.0
  0
SPLINE
  5
67
330
1F
100
AcDbEntity
  8
52
 62
   250
100
AcDbSpline
210
0.0
220
0.0
230
1.0
 70
    11
 71
     3
 72
    52
 73
    48
 74
     0
 42
0.0000000001
 43
0.0000000001
 40
0.0
 40
0.0
 40
0.0
 40
0.0
 40
0.0833333333333333
 40
0.0833333333333333
 40
0.0833333333333333
 40
0.0833333333333333
 40
0.1666666666666667
 40
0.1666666666666667
 40
0.1666666666666667
 40
0.1666666666666667
 40
0.25
 40
0.25
 40
0.25
 40
0.25
 40
0.3333333333333333
 40
0.3333333333333333
 40
0.3333333333333333
 40
0.3333333333333333
 40
0.4166666666666666
 40
0.4166666666666666
 40
0.4166666666666666
 40
0.4166666666666666
 40
0.4999999999999999
 40
0.4999999999999999
 40
0.4999999999999999
 40
0.4999999999999999
 40
0.5833333333333333
 40
0.5833333333333333
 40
0.5833333333333333
 40
0.5833333333333333
 40
0.6666666666666666
 40
0.6666666666666666
 40
0.6666666666666666
 40
0.6666666666666666
 40
0.75
 40
0.75
 40
0.75
 40
0.75
 40
0.8333333333333334
 40
0.8333333333333334
 40
0.8333333333333334
 40
0.8333333333333334
 40
0.9166666666666667
 40
0.9166666666666667
 40
0.9166666666666667
 40
0.9166666666666667
 40
1.0
 40
1.0
 40
1.0
 40
1.0
 10
72.1519
 20
101.8339
 30
0.0
 10
72.1519
 20
102.5508
 30
0.0
 10
72.2252
 20
103.1279
 30
0.0
 10
72.3734
 20
103.564
 30
0.0
 10
72.3734
 20
103.564
 30
0.0
 10
72.5202
 20
104.0014
 30
0.0
 10
72.74030000000001
 20
104.3387
 30
0.0
 10
73.03100000000001
 20
104.5757
 30
0.0
 10
73.03100000000001
 20
104.5757
 30
0.0
 10
73.32170000000001
 20
104.8128
 30
0.0
 10
73.6872
 20
104.9313
 30
0.0
 10
74.12740000000001
 20
104.9313
 30
0.0
 10
74.12740000000001
 20
104.9313
 30
0.0
 10
74.4534
 20
104.9313
 30
0.0
 10
74.7384
 20
104.865
 30
0.0
 10
74.98400000000001
 20
104.7338
 30
0.0
 10
74.98400000000001
 20
104.7338
 30
0.0
 10
75.2295
 20
104.604
 30
0.0
 10
75.43130000000001
 20
104.4149
 30
0.0
 10
75.59220000000001
 20
104.1679
 30
0.0
 10
75.59220000000001
 20
104.1679
 30
0.0
 10
75.75160000000001
 20
103.921
 30
0.0
 10
75.8772
 20
103.6204
 30
0.0
 10
75.9675
 20
103.2662
 30
0.0
 10
75.9675
 20
103.2662
 30
0.0
 10
76.05930000000001
 20
102.912
 30
0.0
 10
76.1044
 20
102.4351
 30
0.0
 10
76.1044
 20
101.8339
 30
0.0
 10
76.1044
 20
101.8339
 30
0.0
 10
76.1044
 20
101.1227
 30
0.0
 10
76.03100000000001
 20
100.5498
 30
0.0
 10
75.8857
 20
100.1124
 30
0.0
 10
75.8857
 20
100.1124
 30
0.0
 10
75.7389
 20
99.67490000000001
 30
0.0
 10
75.5202
 20
99.3377
 30
0.0
 10
75.2295
 20
99.09920000000001
 30
0.0
 10
75.2295
 20
99.09920000000001
 30
0.0
 10
74.9388
 20
98.86070000000001
 30
0.0
 10
74.5719
 20
98.74220000000001
 30
0.0
 10
74.12740000000001
 20
98.74220000000001
 30
0.0
 10
74.12740000000001
 20
98.74220000000001
 30
0.0
 10
73.5432
 20
98.74220000000001
 30
0.0
 10
73.08460000000001
 20
98.95100000000001
 30
0.0
 10
72.75160000000001
 20
99.37010000000001
 30
0.0
 10
72.75160000000001
 20
99.37010000000001
 30
0.0
 10
72.35220000000001
 20
99.87390000000001
 30
0.0
 10
72.1519
 20
100.6966
 30
0.0
 10
72.1519
 20
101.8339
 30
0.0
  0
SPLINE
  5
68
330
1F
100
AcDbEntity
  8
52
 62
   250
100
AcDbSpline
210
0.0
220
0.0
230
1.0
 70
    11
 71
     3
 72
    36
 73
    32
 74
     0
 42
0.0000000001
 43
0.0000000001
 40
0.0
 40
0.0
 40
0.0
 40
0.0
 40
0.125
 40
0.125
 40
0.125
 40
0.125
 40
0.25
 40
0.25
 40
0.25
 40
0.25
 40
0.375
 40
0.375
 40
0.375
 40
0.375
 40
0.5
 40
0.5
 40
0.5
 40
0.5
 40
0.625
 40
0.625
 40
0.625
 40
0.625
 40
0.75
 40
0.75
 40
0.75
 40
0.75
 40
0.875
 40
0.875
 40
0.875
 40
0.875
 40
1.0
 40
1.0
 40
1.0
 40
1.0
 10
72.91670000000001
 20
101.8339
 30
0.0
 10
72.91670000000001
 20
100.8391
 30
0.0
 10
73.0338
 20
100.1773
 30
0.0
 10
73.2667
 20
99.84710000000001
 30
0.0
 10
73.2667
 20
99.84710000000001
 30
0.0
 10
73.4995
 20
99.51830000000001
 30
0.0
 10
73.7859
 20
99.3532
 30
0.0
 10
74.12740000000001
 20
99.3532
 30
0.0
 10
74.12740000000001
 20
99.3532
 30
0.0
 10
74.47030000000001
 20
99.3532
 30
0.0
 10
74.7568
 20
99.5197
 30
0.0
 10
74.98960000000001
 20
99.84990000000001
 30
0.0
 10
74.98960000000001
 20
99.84990000000001
 30
0.0
 10
75.2225
 20
100.1801
 30
0.0
 10
75.3396
 20
100.8419
 30
0.0
 10
75.3396
 20
101.8339
 30
0.0
 10
75.3396
 20
101.8339
 30
0.0
 10
75.3396
 20
102.8316
 30
0.0
 10
75.2225
 20
103.4948
 30
0.0
 10
74.98960000000001
 20
103.8222
 30
0.0
 10
74.98960000000001
 20
103.8222
 30
0.0
 10
74.7568
 20
104.151
 30
0.0
 10
74.4675
 20
104.3147
 30
0.0
 10
74.1204
 20
104.3147
 30
0.0
 10
74.1204
 20
104.3147
 30
0.0
 10
73.7775
 20
104.3147
 30
0.0
 10
73.5051
 20
104.1693
 30
0.0
 10
73.3005
 20
103.8801
 30
0.0
 10
73.3005
 20
103.8801
 30
0.0
 10
73.04510000000001
 20
103.5118
 30
0.0
 10
72.91670000000001
 20
102.8288
 30
0.0
 10
72.91670000000001
 20
101.8339
 30
0.0
  0
SPLINE
  5
69
330
1F
100
AcDbEntity
  8
52
 62
   250
100
AcDbSpline
210
0.0
220
0.0
230
1.0
 70
    11
 71
     3
 72
   116
 73
   112
 74
     0
 42
0.0000000001
 43
0.0000000001
 40
0.0
 40
0.0
 40
0.0
 40
0.0
 40
0.0357142857142857
 40
0.0357142857142857
 40
0.0357142857142857
 40
0.0357142857142857
 40
0.0714285714285714
 40
0.0714285714285714
 40
0.0714285714285714
 40
0.0714285714285714
 40
0.1071428571428571
 40
0.1071428571428571
 40
0.1071428571428571
 40
0.1071428571428571
 40
0.1428571428571429
 40
0.1428571428571429
 40
0.1428571428571429
 40
0.1428571428571429
 40
0.1785714285714286
 40
0.1785714285714286
 40
0.1785714285714286
 40
0.1785714285714286
 40
0.2142857142857143
 40
0.2142857142857143
 40
0.2142857142857143
 40
0.2142857142857143
 40
0.2499999999999999
 40
0.2499999999999999
 40
0.2499999999999999
 40
0.2499999999999999
 40
0.2857142857142856
 40
0.2857142857142856
 40
0.2857142857142856
 40
0.2857142857142856
 40
0.3214285714285713
 40
0.3214285714285713
 40
0.3214285714285713
 40
0.3214285714285713
 40
0.357142857142857
 40
0.357142857142857
 40
0.357142857142857
 40
0.357142857142857
 40
0.3928571428571427
 40
0.3928571428571427
 40
0.3928571428571427
 40
0.3928571428571427
 40
0.4285714285714284
 40
0.4285714285714284
 40
0.4285714285714284
 40
0.4285714285714284
 40
0.4642857142857141
 40
0.4642857142857141
 40
0.4642857142857141
 40
0.4642857142857141
 40
0.4999999999999998
 40
0.4999999999999998
 40
0.4999999999999998
 40
0.4999999999999998
 40
0.5357142857142856
 40
0.5357142857142856
 40
0.5357142857142856
 40
0.5357142857142856
 40
0.5714285714285713
 40
0.5714285714285713
 40
0.5714285714285713
 40
0.5714285714285713
 40
0.607142857142857
 40
0.607142857142857
 40
0.607142857142857
 40
0.607142857142857
 40
0.6428571428571427
 40
0.6428571428571427
 40
0.6428571428571427
 40
0.6428571428571427
 40
0.6785714285714284
 40
0.6785714285714284
 40
0.6785714285714284
 40
0.6785714285714284
 40
0.7142857142857141
 40
0.7142857142857141
 40
0.7142857142857141
 40
0.7142857142857141
 40
0.7499999999999998
 40
0.7499999999999998
 40
0.7499999999999998
 40
0.7499999999999998
 40
0.7857142857142855
 40
0.7857142857142855
 40
0.7857142857142855
 40
0.7857142857142855
 40
0.8214285714285712
 40
0.8214285714285712
 40
0.8214285714285712
 40
0.8214285714285712
 40
0.8571428571428569
 40
0.8571428571428569
 40
0.8571428571428569
 40
0.8571428571428569
 40
0.8928571428571426
 40
0.8928571428571426
 40
0.8928571428571426
 40
0.8928571428571426
 40
0.9285714285714283
 40
0.9285714285714283
 40
0.9285714285714283
 40
0.9285714285714283
 40
0.964285714285714
 40
0.964285714285714
 40
0.964285714285714
 40
0.964285714285714
 40
1.0
 40
1.0
 40
1.0
 40
1.0
 10
79.4205
 20
98.84520000000001
 30
0.0
 10
79.4205
 20
98.84520000000001
 30
0.0
 10
79.4205
 20
103.2352
 30
0.0
 10
79.4205
 20
103.2352
 30
0.0
 10
79.4205
 20
103.2352
 30
0.0
 10
79.4205
 20
103.2352
 30
0.0
 10
80.0851
 20
103.2352
 30
0.0
 10
80.0851
 20
103.2352
 30
0.0
 10
80.0851
 20
103.2352
 30
0.0
 10
80.0851
 20
103.2352
 30
0.0
 10
80.0851
 20
102.6199
 30
0.0
 10
80.0851
 20
102.6199
 30
0.0
 10
80.0851
 20
102.6199
 30
0.0
 10
80.2234
 20
102.8344
 30
0.0
 10
80.40690000000001
 20
103.008
 30
0.0
 10
80.63550000000001
 20
103.1378
 30
0.0
 10
80.63550000000001
 20
103.1378
 30
0.0
 10
80.86410000000001
 20
103.2691
 30
0.0
 10
81.1251
 20
103.3354
 30
0.0
 10
81.41720000000001
 20
103.3354
 30
0.0
 10
81.41720000000001
 20
103.3354
 30
0.0
 10
81.7418
 20
103.3354
 30
0.0
 10
82.0085
 20
103.2676
 30
0.0
 10
82.21590000000001
 20
103.1322
 30
0.0
 10
82.21590000000001
 20
103.1322
 30
0.0
 10
82.42480000000001
 20
102.9967
 30
0.0
 10
82.5715
 20
102.809
 30
0.0
 10
82.6562
 20
102.5663
 30
0.0
 10
82.6562
 20
102.5663
 30
0.0
 10
83.0047
 20
103.0786
 30
0.0
 10
83.4563
 20
103.3354
 30
0.0
 10
84.01230000000001
 20
103.3354
 30
0.0
 10
84.01230000000001
 20
103.3354
 30
0.0
 10
84.4483
 20
103.3354
 30
0.0
 10
84.78270000000001
 20
103.214
 30
0.0
 10
85.01700000000001
 20
102.9727
 30
0.0
 10
85.01700000000001
 20
102.9727
 30
0.0
 10
85.2512
 20
102.7314
 30
0.0
 10
85.36840000000001
 20
102.3603
 30
0.0
 10
85.36840000000001
 20
101.8593
 30
0.0
 10
85.36840000000001
 20
101.8593
 30
0.0
 10
85.36840000000001
 20
101.8593
 30
0.0
 10
85.36840000000001
 20
98.84520000000001
 30
0.0
 10
85.36840000000001
 20
98.84520000000001
 30
0.0
 10
85.36840000000001
 20
98.84520000000001
 30
0.0
 10
85.36840000000001
 20
98.84520000000001
 30
0.0
 10
84.6289
 20
98.84520000000001
 30
0.0
 10
84.6289
 20
98.84520000000001
 30
0.0
 10
84.6289
 20
98.84520000000001
 30
0.0
 10
84.6289
 20
98.84520000000001
 30
0.0
 10
84.6289
 20
101.611
 30
0.0
 10
84.6289
 20
101.611
 30
0.0
 10
84.6289
 20
101.611
 30
0.0
 10
84.6289
 20
101.9087
 30
0.0
 10
84.6049
 20
102.1232
 30
0.0
 10
84.557
 20
102.2545
 30
0.0
 10
84.557
 20
102.2545
 30
0.0
 10
84.50760000000001
 20
102.3843
 30
0.0
 10
84.42010000000001
 20
102.4901
 30
0.0
 10
84.2945
 20
102.5705
 30
0.0
 10
84.2945
 20
102.5705
 30
0.0
 10
84.1675
 20
102.6496
 30
0.0
 10
84.0179
 20
102.6905
 30
0.0
 10
83.8472
 20
102.6905
 30
0.0
 10
83.8472
 20
102.6905
 30
0.0
 10
83.5381
 20
102.6905
 30
0.0
 10
83.28270000000001
 20
102.5875
 30
0.0
 10
83.07810000000001
 20
102.3815
 30
0.0
 10
83.07810000000001
 20
102.3815
 30
0.0
 10
82.87490000000001
 20
102.1768
 30
0.0
 10
82.7719
 20
101.8481
 30
0.0
 10
82.7719
 20
101.3965
 30
0.0
 10
82.7719
 20
101.3965
 30
0.0
 10
82.7719
 20
101.3965
 30
0.0
 10
82.7719
 20
98.84520000000001
 30
0.0
 10
82.7719
 20
98.84520000000001
 30
0.0
 10
82.7719
 20
98.84520000000001
 30
0.0
 10
82.7719
 20
98.84520000000001
 30
0.0
 10
82.0282
 20
98.84520000000001
 30
0.0
 10
82.0282
 20
98.84520000000001
 30
0.0
 10
82.0282
 20
98.84520000000001
 30
0.0
 10
82.0282
 20
98.84520000000001
 30
0.0
 10
82.0282
 20
101.6971
 30
0.0
 10
82.0282
 20
101.6971
 30
0.0
 10
82.0282
 20
101.6971
 30
0.0
 10
82.0282
 20
102.0287
 30
0.0
 10
81.9676
 20
102.277
 30
0.0
 10
81.84620000000001
 20
102.4421
 30
0.0
 10
81.84620000000001
 20
102.4421
 30
0.0
 10
81.72490000000001
 20
102.6072
 30
0.0
 10
81.52730000000001
 20
102.6905
 30
0.0
 10
81.25070000000001
 20
102.6905
 30
0.0
 10
81.25070000000001
 20
102.6905
 30
0.0
 10
81.0419
 20
102.6905
 30
0.0
 10
80.84860000000001
 20
102.6355
 30
0.0
 10
80.6708
 20
102.524
 30
0.0
 10
80.6708
 20
102.524
 30
0.0
 10
80.49300000000001
 20
102.4139
 30
0.0
 10
80.3631
 20
102.253
 30
0.0
 10
80.28410000000001
 20
102.0414
 30
0.0
 10
80.28410000000001
 20
102.0414
 30
0.0
 10
80.2037
 20
101.8283
 30
0.0
 10
80.16420000000001
 20
101.5221
 30
0.0
 10
80.16420000000001
 20
101.1227
 30
0.0
 10
80.16420000000001
 20
101.1227
 30
0.0
 10
80.16420000000001
 20
101.1227
 30
0.0
 10
80.16420000000001
 20
98.84520000000001
 30
0.0
 10
80.16420000000001
 20
98.84520000000001
 30
0.0
 10
80.16420000000001
 20
98.84520000000001
 30
0.0
 10
80.16420000000001
 20
98.84520000000001
 30
0.0
 10
79.4205
 20
98.84520000000001
 30
0.0
 10
79.4205
 20
98.84520000000001
 30
0.0
  0
SPLINE
  5
6A
330
1F
100
AcDbEntity
  8
52
 62
   250
100
AcDbSpline
210
0.0
220
0.0
230
1.0
 70
    11
 71
     3
 72
   116
 73
   112
 74
     0
 42
0.0000000001
 43
0.0000000001
 40
0.0
 40
0.0
 40
0.0
 40
0.0
 40
0.0357142857142857
 40
0.0357142857142857
 40
0.0357142857142857
 40
0.0357142857142857
 40
0.0714285714285714
 40
0.0714285714285714
 40
0.0714285714285714
 40
0.0714285714285714
 40
0.1071428571428571
 40
0.1071428571428571
 40
0.1071428571428571
 40
0.1071428571428571
 40
0.1428571428571429
 40
0.1428571428571429
 40
0.1428571428571429
 40
0.1428571428571429
 40
0.1785714285714286
 40
0.1785714285714286
 40
0.1785714285714286
 40
0.1785714285714286
 40
0.2142857142857143
 40
0.2142857142857143
 40
0.2142857142857143
 40
0.2142857142857143
 40
0.2499999999999999
 40
0.2499999999999999
 40
0.2499999999999999
 40
0.2499999999999999
 40
0.2857142857142856
 40
0.2857142857142856
 40
0.2857142857142856
 40
0.2857142857142856
 40
0.3214285714285713
 40
0.3214285714285713
 40
0.3214285714285713
 40
0.3214285714285713
 40
0.357142857142857
 40
0.357142857142857
 40
0.357142857142857
 40
0.357142857142857
 40
0.3928571428571427
 40
0.3928571428571427
 40
0.3928571428571427
 40
0.3928571428571427
 40
0.4285714285714284
 40
0.4285714285714284
 40
0.4285714285714284
 40
0.4285714285714284
 40
0.4642857142857141
 40
0.4642857142857141
 40
0.4642857142857141
 40
0.4642857142857141
 40
0.4999999999999998
 40
0.4999999999999998
 40
0.4999999999999998
 40
0.4999999999999998
 40
0.5357142857142856
 40
0.5357142857142856
 40
0.5357142857142856
 40
0.5357142857142856
 40
0.5714285714285713
 40
0.5714285714285713
 40
0.5714285714285713
 40
0.5714285714285713
 40
0.607142857142857
 40
0.607142857142857
 40
0.607142857142857
 40
0.607142857142857
 40
0.6428571428571427
 40
0.6428571428571427
 40
0.6428571428571427
 40
0.6428571428571427
 40
0.6785714285714284
 40
0.6785714285714284
 40
0.6785714285714284
 40
0.6785714285714284
 40
0.7142857142857141
 40
0.7142857142857141
 40
0.7142857142857141
 40
0.7142857142857141
 40
0.7499999999999998
 40
0.7499999999999998
 40
0.7499999999999998
 40
0.7499999999999998
 40
0.7857142857142855
 40
0.7857142857142855
 40
0.7857142857142855
 40
0.7857142857142855
 40
0.8214285714285712
 40
0.8214285714285712
 40
0.8214285714285712
 40
0.8214285714285712
 40
0.8571428571428569
 40
0.8571428571428569
 40
0.8571428571428569
 40
0.8571428571428569
 40
0.8928571428571426
 40
0.8928571428571426
 40
0.8928571428571426
 40
0.8928571428571426
 40
0.9285714285714283
 40
0.9285714285714283
 40
0.9285714285714283
 40
0.9285714285714283
 40
0.964285714285714
 40
0.964285714285714
 40
0.964285714285714
 40
0.964285714285714
 40
1.0
 40
1.0
 40
1.0
 40
1.0
 10
86.47330000000001
 20
98.84520000000001
 30
0.0
 10
86.47330000000001
 20
98.84520000000001
 30
0.0
 10
86.47330000000001
 20
103.2352
 30
0.0
 10
86.47330000000001
 20
103.2352
 30
0.0
 10
86.47330000000001
 20
103.2352
 30
0.0
 10
86.47330000000001
 20
103.2352
 30
0.0
 10
87.1379
 20
103.2352
 30
0.0
 10
87.1379
 20
103.2352
 30
0.0
 10
87.1379
 20
103.2352
 30
0.0
 10
87.1379
 20
103.2352
 30
0.0
 10
87.1379
 20
102.6199
 30
0.0
 10
87.1379
 20
102.6199
 30
0.0
 10
87.1379
 20
102.6199
 30
0.0
 10
87.2762
 20
102.8344
 30
0.0
 10
87.4597
 20
103.008
 30
0.0
 10
87.6883
 20
103.1378
 30
0.0
 10
87.6883
 20
103.1378
 30
0.0
 10
87.9169
 20
103.2691
 30
0.0
 10
88.17790000000001
 20
103.3354
 30
0.0
 10
88.47
 20
103.3354
 30
0.0
 10
88.47
 20
103.3354
 30
0.0
 10
88.7946
 20
103.3354
 30
0.0
 10
89.0613
 20
103.2676
 30
0.0
 10
89.26870000000001
 20
103.1322
 30
0.0
 10
89.26870000000001
 20
103.1322
 30
0.0
 10
89.47760000000001
 20
102.9967
 30
0.0
 10
89.62430000000001
 20
102.809
 30
0.0
 10
89.709
 20
102.5663
 30
0.0
 10
89.709
 20
102.5663
 30
0.0
 10
90.05750000000001
 20
103.0786
 30
0.0
 10
90.5091
 20
103.3354
 30
0.0
 10
91.0651
 20
103.3354
 30
0.0
 10
91.0651
 20
103.3354
 30
0.0
 10
91.50110000000001
 20
103.3354
 30
0.0
 10
91.83550000000001
 20
103.214
 30
0.0
 10
92.0698
 20
102.9727
 30
0.0
 10
92.0698
 20
102.9727
 30
0.0
 10
92.304
 20
102.7314
 30
0.0
 10
92.4212
 20
102.3603
 30
0.0
 10
92.4212
 20
101.8593
 30
0.0
 10
92.4212
 20
101.8593
 30
0.0
 10
92.4212
 20
101.8593
 30
0.0
 10
92.4212
 20
98.84520000000001
 30
0.0
 10
92.4212
 20
98.84520000000001
 30
0.0
 10
92.4212
 20
98.84520000000001
 30
0.0
 10
92.4212
 20
98.84520000000001
 30
0.0
 10
91.68170000000001
 20
98.84520000000001
 30
0.0
 10
91.68170000000001
 20
98.84520000000001
 30
0.0
 10
91.68170000000001
 20
98.84520000000001
 30
0.0
 10
91.68170000000001
 20
98.84520000000001
 30
0.0
 10
91.68170000000001
 20
101.611
 30
0.0
 10
91.68170000000001
 20
101.611
 30
0.0
 10
91.68170000000001
 20
101.611
 30
0.0
 10
91.68170000000001
 20
101.9087
 30
0.0
 10
91.65770000000001
 20
102.1232
 30
0.0
 10
91.60980000000001
 20
102.2545
 30
0.0
 10
91.60980000000001
 20
102.2545
 30
0.0
 10
91.5604
 20
102.3843
 30
0.0
 10
91.47290000000001
 20
102.4901
 30
0.0
 10
91.3473
 20
102.5705
 30
0.0
 10
91.3473
 20
102.5705
 30
0.0
 10
91.22030000000001
 20
102.6496
 30
0.0
 10
91.0707
 20
102.6905
 30
0.0
 10
90.90000000000001
 20
102.6905
 30
0.0
 10
90.90000000000001
 20
102.6905
 30
0.0
 10
90.59090000000001
 20
102.6905
 30
0.0
 10
90.33550000000001
 20
102.5875
 30
0.0
 10
90.13090000000001
 20
102.3815
 30
0.0
 10
90.13090000000001
 20
102.3815
 30
0.0
 10
89.9277
 20
102.1768
 30
0.0
 10
89.82470000000001
 20
101.8481
 30
0.0
 10
89.82470000000001
 20
101.3965
 30
0.0
 10
89.82470000000001
 20
101.3965
 30
0.0
 10
89.82470000000001
 20
101.3965
 30
0.0
 10
89.82470000000001
 20
98.84520000000001
 30
0.0
 10
89.82470000000001
 20
98.84520000000001
 30
0.0
 10
89.82470000000001
 20
98.84520000000001
 30
0.0
 10
89.82470000000001
 20
98.84520000000001
 30
0.0
 10
89.081
 20
98.84520000000001
 30
0.0
 10
89.081
 20
98.84520000000001
 30
0.0
 10
89.081
 20
98.84520000000001
 30
0.0
 10
89.081
 20
98.84520000000001
 30
0.0
 10
89.081
 20
101.6971
 30
0.0
 10
89.081
 20
101.6971
 30
0.0
 10
89.081
 20
101.6971
 30
0.0
 10
89.081
 20
102.0287
 30
0.0
 10
89.02040000000001
 20
102.277
 30
0.0
 10
88.899
 20
102.4421
 30
0.0
 10
88.899
 20
102.4421
 30
0.0
 10
88.77770000000001
 20
102.6072
 30
0.0
 10
88.5801
 20
102.6905
 30
0.0
 10
88.3035
 20
102.6905
 30
0.0
 10
88.3035
 20
102.6905
 30
0.0
 10
88.0947
 20
102.6905
 30
0.0
 10
87.90140000000001
 20
102.6355
 30
0.0
 10
87.72360000000001
 20
102.524
 30
0.0
 10
87.72360000000001
 20
102.524
 30
0.0
 10
87.5458
 20
102.4139
 30
0.0
 10
87.41590000000001
 20
102.253
 30
0.0
 10
87.3369
 20
102.0414
 30
0.0
 10
87.3369
 20
102.0414
 30
0.0
 10
87.2565
 20
101.8283
 30
0.0
 10
87.217
 20
101.5221
 30
0.0
 10
87.217
 20
101.1227
 30
0.0
 10
87.217
 20
101.1227
 30
0.0
 10
87.217
 20
101.1227
 30
0.0
 10
87.217
 20
98.84520000000001
 30
0.0
 10
87.217
 20
98.84520000000001
 30
0.0
 10
87.217
 20
98.84520000000001
 30
0.0
 10
87.217
 20
98.84520000000001
 30
0.0
 10
86.47330000000001
 20
98.84520000000001
 30
0.0
 10
86.47330000000001
 20
98.84520000000001
 30
0.0
  0
SPLINE
  5
6B
330
1F
100
AcDbEntity
  8
52
 62
   250
370
     5
100
AcDbSpline
210
0.0
220
0.0
230
1.0
 70
    24
 71
     3
 72
     8
 73
     4
 74
     0
 42
0.0000000001
 43
0.0000000001
 40
0.0
 40
0.0
 40
0.0
 40
0.0
 40
1.0
 40
1.0
 40
1.0
 40
1.0
 10
-132.6324
 20
-41.3418
 30
0.0
 10
-132.6324
 20
-41.3418
 30
0.0
 10
-132.6324
 20
-64.52930000000001
 30
0.0
 10
-132.6324
 20
-64.52930000000001
 30
0.0
  0
SPLINE
  5
6C
330
1F
100
AcDbEntity
  8
52
 62
   250
370
     5
100
AcDbSpline
210
0.0
220
0.0
230
1.0
 70
    24
 71
     3
 72
     8
 73
     4
 74
     0
 42
0.0000000001
 43
0.0000000001
 40
0.0
 40
0.0
 40
0.0
 40
0.0
 40
1.0
 40
1.0
 40
1.0
 40
1.0
 10
-137.6325
 20
-41.3418
 30
0.0
 10
-137.6325
 20
-41.3418
 30
0.0
 10
-137.6325
 20
-64.52930000000001
 30
0.0
 10
-137.6325
 20
-64.52930000000001
 30
0.0
  0
SPLINE
  5
6D
330
1F
100
AcDbEntity
  8
52
 62
   250
370
     5
100
AcDbSpline
210
0.0
220
0.0
230
1.0
 70
    24
 71
     3
 72
     8
 73
     4
 74
     0
 42
0.0000000001
 43
0.0000000001
 40
0.0
 40
0.0
 40
0.0
 40
0.0
 40
1.0
 40
1.0
 40
1.0
 40
1.0
 10
-132.6324
 20
-59.4493
 30
0.0
 10
-132.6324
 20
-59.4493
 30
0.0
 10
-137.6325
 20
-59.4493
 30
0.0
 10
-137.6325
 20
-59.4493
 30
0.0
  0
SPLINE
  5
6E
330
1F
100
AcDbEntity
  8
52
 62
   250
100
AcDbSpline
210
0.0
220
0.0
230
1.0
 70
    11
 71
     3
 72
    92
 73
    88
 74
     0
 42
0.0000000001
 43
0.0000000001
 40
0.0
 40
0.0
 40
0.0
 40
0.0
 40
0.0454545454545455
 40
0.0454545454545455
 40
0.0454545454545455
 40
0.0454545454545455
 40
0.0909090909090909
 40
0.0909090909090909
 40
0.0909090909090909
 40
0.0909090909090909
 40
0.1363636363636364
 40
0.1363636363636364
 40
0.1363636363636364
 40
0.1363636363636364
 40
0.1818181818181818
 40
0.1818181818181818
 40
0.1818181818181818
 40
0.1818181818181818
 40
0.2272727272727273
 40
0.2272727272727273
 40
0.2272727272727273
 40
0.2272727272727273
 40
0.2727272727272728
 40
0.2727272727272728
 40
0.2727272727272728
 40
0.2727272727272728
 40
0.3181818181818182
 40
0.3181818181818182
 40
0.3181818181818182
 40
0.3181818181818182
 40
0.3636363636363637
 40
0.3636363636363637
 40
0.3636363636363637
 40
0.3636363636363637
 40
0.4090909090909092
 40
0.4090909090909092
 40
0.4090909090909092
 40
0.4090909090909092
 40
0.4545454545454546
 40
0.4545454545454546
 40
0.4545454545454546
 40
0.4545454545454546
 40
0.5000000000000001
 40
0.5000000000000001
 40
0.5000000000000001
 40
0.5000000000000001
 40
0.5454545454545455
 40
0.5454545454545455
 40
0.5454545454545455
 40
0.5454545454545455
 40
0.5909090909090909
 40
0.5909090909090909
 40
0.5909090909090909
 40
0.5909090909090909
 40
0.6363636363636364
 40
0.6363636363636364
 40
0.6363636363636364
 40
0.6363636363636364
 40
0.6818181818181818
 40
0.6818181818181818
 40
0.6818181818181818
 40
0.6818181818181818
 40
0.7272727272727272
 40
0.7272727272727272
 40
0.7272727272727272
 40
0.7272727272727272
 40
0.7727272727272726
 40
0.7727272727272726
 40
0.7727272727272726
 40
0.7727272727272726
 40
0.818181818181818
 40
0.818181818181818
 40
0.818181818181818
 40
0.818181818181818
 40
0.8636363636363634
 40
0.8636363636363634
 40
0.8636363636363634
 40
0.8636363636363634
 40
0.9090909090909088
 40
0.9090909090909088
 40
0.9090909090909088
 40
0.9090909090909088
 40
0.9545454545454543
 40
0.9545454545454543
 40
0.9545454545454543
 40
0.9545454545454543
 40
1.0
 40
1.0
 40
1.0
 40
1.0
 10
-125.931
 20
-60.8534
 30
0.0
 10
-125.931
 20
-60.8534
 30
0.0
 10
-125.1493
 20
-60.7871
 30
0.0
 10
-125.1493
 20
-60.7871
 30
0.0
 10
-125.1493
 20
-60.7871
 30
0.0
 10
-125.0914
 20
-61.1681
 30
0.0
 10
-124.9574
 20
-61.45310000000001
 30
0.0
 10
-124.7471
 20
-61.645
 30
0.0
 10
-124.7471
 20
-61.645
 30
0.0
 10
-124.5354
 20
-61.8369
 30
0.0
 10
-124.2814
 20
-61.9329
 30
0.0
 10
-123.9837
 20
-61.9329
 30
0.0
 10
-123.9837
 20
-61.9329
 30
0.0
 10
-123.6253
 20
-61.9329
 30
0.0
 10
-123.3219
 20
-61.7974
 30
0.0
 10
-123.0749
 20
-61.5279
 30
0.0
 10
-123.0749
 20
-61.5279
 30
0.0
 10
-122.8266
 20
-61.25700000000001
 30
0.0
 10
-122.7024
 20
-60.89850000000001
 30
0.0
 10
-122.7024
 20
-60.4526
 30
0.0
 10
-122.7024
 20
-60.4526
 30
0.0
 10
-122.7024
 20
-60.0279
 30
0.0
 10
-122.8209
 20
-59.6935
 30
0.0
 10
-123.0594
 20
-59.4479
 30
0.0
 10
-123.0594
 20
-59.4479
 30
0.0
 10
-123.2979
 20
-59.2024
 30
0.0
 10
-123.6097
 20
-59.07960000000001
 30
0.0
 10
-123.9964
 20
-59.07960000000001
 30
0.0
 10
-123.9964
 20
-59.07960000000001
 30
0.0
 10
-124.2363
 20
-59.07960000000001
 30
0.0
 10
-124.4522
 20
-59.1347
 30
0.0
 10
-124.6455
 20
-59.24330000000001
 30
0.0
 10
-124.6455
 20
-59.24330000000001
 30
0.0
 10
-124.8388
 20
-59.352
 30
0.0
 10
-124.9898
 20
-59.49310000000001
 30
0.0
 10
-125.0999
 20
-59.6666
 30
0.0
 10
-125.0999
 20
-59.6666
 30
0.0
 10
-125.0999
 20
-59.6666
 30
0.0
 10
-125.7984
 20
-59.5763
 30
0.0
 10
-125.7984
 20
-59.5763
 30
0.0
 10
-125.7984
 20
-59.5763
 30
0.0
 10
-125.7984
 20
-59.5763
 30
0.0
 10
-125.2114
 20
-56.4634
 30
0.0
 10
-125.2114
 20
-56.4634
 30
0.0
 10
-125.2114
 20
-56.4634
 30
0.0
 10
-125.2114
 20
-56.4634
 30
0.0
 10
-122.1972
 20
-56.4634
 30
0.0
 10
-122.1972
 20
-56.4634
 30
0.0
 10
-122.1972
 20
-56.4634
 30
0.0
 10
-122.1972
 20
-56.4634
 30
0.0
 10
-122.1972
 20
-57.17460000000001
 30
0.0
 10
-122.1972
 20
-57.17460000000001
 30
0.0
 10
-122.1972
 20
-57.17460000000001
 30
0.0
 10
-122.1972
 20
-57.17460000000001
 30
0.0
 10
-124.6159
 20
-57.17460000000001
 30
0.0
 10
-124.6159
 20
-57.17460000000001
 30
0.0
 10
-124.6159
 20
-57.17460000000001
 30
0.0
 10
-124.6159
 20
-57.17460000000001
 30
0.0
 10
-124.9433
 20
-58.803
 30
0.0
 10
-124.9433
 20
-58.803
 30
0.0
 10
-124.9433
 20
-58.803
 30
0.0
 10
-124.5792
 20
-58.549
 30
0.0
 10
-124.1968
 20
-58.422
 30
0.0
 10
-123.7974
 20
-58.422
 30
0.0
 10
-123.7974
 20
-58.422
 30
0.0
 10
-123.2683
 20
-58.422
 30
0.0
 10
-122.8223
 20
-58.6055
 30
0.0
 10
-122.4583
 20
-58.9724
 30
0.0
 10
-122.4583
 20
-58.9724
 30
0.0
 10
-122.0942
 20
-59.3393
 30
0.0
 10
-121.9122
 20
-59.8106
 30
0.0
 10
-121.9122
 20
-60.38630000000001
 30
0.0
 10
-121.9122
 20
-60.38630000000001
 30
0.0
 10
-121.9122
 20
-60.9352
 30
0.0
 10
-122.073
 20
-61.40940000000001
 30
0.0
 10
-122.392
 20
-61.8087
 30
0.0
 10
-122.392
 20
-61.8087
 30
0.0
 10
-122.7814
 20
-62.2984
 30
0.0
 10
-123.312
 20
-62.5439
 30
0.0
 10
-123.9837
 20
-62.5439
 30
0.0
 10
-123.9837
 20
-62.5439
 30
0.0
 10
-124.5354
 20
-62.5439
 30
0.0
 10
-124.9856
 20
-62.3901
 30
0.0
 10
-125.3341
 20
-62.08110000000001
 30
0.0
 10
-125.3341
 20
-62.08110000000001
 30
0.0
 10
-125.6827
 20
-61.77200000000001
 30
0.0
 10
-125.8816
 20
-61.3628
 30
0.0
 10
-125.931
 20
-60.8534
 30
0.0
  0
SPLINE
  5
6F
330
1F
100
AcDbEntity
  8
52
 62
   250
100
AcDbSpline
210
0.0
220
0.0
230
1.0
 70
    11
 71
     3
 72
    20
 73
    16
 74
     0
 42
0.0000000001
 43
0.0000000001
 40
0.0
 40
0.0
 40
0.0
 40
0.0
 40
0.25
 40
0.25
 40
0.25
 40
0.25
 40
0.5
 40
0.5
 40
0.5
 40
0.5
 40
0.75
 40
0.75
 40
0.75
 40
0.75
 40
1.0
 40
1.0
 40
1.0
 40
1.0
 10
-120.8044
 20
-62.44090000000001
 30
0.0
 10
-120.8044
 20
-62.44090000000001
 30
0.0
 10
-120.8044
 20
-61.5928
 30
0.0
 10
-120.8044
 20
-61.5928
 30
0.0
 10
-120.8044
 20
-61.5928
 30
0.0
 10
-120.8044
 20
-61.5928
 30
0.0
 10
-119.9564
 20
-61.5928
 30
0.0
 10
-119.9564
 20
-61.5928
 30
0.0
 10
-119.9564
 20
-61.5928
 30
0.0
 10
-119.9564
 20
-61.5928
 30
0.0
 10
-119.9564
 20
-62.44090000000001
 30
0.0
 10
-119.9564
 20
-62.44090000000001
 30
0.0
 10
-119.9564
 20
-62.44090000000001
 30
0.0
 10
-119.9564
 20
-62.44090000000001
 30
0.0
 10
-120.8044
 20
-62.44090000000001
 30
0.0
 10
-120.8044
 20
-62.44090000000001
 30
0.0
  0
SPLINE
  5
70
330
1F
100
AcDbEntity
  8
52
 62
   250
100
AcDbSpline
210
0.0
220
0.0
230
1.0
 70
    11
 71
     3
 72
    52
 73
    48
 74
     0
 42
0.0000000001
 43
0.0000000001
 40
0.0
 40
0.0
 40
0.0
 40
0.0
 40
0.0833333333333333
 40
0.0833333333333333
 40
0.0833333333333333
 40
0.0833333333333333
 40
0.1666666666666667
 40
0.1666666666666667
 40
0.1666666666666667
 40
0.1666666666666667
 40
0.25
 40
0.25
 40
0.25
 40
0.25
 40
0.3333333333333333
 40
0.3333333333333333
 40
0.3333333333333333
 40
0.3333333333333333
 40
0.4166666666666666
 40
0.4166666666666666
 40
0.4166666666666666
 40
0.4166666666666666
 40
0.4999999999999999
 40
0.4999999999999999
 40
0.4999999999999999
 40
0.4999999999999999
 40
0.5833333333333333
 40
0.5833333333333333
 40
0.5833333333333333
 40
0.5833333333333333
 40
0.6666666666666666
 40
0.6666666666666666
 40
0.6666666666666666
 40
0.6666666666666666
 40
0.75
 40
0.75
 40
0.75
 40
0.75
 40
0.8333333333333334
 40
0.8333333333333334
 40
0.8333333333333334
 40
0.8333333333333334
 40
0.9166666666666667
 40
0.9166666666666667
 40
0.9166666666666667
 40
0.9166666666666667
 40
1.0
 40
1.0
 40
1.0
 40
1.0
 10
-118.8698
 20
-59.45220000000001
 30
0.0
 10
-118.8698
 20
-58.7353
 30
0.0
 10
-118.7965
 20
-58.1582
 30
0.0
 10
-118.6483
 20
-57.72210000000001
 30
0.0
 10
-118.6483
 20
-57.72210000000001
 30
0.0
 10
-118.5015
 20
-57.2847
 30
0.0
 10
-118.2814
 20
-56.9474
 30
0.0
 10
-117.9907
 20
-56.7104
 30
0.0
 10
-117.9907
 20
-56.7104
 30
0.0
 10
-117.7
 20
-56.4733
 30
0.0
 10
-117.3345
 20
-56.3548
 30
0.0
 10
-116.8943
 20
-56.3548
 30
0.0
 10
-116.8943
 20
-56.3548
 30
0.0
 10
-116.5683
 20
-56.3548
 30
0.0
 10
-116.2833
 20
-56.4211
 30
0.0
 10
-116.0377
 20
-56.5523
 30
0.0
 10
-116.0377
 20
-56.5523
 30
0.0
 10
-115.7922
 20
-56.68210000000001
 30
0.0
 10
-115.5904
 20
-56.8712
 30
0.0
 10
-115.4295
 20
-57.1182
 30
0.0
 10
-115.4295
 20
-57.1182
 30
0.0
 10
-115.2701
 20
-57.36510000000001
 30
0.0
 10
-115.1445
 20
-57.6657
 30
0.0
 10
-115.0542
 20
-58.0199
 30
0.0
 10
-115.0542
 20
-58.0199
 30
0.0
 10
-114.9624
 20
-58.37410000000001
 30
0.0
 10
-114.9173
 20
-58.85100000000001
 30
0.0
 10
-114.9173
 20
-59.45220000000001
 30
0.0
 10
-114.9173
 20
-59.45220000000001
 30
0.0
 10
-114.9173
 20
-60.1634
 30
0.0
 10
-114.9907
 20
-60.7363
 30
0.0
 10
-115.136
 20
-61.1737
 30
0.0
 10
-115.136
 20
-61.1737
 30
0.0
 10
-115.2828
 20
-61.6112
 30
0.0
 10
-115.5015
 20
-61.9484
 30
0.0
 10
-115.7922
 20
-62.1869
 30
0.0
 10
-115.7922
 20
-62.1869
 30
0.0
 10
-116.0829
 20
-62.4254
 30
0.0
 10
-116.4498
 20
-62.5439
 30
0.0
 10
-116.8943
 20
-62.5439
 30
0.0
 10
-116.8943
 20
-62.5439
 30
0.0
 10
-117.4785
 20
-62.5439
 30
0.0
 10
-117.9371
 20
-62.3351
 30
0.0
 10
-118.2701
 20
-61.916
 30
0.0
 10
-118.2701
 20
-61.916
 30
0.0
 10
-118.6695
 20
-61.41220000000001
 30
0.0
 10
-118.8698
 20
-60.5895
 30
0.0
 10
-118.8698
 20
-59.45220000000001
 30
0.0
  0
SPLINE
  5
71
330
1F
100
AcDbEntity
  8
52
 62
   250
100
AcDbSpline
210
0.0
220
0.0
230
1.0
 70
    11
 71
     3
 72
    36
 73
    32
 74
     0
 42
0.0000000001
 43
0.0000000001
 40
0.0
 40
0.0
 40
0.0
 40
0.0
 40
0.125
 40
0.125
 40
0.125
 40
0.125
 40
0.25
 40
0.25
 40
0.25
 40
0.25
 40
0.375
 40
0.375
 40
0.375
 40
0.375
 40
0.5
 40
0.5
 40
0.5
 40
0.5
 40
0.625
 40
0.625
 40
0.625
 40
0.625
 40
0.75
 40
0.75
 40
0.75
 40
0.75
 40
0.875
 40
0.875
 40
0.875
 40
0.875
 40
1.0
 40
1.0
 40
1.0
 40
1.0
 10
-118.105
 20
-59.45220000000001
 30
0.0
 10
-118.105
 20
-60.447
 30
0.0
 10
-117.9879
 20
-61.1088
 30
0.0
 10
-117.755
 20
-61.439
 30
0.0
 10
-117.755
 20
-61.439
 30
0.0
 10
-117.5222
 20
-61.7678
 30
0.0
 10
-117.2358
 20
-61.9329
 30
0.0
 10
-116.8943
 20
-61.9329
 30
0.0
 10
-116.8943
 20
-61.9329
 30
0.0
 10
-116.5514
 20
-61.9329
 30
0.0
 10
-116.2649
 20
-61.7664
 30
0.0
 10
-116.0321
 20
-61.4362
 30
0.0
 10
-116.0321
 20
-61.4362
 30
0.0
 10
-115.7992
 20
-61.106
 30
0.0
 10
-115.6821
 20
-60.4442
 30
0.0
 10
-115.6821
 20
-59.45220000000001
 30
0.0
 10
-115.6821
 20
-59.45220000000001
 30
0.0
 10
-115.6821
 20
-58.4545
 30
0.0
 10
-115.7992
 20
-57.7913
 30
0.0
 10
-116.0321
 20
-57.4639
 30
0.0
 10
-116.0321
 20
-57.4639
 30
0.0
 10
-116.2649
 20
-57.1351
 30
0.0
 10
-116.5542
 20
-56.9714
 30
0.0
 10
-116.9013
 20
-56.9714
 30
0.0
 10
-116.9013
 20
-56.9714
 30
0.0
 10
-117.2442
 20
-56.9714
 30
0.0
 10
-117.5166
 20
-57.11680000000001
 30
0.0
 10
-117.7212
 20
-57.40600000000001
 30
0.0
 10
-117.7212
 20
-57.40600000000001
 30
0.0
 10
-117.9766
 20
-57.7743
 30
0.0
 10
-118.105
 20
-58.4573
 30
0.0
 10
-118.105
 20
-59.45220000000001
 30
0.0
  0
SPLINE
  5
72
330
1F
100
AcDbEntity
  8
52
 62
   250
100
AcDbSpline
210
0.0
220
0.0
230
1.0
 70
    11
 71
     3
 72
    52
 73
    48
 74
     0
 42
0.0000000001
 43
0.0000000001
 40
0.0
 40
0.0
 40
0.0
 40
0.0
 40
0.0833333333333333
 40
0.0833333333333333
 40
0.0833333333333333
 40
0.0833333333333333
 40
0.1666666666666667
 40
0.1666666666666667
 40
0.1666666666666667
 40
0.1666666666666667
 40
0.25
 40
0.25
 40
0.25
 40
0.25
 40
0.3333333333333333
 40
0.3333333333333333
 40
0.3333333333333333
 40
0.3333333333333333
 40
0.4166666666666666
 40
0.4166666666666666
 40
0.4166666666666666
 40
0.4166666666666666
 40
0.4999999999999999
 40
0.4999999999999999
 40
0.4999999999999999
 40
0.4999999999999999
 40
0.5833333333333333
 40
0.5833333333333333
 40
0.5833333333333333
 40
0.5833333333333333
 40
0.6666666666666666
 40
0.6666666666666666
 40
0.6666666666666666
 40
0.6666666666666666
 40
0.75
 40
0.75
 40
0.75
 40
0.75
 40
0.8333333333333334
 40
0.8333333333333334
 40
0.8333333333333334
 40
0.8333333333333334
 40
0.9166666666666667
 40
0.9166666666666667
 40
0.9166666666666667
 40
0.9166666666666667
 40
1.0
 40
1.0
 40
1.0
 40
1.0
 10
-114.1609
 20
-59.45220000000001
 30
0.0
 10
-114.1609
 20
-58.7353
 30
0.0
 10
-114.0876
 20
-58.1582
 30
0.0
 10
-113.9394
 20
-57.72210000000001
 30
0.0
 10
-113.9394
 20
-57.72210000000001
 30
0.0
 10
-113.7926
 20
-57.2847
 30
0.0
 10
-113.5725
 20
-56.9474
 30
0.0
 10
-113.2818
 20
-56.7104
 30
0.0
 10
-113.2818
 20
-56.7104
 30
0.0
 10
-112.9911
 20
-56.4733
 30
0.0
 10
-112.6256
 20
-56.3548
 30
0.0
 10
-112.1854
 20
-56.3548
 30
0.0
 10
-112.1854
 20
-56.3548
 30
0.0
 10
-111.8594
 20
-56.3548
 30
0.0
 10
-111.5744
 20
-56.4211
 30
0.0
 10
-111.3288
 20
-56.5523
 30
0.0
 10
-111.3288
 20
-56.5523
 30
0.0
 10
-111.0833
 20
-56.68210000000001
 30
0.0
 10
-110.8815
 20
-56.8712
 30
0.0
 10
-110.7206
 20
-57.1182
 30
0.0
 10
-110.7206
 20
-57.1182
 30
0.0
 10
-110.5612
 20
-57.36510000000001
 30
0.0
 10
-110.4356
 20
-57.6657
 30
0.0
 10
-110.3453
 20
-58.0199
 30
0.0
 10
-110.3453
 20
-58.0199
 30
0.0
 10
-110.2535
 20
-58.37410000000001
 30
0.0
 10
-110.2084
 20
-58.85100000000001
 30
0.0
 10
-110.2084
 20
-59.45220000000001
 30
0.0
 10
-110.2084
 20
-59.45220000000001
 30
0.0
 10
-110.2084
 20
-60.1634
 30
0.0
 10
-110.2818
 20
-60.7363
 30
0.0
 10
-110.4271
 20
-61.1737
 30
0.0
 10
-110.4271
 20
-61.1737
 30
0.0
 10
-110.5739
 20
-61.6112
 30
0.0
 10
-110.7926
 20
-61.9484
 30
0.0
 10
-111.0833
 20
-62.1869
 30
0.0
 10
-111.0833
 20
-62.1869
 30
0.0
 10
-111.374
 20
-62.4254
 30
0.0
 10
-111.7409
 20
-62.5439
 30
0.0
 10
-112.1854
 20
-62.5439
 30
0.0
 10
-112.1854
 20
-62.5439
 30
0.0
 10
-112.7696
 20
-62.5439
 30
0.0
 10
-113.2282
 20
-62.3351
 30
0.0
 10
-113.5612
 20
-61.916
 30
0.0
 10
-113.5612
 20
-61.916
 30
0.0
 10
-113.9606
 20
-61.41220000000001
 30
0.0
 10
-114.1609
 20
-60.5895
 30
0.0
 10
-114.1609
 20
-59.45220000000001
 30
0.0
  0
SPLINE
  5
73
330
1F
100
AcDbEntity
  8
52
 62
   250
100
AcDbSpline
210
0.0
220
0.0
230
1.0
 70
    11
 71
     3
 72
    36
 73
    32
 74
     0
 42
0.0000000001
 43
0.0000000001
 40
0.0
 40
0.0
 40
0.0
 40
0.0
 40
0.125
 40
0.125
 40
0.125
 40
0.125
 40
0.25
 40
0.25
 40
0.25
 40
0.25
 40
0.375
 40
0.375
 40
0.375
 40
0.375
 40
0.5
 40
0.5
 40
0.5
 40
0.5
 40
0.625
 40
0.625
 40
0.625
 40
0.625
 40
0.75
 40
0.75
 40
0.75
 40
0.75
 40
0.875
 40
0.875
 40
0.875
 40
0.875
 40
1.0
 40
1.0
 40
1.0
 40
1.0
 10
-113.3961
 20
-59.45220000000001
 30
0.0
 10
-113.3961
 20
-60.447
 30
0.0
 10
-113.279
 20
-61.1088
 30
0.0
 10
-113.0461
 20
-61.439
 30
0.0
 10
-113.0461
 20
-61.439
 30
0.0
 10
-112.8133
 20
-61.7678
 30
0.0
 10
-112.5269
 20
-61.9329
 30
0.0
 10
-112.1854
 20
-61.9329
 30
0.0
 10
-112.1854
 20
-61.9329
 30
0.0
 10
-111.8425
 20
-61.9329
 30
0.0
 10
-111.556
 20
-61.7664
 30
0.0
 10
-111.3232
 20
-61.4362
 30
0.0
 10
-111.3232
 20
-61.4362
 30
0.0
 10
-111.0903
 20
-61.106
 30
0.0
 10
-110.9732
 20
-60.4442
 30
0.0
 10
-110.9732
 20
-59.45220000000001
 30
0.0
 10
-110.9732
 20
-59.45220000000001
 30
0.0
 10
-110.9732
 20
-58.4545
 30
0.0
 10
-111.0903
 20
-57.7913
 30
0.0
 10
-111.3232
 20
-57.4639
 30
0.0
 10
-111.3232
 20
-57.4639
 30
0.0
 10
-111.556
 20
-57.1351
 30
0.0
 10
-111.8453
 20
-56.9714
 30
0.0
 10
-112.1924
 20
-56.9714
 30
0.0
 10
-112.1924
 20
-56.9714
 30
0.0
 10
-112.5353
 20
-56.9714
 30
0.0
 10
-112.8077
 20
-57.11680000000001
 30
0.0
 10
-113.0123
 20
-57.40600000000001
 30
0.0
 10
-113.0123
 20
-57.40600000000001
 30
0.0
 10
-113.2677
 20
-57.7743
 30
0.0
 10
-113.3961
 20
-58.4573
 30
0.0
 10
-113.3961
 20
-59.45220000000001
 30
0.0
  0
SPLINE
  5
74
330
1F
100
AcDbEntity
  8
52
 62
   250
100
AcDbSpline
210
0.0
220
0.0
230
1.0
 70
    11
 71
     3
 72
   116
 73
   112
 74
     0
 42
0.0000000001
 43
0.0000000001
 40
0.0
 40
0.0
 40
0.0
 40
0.0
 40
0.0357142857142857
 40
0.0357142857142857
 40
0.0357142857142857
 40
0.0357142857142857
 40
0.0714285714285714
 40
0.0714285714285714
 40
0.0714285714285714
 40
0.0714285714285714
 40
0.1071428571428571
 40
0.1071428571428571
 40
0.1071428571428571
 40
0.1071428571428571
 40
0.1428571428571429
 40
0.1428571428571429
 40
0.1428571428571429
 40
0.1428571428571429
 40
0.1785714285714286
 40
0.1785714285714286
 40
0.1785714285714286
 40
0.1785714285714286
 40
0.2142857142857143
 40
0.2142857142857143
 40
0.2142857142857143
 40
0.2142857142857143
 40
0.2499999999999999
 40
0.2499999999999999
 40
0.2499999999999999
 40
0.2499999999999999
 40
0.2857142857142856
 40
0.2857142857142856
 40
0.2857142857142856
 40
0.2857142857142856
 40
0.3214285714285713
 40
0.3214285714285713
 40
0.3214285714285713
 40
0.3214285714285713
 40
0.357142857142857
 40
0.357142857142857
 40
0.357142857142857
 40
0.357142857142857
 40
0.3928571428571427
 40
0.3928571428571427
 40
0.3928571428571427
 40
0.3928571428571427
 40
0.4285714285714284
 40
0.4285714285714284
 40
0.4285714285714284
 40
0.4285714285714284
 40
0.4642857142857141
 40
0.4642857142857141
 40
0.4642857142857141
 40
0.4642857142857141
 40
0.4999999999999998
 40
0.4999999999999998
 40
0.4999999999999998
 40
0.4999999999999998
 40
0.5357142857142856
 40
0.5357142857142856
 40
0.5357142857142856
 40
0.5357142857142856
 40
0.5714285714285713
 40
0.5714285714285713
 40
0.5714285714285713
 40
0.5714285714285713
 40
0.607142857142857
 40
0.607142857142857
 40
0.607142857142857
 40
0.607142857142857
 40
0.6428571428571427
 40
0.6428571428571427
 40
0.6428571428571427
 40
0.6428571428571427
 40
0.6785714285714284
 40
0.6785714285714284
 40
0.6785714285714284
 40
0.6785714285714284
 40
0.7142857142857141
 40
0.7142857142857141
 40
0.7142857142857141
 40
0.7142857142857141
 40
0.7499999999999998
 40
0.7499999999999998
 40
0.7499999999999998
 40
0.7499999999999998
 40
0.7857142857142855
 40
0.7857142857142855
 40
0.7857142857142855
 40
0.7857142857142855
 40
0.8214285714285712
 40
0.8214285714285712
 40
0.8214285714285712
 40
0.8214285714285712
 40
0.8571428571428569
 40
0.8571428571428569
 40
0.8571428571428569
 40
0.8571428571428569
 40
0.8928571428571426
 40
0.8928571428571426
 40
0.8928571428571426
 40
0.8928571428571426
 40
0.9285714285714283
 40
0.9285714285714283
 40
0.9285714285714283
 40
0.9285714285714283
 40
0.964285714285714
 40
0.964285714285714
 40
0.964285714285714
 40
0.964285714285714
 40
1.0
 40
1.0
 40
1.0
 40
1.0
 10
-106.8923
 20
-62.44090000000001
 30
0.0
 10
-106.8923
 20
-62.44090000000001
 30
0.0
 10
-106.8923
 20
-58.05090000000001
 30
0.0
 10
-106.8923
 20
-58.05090000000001
 30
0.0
 10
-106.8923
 20
-58.05090000000001
 30
0.0
 10
-106.8923
 20
-58.05090000000001
 30
0.0
 10
-106.2277
 20
-58.05090000000001
 30
0.0
 10
-106.2277
 20
-58.05090000000001
 30
0.0
 10
-106.2277
 20
-58.05090000000001
 30
0.0
 10
-106.2277
 20
-58.05090000000001
 30
0.0
 10
-106.2277
 20
-58.6662
 30
0.0
 10
-106.2277
 20
-58.6662
 30
0.0
 10
-106.2277
 20
-58.6662
 30
0.0
 10
-106.0894
 20
-58.4517
 30
0.0
 10
-105.9059
 20
-58.2781
 30
0.0
 10
-105.6773
 20
-58.14830000000001
 30
0.0
 10
-105.6773
 20
-58.14830000000001
 30
0.0
 10
-105.4487
 20
-58.017
 30
0.0
 10
-105.1877
 20
-57.95070000000001
 30
0.0
 10
-104.8956
 20
-57.95070000000001
 30
0.0
 10
-104.8956
 20
-57.95070000000001
 30
0.0
 10
-104.571
 20
-57.95070000000001
 30
0.0
 10
-104.3043
 20
-58.0185
 30
0.0
 10
-104.0969
 20
-58.1539
 30
0.0
 10
-104.0969
 20
-58.1539
 30
0.0
 10
-103.888
 20
-58.2894
 30
0.0
 10
-103.7413
 20
-58.4771
 30
0.0
 10
-103.6566
 20
-58.7198
 30
0.0
 10
-103.6566
 20
-58.7198
 30
0.0
 10
-103.3081
 20
-58.2075
 30
0.0
 10
-102.8565
 20
-57.95070000000001
 30
0.0
 10
-102.3005
 20
-57.95070000000001
 30
0.0
 10
-102.3005
 20
-57.95070000000001
 30
0.0
 10
-101.8645
 20
-57.95070000000001
 30
0.0
 10
-101.5301
 20
-58.07210000000001
 30
0.0
 10
-101.2958
 20
-58.3134
 30
0.0
 10
-101.2958
 20
-58.3134
 30
0.0
 10
-101.0616
 20
-58.5547
 30
0.0
 10
-100.9444
 20
-58.9258
 30
0.0
 10
-100.9444
 20
-59.4268
 30
0.0
 10
-100.9444
 20
-59.4268
 30
0.0
 10
-100.9444
 20
-59.4268
 30
0.0
 10
-100.9444
 20
-62.44090000000001
 30
0.0
 10
-100.9444
 20
-62.44090000000001
 30
0.0
 10
-100.9444
 20
-62.44090000000001
 30
0.0
 10
-100.9444
 20
-62.44090000000001
 30
0.0
 10
-101.6839
 20
-62.44090000000001
 30
0.0
 10
-101.6839
 20
-62.44090000000001
 30
0.0
 10
-101.6839
 20
-62.44090000000001
 30
0.0
 10
-101.6839
 20
-62.44090000000001
 30
0.0
 10
-101.6839
 20
-59.6751
 30
0.0
 10
-101.6839
 20
-59.6751
 30
0.0
 10
-101.6839
 20
-59.6751
 30
0.0
 10
-101.6839
 20
-59.3774
 30
0.0
 10
-101.7079
 20
-59.1629
 30
0.0
 10
-101.7558
 20
-59.03160000000001
 30
0.0
 10
-101.7558
 20
-59.03160000000001
 30
0.0
 10
-101.8052
 20
-58.9018
 30
0.0
 10
-101.8927
 20
-58.796
 30
0.0
 10
-102.0183
 20
-58.7156
 30
0.0
 10
-102.0183
 20
-58.7156
 30
0.0
 10
-102.1453
 20
-58.63650000000001
 30
0.0
 10
-102.2949
 20
-58.59560000000001
 30
0.0
 10
-102.4656
 20
-58.59560000000001
 30
0.0
 10
-102.4656
 20
-58.59560000000001
 30
0.0
 10
-102.7747
 20
-58.59560000000001
 30
0.0
 10
-103.0301
 20
-58.69860000000001
 30
0.0
 10
-103.2347
 20
-58.9046
 30
0.0
 10
-103.2347
 20
-58.9046
 30
0.0
 10
-103.4379
 20
-59.10930000000001
 30
0.0
 10
-103.5409
 20
-59.438
 30
0.0
 10
-103.5409
 20
-59.8896
 30
0.0
 10
-103.5409
 20
-59.8896
 30
0.0
 10
-103.5409
 20
-59.8896
 30
0.0
 10
-103.5409
 20
-62.44090000000001
 30
0.0
 10
-103.5409
 20
-62.44090000000001
 30
0.0
 10
-103.5409
 20
-62.44090000000001
 30
0.0
 10
-103.5409
 20
-62.44090000000001
 30
0.0
 10
-104.2846
 20
-62.44090000000001
 30
0.0
 10
-104.2846
 20
-62.44090000000001
 30
0.0
 10
-104.2846
 20
-62.44090000000001
 30
0.0
 10
-104.2846
 20
-62.44090000000001
 30
0.0
 10
-104.2846
 20
-59.58900000000001
 30
0.0
 10
-104.2846
 20
-59.58900000000001
 30
0.0
 10
-104.2846
 20
-59.58900000000001
 30
0.0
 10
-104.2846
 20
-59.2574
 30
0.0
 10
-104.3452
 20
-59.0091
 30
0.0
 10
-104.4666
 20
-58.844
 30
0.0
 10
-104.4666
 20
-58.844
 30
0.0
 10
-104.5879
 20
-58.67890000000001
 30
0.0
 10
-104.7855
 20
-58.59560000000001
 30
0.0
 10
-105.0621
 20
-58.59560000000001
 30
0.0
 10
-105.0621
 20
-58.59560000000001
 30
0.0
 10
-105.2709
 20
-58.59560000000001
 30
0.0
 10
-105.4642
 20
-58.6506
 30
0.0
 10
-105.642
 20
-58.7621
 30
0.0
 10
-105.642
 20
-58.7621
 30
0.0
 10
-105.8198
 20
-58.8722
 30
0.0
 10
-105.9497
 20
-59.03310000000001
 30
0.0
 10
-106.0287
 20
-59.2447
 30
0.0
 10
-106.0287
 20
-59.2447
 30
0.0
 10
-106.1091
 20
-59.45780000000001
 30
0.0
 10
-106.1486
 20
-59.764
 30
0.0
 10
-106.1486
 20
-60.1634
 30
0.0
 10
-106.1486
 20
-60.1634
 30
0.0
 10
-106.1486
 20
-60.1634
 30
0.0
 10
-106.1486
 20
-62.44090000000001
 30
0.0
 10
-106.1486
 20
-62.44090000000001
 30
0.0
 10
-106.1486
 20
-62.44090000000001
 30
0.0
 10
-106.1486
 20
-62.44090000000001
 30
0.0
 10
-106.8923
 20
-62.44090000000001
 30
0.0
 10
-106.8923
 20
-62.44090000000001
 30
0.0
  0
SPLINE
  5
75
330
1F
100
AcDbEntity
  8
52
 62
   250
100
AcDbSpline
210
0.0
220
0.0
230
1.0
 70
    11
 71
     3
 72
   116
 73
   112
 74
     0
 42
0.0000000001
 43
0.0000000001
 40
0.0
 40
0.0
 40
0.0
 40
0.0
 40
0.0357142857142857
 40
0.0357142857142857
 40
0.0357142857142857
 40
0.0357142857142857
 40
0.0714285714285714
 40
0.0714285714285714
 40
0.0714285714285714
 40
0.0714285714285714
 40
0.1071428571428571
 40
0.1071428571428571
 40
0.1071428571428571
 40
0.1071428571428571
 40
0.1428571428571429
 40
0.1428571428571429
 40
0.1428571428571429
 40
0.1428571428571429
 40
0.1785714285714286
 40
0.1785714285714286
 40
0.1785714285714286
 40
0.1785714285714286
 40
0.2142857142857143
 40
0.2142857142857143
 40
0.2142857142857143
 40
0.2142857142857143
 40
0.2499999999999999
 40
0.2499999999999999
 40
0.2499999999999999
 40
0.2499999999999999
 40
0.2857142857142856
 40
0.2857142857142856
 40
0.2857142857142856
 40
0.2857142857142856
 40
0.3214285714285713
 40
0.3214285714285713
 40
0.3214285714285713
 40
0.3214285714285713
 40
0.357142857142857
 40
0.357142857142857
 40
0.357142857142857
 40
0.357142857142857
 40
0.3928571428571427
 40
0.3928571428571427
 40
0.3928571428571427
 40
0.3928571428571427
 40
0.4285714285714284
 40
0.4285714285714284
 40
0.4285714285714284
 40
0.4285714285714284
 40
0.4642857142857141
 40
0.4642857142857141
 40
0.4642857142857141
 40
0.4642857142857141
 40
0.4999999999999998
 40
0.4999999999999998
 40
0.4999999999999998
 40
0.4999999999999998
 40
0.5357142857142856
 40
0.5357142857142856
 40
0.5357142857142856
 40
0.5357142857142856
 40
0.5714285714285713
 40
0.5714285714285713
 40
0.5714285714285713
 40
0.5714285714285713
 40
0.607142857142857
 40
0.607142857142857
 40
0.607142857142857
 40
0.607142857142857
 40
0.6428571428571427
 40
0.6428571428571427
 40
0.6428571428571427
 40
0.6428571428571427
 40
0.6785714285714284
 40
0.6785714285714284
 40
0.6785714285714284
 40
0.6785714285714284
 40
0.7142857142857141
 40
0.7142857142857141
 40
0.7142857142857141
 40
0.7142857142857141
 40
0.7499999999999998
 40
0.7499999999999998
 40
0.7499999999999998
 40
0.7499999999999998
 40
0.7857142857142855
 40
0.7857142857142855
 40
0.7857142857142855
 40
0.7857142857142855
 40
0.8214285714285712
 40
0.8214285714285712
 40
0.8214285714285712
 40
0.8214285714285712
 40
0.8571428571428569
 40
0.8571428571428569
 40
0.8571428571428569
 40
0.8571428571428569
 40
0.8928571428571426
 40
0.8928571428571426
 40
0.8928571428571426
 40
0.8928571428571426
 40
0.9285714285714283
 40
0.9285714285714283
 40
0.9285714285714283
 40
0.9285714285714283
 40
0.964285714285714
 40
0.964285714285714
 40
0.964285714285714
 40
0.964285714285714
 40
1.0
 40
1.0
 40
1.0
 40
1.0
 10
-99.8395
 20
-62.44090000000001
 30
0.0
 10
-99.8395
 20
-62.44090000000001
 30
0.0
 10
-99.8395
 20
-58.05090000000001
 30
0.0
 10
-99.8395
 20
-58.05090000000001
 30
0.0
 10
-99.8395
 20
-58.05090000000001
 30
0.0
 10
-99.8395
 20
-58.05090000000001
 30
0.0
 10
-99.17490000000001
 20
-58.05090000000001
 30
0.0
 10
-99.17490000000001
 20
-58.05090000000001
 30
0.0
 10
-99.17490000000001
 20
-58.05090000000001
 30
0.0
 10
-99.17490000000001
 20
-58.05090000000001
 30
0.0
 10
-99.17490000000001
 20
-58.6662
 30
0.0
 10
-99.17490000000001
 20
-58.6662
 30
0.0
 10
-99.17490000000001
 20
-58.6662
 30
0.0
 10
-99.03660000000001
 20
-58.4517
 30
0.0
 10
-98.8531
 20
-58.2781
 30
0.0
 10
-98.62450000000001
 20
-58.14830000000001
 30
0.0
 10
-98.62450000000001
 20
-58.14830000000001
 30
0.0
 10
-98.39590000000001
 20
-58.017
 30
0.0
 10
-98.1349
 20
-57.95070000000001
 30
0.0
 10
-97.84280000000001
 20
-57.95070000000001
 30
0.0
 10
-97.84280000000001
 20
-57.95070000000001
 30
0.0
 10
-97.51820000000001
 20
-57.95070000000001
 30
0.0
 10
-97.25150000000001
 20
-58.0185
 30
0.0
 10
-97.0441
 20
-58.1539
 30
0.0
 10
-97.0441
 20
-58.1539
 30
0.0
 10
-96.8352
 20
-58.2894
 30
0.0
 10
-96.68850000000001
 20
-58.4771
 30
0.0
 10
-96.60380000000001
 20
-58.7198
 30
0.0
 10
-96.60380000000001
 20
-58.7198
 30
0.0
 10
-96.25530000000001
 20
-58.2075
 30
0.0
 10
-95.80370000000001
 20
-57.95070000000001
 30
0.0
 10
-95.24770000000001
 20
-57.95070000000001
 30
0.0
 10
-95.24770000000001
 20
-57.95070000000001
 30
0.0
 10
-94.8117
 20
-57.95070000000001
 30
0.0
 10
-94.4773
 20
-58.07210000000001
 30
0.0
 10
-94.24300000000001
 20
-58.3134
 30
0.0
 10
-94.24300000000001
 20
-58.3134
 30
0.0
 10
-94.00880000000001
 20
-58.5547
 30
0.0
 10
-93.89160000000001
 20
-58.9258
 30
0.0
 10
-93.89160000000001
 20
-59.4268
 30
0.0
 10
-93.89160000000001
 20
-59.4268
 30
0.0
 10
-93.89160000000001
 20
-59.4268
 30
0.0
 10
-93.89160000000001
 20
-62.44090000000001
 30
0.0
 10
-93.89160000000001
 20
-62.44090000000001
 30
0.0
 10
-93.89160000000001
 20
-62.44090000000001
 30
0.0
 10
-93.89160000000001
 20
-62.44090000000001
 30
0.0
 10
-94.6311
 20
-62.44090000000001
 30
0.0
 10
-94.6311
 20
-62.44090000000001
 30
0.0
 10
-94.6311
 20
-62.44090000000001
 30
0.0
 10
-94.6311
 20
-62.44090000000001
 30
0.0
 10
-94.6311
 20
-59.6751
 30
0.0
 10
-94.6311
 20
-59.6751
 30
0.0
 10
-94.6311
 20
-59.6751
 30
0.0
 10
-94.6311
 20
-59.3774
 30
0.0
 10
-94.6551
 20
-59.1629
 30
0.0
 10
-94.703
 20
-59.03160000000001
 30
0.0
 10
-94.703
 20
-59.03160000000001
 30
0.0
 10
-94.75240000000001
 20
-58.9018
 30
0.0
 10
-94.8399
 20
-58.796
 30
0.0
 10
-94.96550000000001
 20
-58.7156
 30
0.0
 10
-94.96550000000001
 20
-58.7156
 30
0.0
 10
-95.0925
 20
-58.63650000000001
 30
0.0
 10
-95.24210000000001
 20
-58.59560000000001
 30
0.0
 10
-95.4128
 20
-58.59560000000001
 30
0.0
 10
-95.4128
 20
-58.59560000000001
 30
0.0
 10
-95.72190000000001
 20
-58.59560000000001
 30
0.0
 10
-95.9773
 20
-58.69860000000001
 30
0.0
 10
-96.1819
 20
-58.9046
 30
0.0
 10
-96.1819
 20
-58.9046
 30
0.0
 10
-96.38510000000001
 20
-59.10930000000001
 30
0.0
 10
-96.4881
 20
-59.438
 30
0.0
 10
-96.4881
 20
-59.8896
 30
0.0
 10
-96.4881
 20
-59.8896
 30
0.0
 10
-96.4881
 20
-59.8896
 30
0.0
 10
-96.4881
 20
-62.44090000000001
 30
0.0
 10
-96.4881
 20
-62.44090000000001
 30
0.0
 10
-96.4881
 20
-62.44090000000001
 30
0.0
 10
-96.4881
 20
-62.44090000000001
 30
0.0
 10
-97.23180000000001
 20
-62.44090000000001
 30
0.0
 10
-97.23180000000001
 20
-62.44090000000001
 30
0.0
 10
-97.23180000000001
 20
-62.44090000000001
 30
0.0
 10
-97.23180000000001
 20
-62.44090000000001
 30
0.0
 10
-97.23180000000001
 20
-59.58900000000001
 30
0.0
 10
-97.23180000000001
 20
-59.58900000000001
 30
0.0
 10
-97.23180000000001
 20
-59.58900000000001
 30
0.0
 10
-97.23180000000001
 20
-59.2574
 30
0.0
 10
-97.2924
 20
-59.0091
 30
0.0
 10
-97.41380000000001
 20
-58.844
 30
0.0
 10
-97.41380000000001
 20
-58.844
 30
0.0
 10
-97.5351
 20
-58.67890000000001
 30
0.0
 10
-97.73270000000001
 20
-58.59560000000001
 30
0.0
 10
-98.00930000000001
 20
-58.59560000000001
 30
0.0
 10
-98.00930000000001
 20
-58.59560000000001
 30
0.0
 10
-98.21810000000001
 20
-58.59560000000001
 30
0.0
 10
-98.4114
 20
-58.6506
 30
0.0
 10
-98.58920000000001
 20
-58.7621
 30
0.0
 10
-98.58920000000001
 20
-58.7621
 30
0.0
 10
-98.76700000000001
 20
-58.8722
 30
0.0
 10
-98.8969
 20
-59.03310000000001
 30
0.0
 10
-98.97590000000001
 20
-59.2447
 30
0.0
 10
-98.97590000000001
 20
-59.2447
 30
0.0
 10
-99.05630000000001
 20
-59.45780000000001
 30
0.0
 10
-99.09580000000001
 20
-59.764
 30
0.0
 10
-99.09580000000001
 20
-60.1634
 30
0.0
 10
-99.09580000000001
 20
-60.1634
 30
0.0
 10
-99.09580000000001
 20
-60.1634
 30
0.0
 10
-99.09580000000001
 20
-62.44090000000001
 30
0.0
 10
-99.09580000000001
 20
-62.44090000000001
 30
0.0
 10
-99.09580000000001
 20
-62.44090000000001
 30
0.0
 10
-99.09580000000001
 20
-62.44090000000001
 30
0.0
 10
-99.8395
 20
-62.44090000000001
 30
0.0
 10
-99.8395
 20
-62.44090000000001
 30
0.0
  0
SPLINE
  5
76
330
1F
100
AcDbEntity
  8
52
 62
   250
370
     5
100
AcDbSpline
210
0.0
220
0.0
230
1.0
 70
    24
 71
     3
 72
     8
 73
     4
 74
     0
 42
0.0000000001
 43
0.0000000001
 40
0.0
 40
0.0
 40
0.0
 40
0.0
 40
1.0
 40
1.0
 40
1.0
 40
1.0
 10
-117.404
 20
86.1978
 30
0.0
 10
-117.404
 20
86.1978
 30
0.0
 10
-162.4322
 20
86.1978
 30
0.0
 10
-162.4322
 20
86.1978
 30
0.0
  0
SPLINE
  5
77
330
1F
100
AcDbEntity
  8
52
 62
   250
370
     5
100
AcDbSpline
210
0.0
220
0.0
230
1.0
 70
    24
 71
     3
 72
     8
 73
     4
 74
     0
 42
0.0000000001
 43
0.0000000001
 40
0.0
 40
0.0
 40
0.0
 40
0.0
 40
1.0
 40
1.0
 40
1.0
 40
1.0
 10
-117.8826
 20
-43.8014
 30
0.0
 10
-117.8826
 20
-43.8014
 30
0.0
 10
-162.4322
 20
-43.8014
 30
0.0
 10
-162.4322
 20
-43.8014
 30
0.0
  0
SPLINE
  5
78
330
1F
100
AcDbEntity
  8
52
 62
   250
370
     5
100
AcDbSpline
210
0.0
220
0.0
230
1.0
 70
    24
 71
     3
 72
     8
 73
     4
 74
     0
 42
0.0000000001
 43
0.0000000001
 40
0.0
 40
0.0
 40
0.0
 40
0.0
 40
1.0
 40
1.0
 40
1.0
 40
1.0
 10
-157.3522
 20
86.1978
 30
0.0
 10
-157.3522
 20
86.1978
 30
0.0
 10
-157.3522
 20
51.8684
 30
0.0
 10
-157.3522
 20
51.8684
 30
0.0
  0
SPLINE
  5
79
330
1F
100
AcDbEntity
  8
52
 62
   250
370
     5
100
AcDbSpline
210
0.0
220
0.0
230
1.0
 70
    24
 71
     3
 72
     8
 73
     4
 74
     0
 42
0.0000000001
 43
0.0000000001
 40
0.0
 40
0.0
 40
0.0
 40
0.0
 40
1.0
 40
1.0
 40
1.0
 40
1.0
 10
-157.3522
 20
-2.6402
 30
0.0
 10
-157.3522
 20
-2.6402
 30
0.0
 10
-157.3522
 20
-43.8014
 30
0.0
 10
-157.3522
 20
-43.8014
 30
0.0
  0
SPLINE
  5
7A
330
1F
100
AcDbEntity
  8
52
 62
   250
100
AcDbSpline
210
0.0
220
0.0
230
1.0
 70
    11
 71
     3
 72
    40
 73
    36
 74
     0
 42
0.0000000001
 43
0.0000000001
 40
0.0
 40
0.0
 40
0.0
 40
0.0
 40
0.1111111111111111
 40
0.1111111111111111
 40
0.1111111111111111
 40
0.1111111111111111
 40
0.2222222222222222
 40
0.2222222222222222
 40
0.2222222222222222
 40
0.2222222222222222
 40
0.3333333333333333
 40
0.3333333333333333
 40
0.3333333333333333
 40
0.3333333333333333
 40
0.4444444444444444
 40
0.4444444444444444
 40
0.4444444444444444
 40
0.4444444444444444
 40
0.5555555555555556
 40
0.5555555555555556
 40
0.5555555555555556
 40
0.5555555555555556
 40
0.6666666666666667
 40
0.6666666666666667
 40
0.6666666666666667
 40
0.6666666666666667
 40
0.7777777777777779
 40
0.7777777777777779
 40
0.7777777777777779
 40
0.7777777777777779
 40
0.8888888888888891
 40
0.8888888888888891
 40
0.8888888888888891
 40
0.8888888888888891
 40
1.0
 40
1.0
 40
1.0
 40
1.0
 10
-154.3628
 20
6.8636
 30
0.0
 10
-154.3628
 20
6.8636
 30
0.0
 10
-154.3628
 20
6.12
 30
0.0
 10
-154.3628
 20
6.12
 30
0.0
 10
-154.3628
 20
6.12
 30
0.0
 10
-154.3628
 20
6.12
 30
0.0
 10
-159.1042
 20
6.12
 30
0.0
 10
-159.1042
 20
6.12
 30
0.0
 10
-159.1042
 20
6.12
 30
0.0
 10
-158.9334
 20
5.9408
 30
0.0
 10
-158.7627
 20
5.7065
 30
0.0
 10
-158.5919
 20
5.4158
 30
0.0
 10
-158.5919
 20
5.4158
 30
0.0
 10
-158.4212
 20
5.1237
 30
0.0
 10
-158.2928
 20
4.8627
 30
0.0
 10
-158.2081
 20
4.6313
 30
0.0
 10
-158.2081
 20
4.6313
 30
0.0
 10
-158.2081
 20
4.6313
 30
0.0
 10
-158.9264
 20
4.6313
 30
0.0
 10
-158.9264
 20
4.6313
 30
0.0
 10
-158.9264
 20
4.6313
 30
0.0
 10
-159.1225
 20
5.0475
 30
0.0
 10
-159.3596
 20
5.4116
 30
0.0
 10
-159.6376
 20
5.723500000000001
 30
0.0
 10
-159.6376
 20
5.723500000000001
 30
0.0
 10
-159.917
 20
6.0339
 30
0.0
 10
-160.1865
 20
6.255500000000001
 30
0.0
 10
-160.4475
 20
6.3853
 30
0.0
 10
-160.4475
 20
6.3853
 30
0.0
 10
-160.4475
 20
6.3853
 30
0.0
 10
-160.4475
 20
6.8636
 30
0.0
 10
-160.4475
 20
6.8636
 30
0.0
 10
-160.4475
 20
6.8636
 30
0.0
 10
-160.4475
 20
6.8636
 30
0.0
 10
-154.3628
 20
6.8636
 30
0.0
 10
-154.3628
 20
6.8636
 30
0.0
  0
SPLINE
  5
7B
330
1F
100
AcDbEntity
  8
52
 62
   250
100
AcDbSpline
210
0.0
220
0.0
230
1.0
 70
    11
 71
     3
 72
   124
 73
   120
 74
     0
 42
0.0000000001
 43
0.0000000001
 40
0.0
 40
0.0
 40
0.0
 40
0.0
 40
0.0333333333333333
 40
0.0333333333333333
 40
0.0333333333333333
 40
0.0333333333333333
 40
0.0666666666666667
 40
0.0666666666666667
 40
0.0666666666666667
 40
0.0666666666666667
 40
0.1
 40
0.1
 40
0.1
 40
0.1
 40
0.1333333333333333
 40
0.1333333333333333
 40
0.1333333333333333
 40
0.1333333333333333
 40
0.1666666666666667
 40
0.1666666666666667
 40
0.1666666666666667
 40
0.1666666666666667
 40
0.2
 40
0.2
 40
0.2
 40
0.2
 40
0.2333333333333333
 40
0.2333333333333333
 40
0.2333333333333333
 40
0.2333333333333333
 40
0.2666666666666667
 40
0.2666666666666667
 40
0.2666666666666667
 40
0.2666666666666667
 40
0.3
 40
0.3
 40
0.3
 40
0.3
 40
0.3333333333333333
 40
0.3333333333333333
 40
0.3333333333333333
 40
0.3333333333333333
 40
0.3666666666666666
 40
0.3666666666666666
 40
0.3666666666666666
 40
0.3666666666666666
 40
0.4
 40
0.4
 40
0.4
 40
0.4
 40
0.4333333333333333
 40
0.4333333333333333
 40
0.4333333333333333
 40
0.4333333333333333
 40
0.4666666666666666
 40
0.4666666666666666
 40
0.4666666666666666
 40
0.4666666666666666
 40
0.4999999999999999
 40
0.4999999999999999
 40
0.4999999999999999
 40
0.4999999999999999
 40
0.5333333333333333
 40
0.5333333333333333
 40
0.5333333333333333
 40
0.5333333333333333
 40
0.5666666666666667
 40
0.5666666666666667
 40
0.5666666666666667
 40
0.5666666666666667
 40
0.6
 40
0.6
 40
0.6
 40
0.6
 40
0.6333333333333333
 40
0.6333333333333333
 40
0.6333333333333333
 40
0.6333333333333333
 40
0.6666666666666666
 40
0.6666666666666666
 40
0.6666666666666666
 40
0.6666666666666666
 40
0.7
 40
0.7
 40
0.7
 40
0.7
 40
0.7333333333333333
 40
0.7333333333333333
 40
0.7333333333333333
 40
0.7333333333333333
 40
0.7666666666666666
 40
0.7666666666666666
 40
0.7666666666666666
 40
0.7666666666666666
 40
0.7999999999999999
 40
0.7999999999999999
 40
0.7999999999999999
 40
0.7999999999999999
 40
0.8333333333333333
 40
0.8333333333333333
 40
0.8333333333333333
 40
0.8333333333333333
 40
0.8666666666666666
 40
0.8666666666666666
 40
0.8666666666666666
 40
0.8666666666666666
 40
0.8999999999999999
 40
0.8999999999999999
 40
0.8999999999999999
 40
0.8999999999999999
 40
0.9333333333333332
 40
0.9333333333333332
 40
0.9333333333333332
 40
0.9333333333333332
 40
0.9666666666666666
 40
0.9666666666666666
 40
0.9666666666666666
 40
0.9666666666666666
 40
1.0
 40
1.0
 40
1.0
 40
1.0
 10
-155.963
 20
8.7743
 30
0.0
 10
-155.963
 20
8.7743
 30
0.0
 10
-156.0618
 20
9.518000000000001
 30
0.0
 10
-156.0618
 20
9.518000000000001
 30
0.0
 10
-156.0618
 20
9.518000000000001
 30
0.0
 10
-155.6399
 20
9.604000000000001
 30
0.0
 10
-155.3365
 20
9.7494
 30
0.0
 10
-155.1502
 20
9.954000000000001
 30
0.0
 10
-155.1502
 20
9.954000000000001
 30
0.0
 10
-154.9639
 20
10.16
 30
0.0
 10
-154.8708
 20
10.4098
 30
0.0
 10
-154.8708
 20
10.7047
 30
0.0
 10
-154.8708
 20
10.7047
 30
0.0
 10
-154.8708
 20
11.0547
 30
0.0
 10
-154.9922
 20
11.351
 30
0.0
 10
-155.2349
 20
11.5923
 30
0.0
 10
-155.2349
 20
11.5923
 30
0.0
 10
-155.4776
 20
11.8322
 30
0.0
 10
-155.7782
 20
11.9535
 30
0.0
 10
-156.1366
 20
11.9535
 30
0.0
 10
-156.1366
 20
11.9535
 30
0.0
 10
-156.4781
 20
11.9535
 30
0.0
 10
-156.7603
 20
11.8421
 30
0.0
 10
-156.9818
 20
11.6191
 30
0.0
 10
-156.9818
 20
11.6191
 30
0.0
 10
-157.2034
 20
11.3947
 30
0.0
 10
-157.3149
 20
11.1111
 30
0.0
 10
-157.3149
 20
10.7668
 30
0.0
 10
-157.3149
 20
10.7668
 30
0.0
 10
-157.3149
 20
10.6257
 30
0.0
 10
-157.2866
 20
10.4507
 30
0.0
 10
-157.2316
 20
10.2419
 30
0.0
 10
-157.2316
 20
10.2419
 30
0.0
 10
-157.2316
 20
10.2419
 30
0.0
 10
-157.8849
 20
10.3251
 30
0.0
 10
-157.8849
 20
10.3251
 30
0.0
 10
-157.8849
 20
10.3251
 30
0.0
 10
-157.8793
 20
10.3745
 30
0.0
 10
-157.8765
 20
10.414
 30
0.0
 10
-157.8765
 20
10.4451
 30
0.0
 10
-157.8765
 20
10.4451
 30
0.0
 10
-157.8765
 20
10.7612
 30
0.0
 10
-157.9597
 20
11.0462
 30
0.0
 10
-158.1248
 20
11.3002
 30
0.0
 10
-158.1248
 20
11.3002
 30
0.0
 10
-158.2899
 20
11.5542
 30
0.0
 10
-158.5453
 20
11.6812
 30
0.0
 10
-158.8897
 20
11.6812
 30
0.0
 10
-158.8897
 20
11.6812
 30
0.0
 10
-159.162
 20
11.6812
 30
0.0
 10
-159.3892
 20
11.5881
 30
0.0
 10
-159.567
 20
11.4032
 30
0.0
 10
-159.567
 20
11.4032
 30
0.0
 10
-159.7462
 20
11.2184
 30
0.0
 10
-159.8365
 20
10.9799
 30
0.0
 10
-159.8365
 20
10.6878
 30
0.0
 10
-159.8365
 20
10.6878
 30
0.0
 10
-159.8365
 20
10.3985
 30
0.0
 10
-159.7448
 20
10.1572
 30
0.0
 10
-159.5642
 20
9.965300000000001
 30
0.0
 10
-159.5642
 20
9.965300000000001
 30
0.0
 10
-159.3821
 20
9.772
 30
0.0
 10
-159.1084
 20
9.6478
 30
0.0
 10
-158.7443
 20
9.592700000000001
 30
0.0
 10
-158.7443
 20
9.592700000000001
 30
0.0
 10
-158.7443
 20
9.592700000000001
 30
0.0
 10
-158.877
 20
8.8491
 30
0.0
 10
-158.877
 20
8.8491
 30
0.0
 10
-158.877
 20
8.8491
 30
0.0
 10
-159.3765
 20
8.939400000000001
 30
0.0
 10
-159.7631
 20
9.146800000000001
 30
0.0
 10
-160.0369
 20
9.4686
 30
0.0
 10
-160.0369
 20
9.4686
 30
0.0
 10
-160.3107
 20
9.791700000000001
 30
0.0
 10
-160.4475
 20
10.1925
 30
0.0
 10
-160.4475
 20
10.6723
 30
0.0
 10
-160.4475
 20
10.6723
 30
0.0
 10
-160.4475
 20
11.0025
 30
0.0
 10
-160.377
 20
11.3073
 30
0.0
 10
-160.2359
 20
11.5852
 30
0.0
 10
-160.2359
 20
11.5852
 30
0.0
 10
-160.0933
 20
11.8632
 30
0.0
 10
-159.9
 20
12.0763
 30
0.0
 10
-159.6545
 20
12.2245
 30
0.0
 10
-159.6545
 20
12.2245
 30
0.0
 10
-159.409
 20
12.3712
 30
0.0
 10
-159.1493
 20
12.446
 30
0.0
 10
-158.8727
 20
12.446
 30
0.0
 10
-158.8727
 20
12.446
 30
0.0
 10
-158.6117
 20
12.446
 30
0.0
 10
-158.3732
 20
12.3755
 30
0.0
 10
-158.1573
 20
12.2344
 30
0.0
 10
-158.1573
 20
12.2344
 30
0.0
 10
-157.9428
 20
12.0932
 30
0.0
 10
-157.7721
 20
11.8858
 30
0.0
 10
-157.6451
 20
11.6106
 30
0.0
 10
-157.6451
 20
11.6106
 30
0.0
 10
-157.5632
 20
11.9691
 30
0.0
 10
-157.3911
 20
12.2471
 30
0.0
 10
-157.13
 20
12.446
 30
0.0
 10
-157.13
 20
12.446
 30
0.0
 10
-156.8704
 20
12.6436
 30
0.0
 10
-156.5444
 20
12.7424
 30
0.0
 10
-156.1535
 20
12.7424
 30
0.0
 10
-156.1535
 20
12.7424
 30
0.0
 10
-155.6243
 20
12.7424
 30
0.0
 10
-155.1756
 20
12.5504
 30
0.0
 10
-154.8073
 20
12.1638
 30
0.0
 10
-154.8073
 20
12.1638
 30
0.0
 10
-154.439
 20
11.7786
 30
0.0
 10
-154.2556
 20
11.2903
 30
0.0
 10
-154.2556
 20
10.7005
 30
0.0
 10
-154.2556
 20
10.7005
 30
0.0
 10
-154.2556
 20
10.1685
 30
0.0
 10
-154.4136
 20
9.726800000000001
 30
0.0
 10
-154.7311
 20
9.375400000000001
 30
0.0
 10
-154.7311
 20
9.375400000000001
 30
0.0
 10
-155.0472
 20
9.024100000000001
 30
0.0
 10
-155.4578
 20
8.823700000000001
 30
0.0
 10
-155.963
 20
8.7743
 30
0.0
  0
SPLINE
  5
7C
330
1F
100
AcDbEntity
  8
52
 62
   250
100
AcDbSpline
210
0.0
220
0.0
230
1.0
 70
    11
 71
     3
 72
    52
 73
    48
 74
     0
 42
0.0000000001
 43
0.0000000001
 40
0.0
 40
0.0
 40
0.0
 40
0.0
 40
0.0833333333333333
 40
0.0833333333333333
 40
0.0833333333333333
 40
0.0833333333333333
 40
0.1666666666666667
 40
0.1666666666666667
 40
0.1666666666666667
 40
0.1666666666666667
 40
0.25
 40
0.25
 40
0.25
 40
0.25
 40
0.3333333333333333
 40
0.3333333333333333
 40
0.3333333333333333
 40
0.3333333333333333
 40
0.4166666666666666
 40
0.4166666666666666
 40
0.4166666666666666
 40
0.4166666666666666
 40
0.4999999999999999
 40
0.4999999999999999
 40
0.4999999999999999
 40
0.4999999999999999
 40
0.5833333333333333
 40
0.5833333333333333
 40
0.5833333333333333
 40
0.5833333333333333
 40
0.6666666666666666
 40
0.6666666666666666
 40
0.6666666666666666
 40
0.6666666666666666
 40
0.75
 40
0.75
 40
0.75
 40
0.75
 40
0.8333333333333334
 40
0.8333333333333334
 40
0.8333333333333334
 40
0.8333333333333334
 40
0.9166666666666667
 40
0.9166666666666667
 40
0.9166666666666667
 40
0.9166666666666667
 40
1.0
 40
1.0
 40
1.0
 40
1.0
 10
-157.3515
 20
13.479
 30
0.0
 10
-158.0684
 20
13.479
 30
0.0
 10
-158.6455
 20
13.5523
 30
0.0
 10
-159.0816
 20
13.7005
 30
0.0
 10
-159.0816
 20
13.7005
 30
0.0
 10
-159.519
 20
13.8473
 30
0.0
 10
-159.8563
 20
14.0674
 30
0.0
 10
-160.0933
 20
14.3581
 30
0.0
 10
-160.0933
 20
14.3581
 30
0.0
 10
-160.3304
 20
14.6488
 30
0.0
 10
-160.4475
 20
15.0143
 30
0.0
 10
-160.4475
 20
15.4545
 30
0.0
 10
-160.4475
 20
15.4545
 30
0.0
 10
-160.4475
 20
15.7805
 30
0.0
 10
-160.3826
 20
16.0655
 30
0.0
 10
-160.2514
 20
16.3111
 30
0.0
 10
-160.2514
 20
16.3111
 30
0.0
 10
-160.1216
 20
16.5566
 30
0.0
 10
-159.9325
 20
16.7584
 30
0.0
 10
-159.6855
 20
16.9193
 30
0.0
 10
-159.6855
 20
16.9193
 30
0.0
 10
-159.4386
 20
17.0787
 30
0.0
 10
-159.138
 20
17.2043
 30
0.0
 10
-158.7838
 20
17.2946
 30
0.0
 10
-158.7838
 20
17.2946
 30
0.0
 10
-158.4296
 20
17.3864
 30
0.0
 10
-157.9527
 20
17.4315
 30
0.0
 10
-157.3515
 20
17.4315
 30
0.0
 10
-157.3515
 20
17.4315
 30
0.0
 10
-156.6403
 20
17.4315
 30
0.0
 10
-156.0674
 20
17.3581
 30
0.0
 10
-155.63
 20
17.2128
 30
0.0
 10
-155.63
 20
17.2128
 30
0.0
 10
-155.1925
 20
17.066
 30
0.0
 10
-154.8553
 20
16.8473
 30
0.0
 10
-154.6168
 20
16.5566
 30
0.0
 10
-154.6168
 20
16.5566
 30
0.0
 10
-154.3783
 20
16.2659
 30
0.0
 10
-154.2598
 20
15.899
 30
0.0
 10
-154.2598
 20
15.4545
 30
0.0
 10
-154.2598
 20
15.4545
 30
0.0
 10
-154.2598
 20
14.8703
 30
0.0
 10
-154.4686
 20
14.4117
 30
0.0
 10
-154.8877
 20
14.0787
 30
0.0
 10
-154.8877
 20
14.0787
 30
0.0
 10
-155.3915
 20
13.6793
 30
0.0
 10
-156.2142
 20
13.479
 30
0.0
 10
-157.3515
 20
13.479
 30
0.0
  0
SPLINE
  5
7D
330
1F
100
AcDbEntity
  8
52
 62
   250
100
AcDbSpline
210
0.0
220
0.0
230
1.0
 70
    11
 71
     3
 72
    36
 73
    32
 74
     0
 42
0.0000000001
 43
0.0000000001
 40
0.0
 40
0.0
 40
0.0
 40
0.0
 40
0.125
 40
0.125
 40
0.125
 40
0.125
 40
0.25
 40
0.25
 40
0.25
 40
0.25
 40
0.375
 40
0.375
 40
0.375
 40
0.375
 40
0.5
 40
0.5
 40
0.5
 40
0.5
 40
0.625
 40
0.625
 40
0.625
 40
0.625
 40
0.75
 40
0.75
 40
0.75
 40
0.75
 40
0.875
 40
0.875
 40
0.875
 40
0.875
 40
1.0
 40
1.0
 40
1.0
 40
1.0
 10
-157.3515
 20
14.2438
 30
0.0
 10
-156.3567
 20
14.2438
 30
0.0
 10
-155.6949
 20
14.3609
 30
0.0
 10
-155.3647
 20
14.5938
 30
0.0
 10
-155.3647
 20
14.5938
 30
0.0
 10
-155.0359
 20
14.8266
 30
0.0
 10
-154.8708
 20
15.113
 30
0.0
 10
-154.8708
 20
15.4545
 30
0.0
 10
-154.8708
 20
15.4545
 30
0.0
 10
-154.8708
 20
15.7974
 30
0.0
 10
-155.0373
 20
16.0839
 30
0.0
 10
-155.3675
 20
16.3167
 30
0.0
 10
-155.3675
 20
16.3167
 30
0.0
 10
-155.6977
 20
16.5496
 30
0.0
 10
-156.3595
 20
16.6667
 30
0.0
 10
-157.3515
 20
16.6667
 30
0.0
 10
-157.3515
 20
16.6667
 30
0.0
 10
-158.3492
 20
16.6667
 30
0.0
 10
-159.0124
 20
16.5496
 30
0.0
 10
-159.3398
 20
16.3167
 30
0.0
 10
-159.3398
 20
16.3167
 30
0.0
 10
-159.6686
 20
16.0839
 30
0.0
 10
-159.8323
 20
15.7946
 30
0.0
 10
-159.8323
 20
15.4475
 30
0.0
 10
-159.8323
 20
15.4475
 30
0.0
 10
-159.8323
 20
15.1046
 30
0.0
 10
-159.6869
 20
14.8322
 30
0.0
 10
-159.3977
 20
14.6276
 30
0.0
 10
-159.3977
 20
14.6276
 30
0.0
 10
-159.0294
 20
14.3722
 30
0.0
 10
-158.3464
 20
14.2438
 30
0.0
 10
-157.3515
 20
14.2438
 30
0.0
  0
SPLINE
  5
7E
330
1F
100
AcDbEntity
  8
52
 62
   250
100
AcDbSpline
210
0.0
220
0.0
230
1.0
 70
    11
 71
     3
 72
    20
 73
    16
 74
     0
 42
0.0000000001
 43
0.0000000001
 40
0.0
 40
0.0
 40
0.0
 40
0.0
 40
0.25
 40
0.25
 40
0.25
 40
0.25
 40
0.5
 40
0.5
 40
0.5
 40
0.5
 40
0.75
 40
0.75
 40
0.75
 40
0.75
 40
1.0
 40
1.0
 40
1.0
 40
1.0
 10
-154.3628
 20
18.6056
 30
0.0
 10
-154.3628
 20
18.6056
 30
0.0
 10
-155.2109
 20
18.6056
 30
0.0
 10
-155.2109
 20
18.6056
 30
0.0
 10
-155.2109
 20
18.6056
 30
0.0
 10
-155.2109
 20
18.6056
 30
0.0
 10
-155.2109
 20
19.4536
 30
0.0
 10
-155.2109
 20
19.4536
 30
0.0
 10
-155.2109
 20
19.4536
 30
0.0
 10
-155.2109
 20
19.4536
 30
0.0
 10
-154.3628
 20
19.4536
 30
0.0
 10
-154.3628
 20
19.4536
 30
0.0
 10
-154.3628
 20
19.4536
 30
0.0
 10
-154.3628
 20
19.4536
 30
0.0
 10
-154.3628
 20
18.6056
 30
0.0
 10
-154.3628
 20
18.6056
 30
0.0
  0
SPLINE
  5
7F
330
1F
100
AcDbEntity
  8
52
 62
   250
100
AcDbSpline
210
0.0
220
0.0
230
1.0
 70
    11
 71
     3
 72
    52
 73
    48
 74
     0
 42
0.0000000001
 43
0.0000000001
 40
0.0
 40
0.0
 40
0.0
 40
0.0
 40
0.0833333333333333
 40
0.0833333333333333
 40
0.0833333333333333
 40
0.0833333333333333
 40
0.1666666666666667
 40
0.1666666666666667
 40
0.1666666666666667
 40
0.1666666666666667
 40
0.25
 40
0.25
 40
0.25
 40
0.25
 40
0.3333333333333333
 40
0.3333333333333333
 40
0.3333333333333333
 40
0.3333333333333333
 40
0.4166666666666666
 40
0.4166666666666666
 40
0.4166666666666666
 40
0.4166666666666666
 40
0.4999999999999999
 40
0.4999999999999999
 40
0.4999999999999999
 40
0.4999999999999999
 40
0.5833333333333333
 40
0.5833333333333333
 40
0.5833333333333333
 40
0.5833333333333333
 40
0.6666666666666666
 40
0.6666666666666666
 40
0.6666666666666666
 40
0.6666666666666666
 40
0.75
 40
0.75
 40
0.75
 40
0.75
 40
0.8333333333333334
 40
0.8333333333333334
 40
0.8333333333333334
 40
0.8333333333333334
 40
0.9166666666666667
 40
0.9166666666666667
 40
0.9166666666666667
 40
0.9166666666666667
 40
1.0
 40
1.0
 40
1.0
 40
1.0
 10
-157.3515
 20
20.5402
 30
0.0
 10
-158.0684
 20
20.5402
 30
0.0
 10
-158.6455
 20
20.6135
 30
0.0
 10
-159.0816
 20
20.7617
 30
0.0
 10
-159.0816
 20
20.7617
 30
0.0
 10
-159.519
 20
20.9085
 30
0.0
 10
-159.8563
 20
21.1286
 30
0.0
 10
-160.0933
 20
21.4193
 30
0.0
 10
-160.0933
 20
21.4193
 30
0.0
 10
-160.3304
 20
21.71
 30
0.0
 10
-160.4475
 20
22.0755
 30
0.0
 10
-160.4475
 20
22.5157
 30
0.0
 10
-160.4475
 20
22.5157
 30
0.0
 10
-160.4475
 20
22.8417
 30
0.0
 10
-160.3826
 20
23.1267
 30
0.0
 10
-160.2514
 20
23.3723
 30
0.0
 10
-160.2514
 20
23.3723
 30
0.0
 10
-160.1216
 20
23.6178
 30
0.0
 10
-159.9325
 20
23.8196
 30
0.0
 10
-159.6855
 20
23.9805
 30
0.0
 10
-159.6855
 20
23.9805
 30
0.0
 10
-159.4386
 20
24.1399
 30
0.0
 10
-159.138
 20
24.2655
 30
0.0
 10
-158.7838
 20
24.3558
 30
0.0
 10
-158.7838
 20
24.3558
 30
0.0
 10
-158.4296
 20
24.4476
 30
0.0
 10
-157.9527
 20
24.4927
 30
0.0
 10
-157.3515
 20
24.4927
 30
0.0
 10
-157.3515
 20
24.4927
 30
0.0
 10
-156.6403
 20
24.4927
 30
0.0
 10
-156.0674
 20
24.4193
 30
0.0
 10
-155.63
 20
24.274
 30
0.0
 10
-155.63
 20
24.274
 30
0.0
 10
-155.1925
 20
24.1272
 30
0.0
 10
-154.8553
 20
23.9085
 30
0.0
 10
-154.6168
 20
23.6178
 30
0.0
 10
-154.6168
 20
23.6178
 30
0.0
 10
-154.3783
 20
23.3271
 30
0.0
 10
-154.2598
 20
22.9602
 30
0.0
 10
-154.2598
 20
22.5157
 30
0.0
 10
-154.2598
 20
22.5157
 30
0.0
 10
-154.2598
 20
21.9315
 30
0.0
 10
-154.4686
 20
21.4729
 30
0.0
 10
-154.8877
 20
21.1399
 30
0.0
 10
-154.8877
 20
21.1399
 30
0.0
 10
-155.3915
 20
20.7405
 30
0.0
 10
-156.2142
 20
20.5402
 30
0.0
 10
-157.3515
 20
20.5402
 30
0.0
  0
SPLINE
  5
80
330
1F
100
AcDbEntity
  8
52
 62
   250
100
AcDbSpline
210
0.0
220
0.0
230
1.0
 70
    11
 71
     3
 72
    36
 73
    32
 74
     0
 42
0.0000000001
 43
0.0000000001
 40
0.0
 40
0.0
 40
0.0
 40
0.0
 40
0.125
 40
0.125
 40
0.125
 40
0.125
 40
0.25
 40
0.25
 40
0.25
 40
0.25
 40
0.375
 40
0.375
 40
0.375
 40
0.375
 40
0.5
 40
0.5
 40
0.5
 40
0.5
 40
0.625
 40
0.625
 40
0.625
 40
0.625
 40
0.75
 40
0.75
 40
0.75
 40
0.75
 40
0.875
 40
0.875
 40
0.875
 40
0.875
 40
1.0
 40
1.0
 40
1.0
 40
1.0
 10
-157.3515
 20
21.305
 30
0.0
 10
-156.3567
 20
21.305
 30
0.0
 10
-155.6949
 20
21.4221
 30
0.0
 10
-155.3647
 20
21.655
 30
0.0
 10
-155.3647
 20
21.655
 30
0.0
 10
-155.0359
 20
21.8878
 30
0.0
 10
-154.8708
 20
22.1742
 30
0.0
 10
-154.8708
 20
22.5157
 30
0.0
 10
-154.8708
 20
22.5157
 30
0.0
 10
-154.8708
 20
22.8586
 30
0.0
 10
-155.0373
 20
23.1451
 30
0.0
 10
-155.3675
 20
23.3779
 30
0.0
 10
-155.3675
 20
23.3779
 30
0.0
 10
-155.6977
 20
23.6108
 30
0.0
 10
-156.3595
 20
23.7279
 30
0.0
 10
-157.3515
 20
23.7279
 30
0.0
 10
-157.3515
 20
23.7279
 30
0.0
 10
-158.3492
 20
23.7279
 30
0.0
 10
-159.0124
 20
23.6108
 30
0.0
 10
-159.3398
 20
23.3779
 30
0.0
 10
-159.3398
 20
23.3779
 30
0.0
 10
-159.6686
 20
23.1451
 30
0.0
 10
-159.8323
 20
22.8558
 30
0.0
 10
-159.8323
 20
22.5087
 30
0.0
 10
-159.8323
 20
22.5087
 30
0.0
 10
-159.8323
 20
22.1658
 30
0.0
 10
-159.6869
 20
21.8934
 30
0.0
 10
-159.3977
 20
21.6888
 30
0.0
 10
-159.3977
 20
21.6888
 30
0.0
 10
-159.0294
 20
21.4334
 30
0.0
 10
-158.3464
 20
21.305
 30
0.0
 10
-157.3515
 20
21.305
 30
0.0
  0
SPLINE
  5
81
330
1F
100
AcDbEntity
  8
52
 62
   250
100
AcDbSpline
210
0.0
220
0.0
230
1.0
 70
    11
 71
     3
 72
    52
 73
    48
 74
     0
 42
0.0000000001
 43
0.0000000001
 40
0.0
 40
0.0
 40
0.0
 40
0.0
 40
0.0833333333333333
 40
0.0833333333333333
 40
0.0833333333333333
 40
0.0833333333333333
 40
0.1666666666666667
 40
0.1666666666666667
 40
0.1666666666666667
 40
0.1666666666666667
 40
0.25
 40
0.25
 40
0.25
 40
0.25
 40
0.3333333333333333
 40
0.3333333333333333
 40
0.3333333333333333
 40
0.3333333333333333
 40
0.4166666666666666
 40
0.4166666666666666
 40
0.4166666666666666
 40
0.4166666666666666
 40
0.4999999999999999
 40
0.4999999999999999
 40
0.4999999999999999
 40
0.4999999999999999
 40
0.5833333333333333
 40
0.5833333333333333
 40
0.5833333333333333
 40
0.5833333333333333
 40
0.6666666666666666
 40
0.6666666666666666
 40
0.6666666666666666
 40
0.6666666666666666
 40
0.75
 40
0.75
 40
0.75
 40
0.75
 40
0.8333333333333334
 40
0.8333333333333334
 40
0.8333333333333334
 40
0.8333333333333334
 40
0.9166666666666667
 40
0.9166666666666667
 40
0.9166666666666667
 40
0.9166666666666667
 40
1.0
 40
1.0
 40
1.0
 40
1.0
 10
-157.3515
 20
25.2491
 30
0.0
 10
-158.0684
 20
25.2491
 30
0.0
 10
-158.6455
 20
25.3224
 30
0.0
 10
-159.0816
 20
25.4706
 30
0.0
 10
-159.0816
 20
25.4706
 30
0.0
 10
-159.519
 20
25.6174
 30
0.0
 10
-159.8563
 20
25.8375
 30
0.0
 10
-160.0933
 20
26.1282
 30
0.0
 10
-160.0933
 20
26.1282
 30
0.0
 10
-160.3304
 20
26.4189
 30
0.0
 10
-160.4475
 20
26.7844
 30
0.0
 10
-160.4475
 20
27.2246
 30
0.0
 10
-160.4475
 20
27.2246
 30
0.0
 10
-160.4475
 20
27.5506
 30
0.0
 10
-160.3826
 20
27.8356
 30
0.0
 10
-160.2514
 20
28.0812
 30
0.0
 10
-160.2514
 20
28.0812
 30
0.0
 10
-160.1216
 20
28.3267
 30
0.0
 10
-159.9325
 20
28.5285
 30
0.0
 10
-159.6855
 20
28.6894
 30
0.0
 10
-159.6855
 20
28.6894
 30
0.0
 10
-159.4386
 20
28.8488
 30
0.0
 10
-159.138
 20
28.9744
 30
0.0
 10
-158.7838
 20
29.0647
 30
0.0
 10
-158.7838
 20
29.0647
 30
0.0
 10
-158.4296
 20
29.1565
 30
0.0
 10
-157.9527
 20
29.2016
 30
0.0
 10
-157.3515
 20
29.2016
 30
0.0
 10
-157.3515
 20
29.2016
 30
0.0
 10
-156.6403
 20
29.2016
 30
0.0
 10
-156.0674
 20
29.1282
 30
0.0
 10
-155.63
 20
28.9829
 30
0.0
 10
-155.63
 20
28.9829
 30
0.0
 10
-155.1925
 20
28.8361
 30
0.0
 10
-154.8553
 20
28.6174
 30
0.0
 10
-154.6168
 20
28.3267
 30
0.0
 10
-154.6168
 20
28.3267
 30
0.0
 10
-154.3783
 20
28.036
 30
0.0
 10
-154.2598
 20
27.6691
 30
0.0
 10
-154.2598
 20
27.2246
 30
0.0
 10
-154.2598
 20
27.2246
 30
0.0
 10
-154.2598
 20
26.6404
 30
0.0
 10
-154.4686
 20
26.1818
 30
0.0
 10
-154.8877
 20
25.8488
 30
0.0
 10
-154.8877
 20
25.8488
 30
0.0
 10
-155.3915
 20
25.4494
 30
0.0
 10
-156.2142
 20
25.2491
 30
0.0
 10
-157.3515
 20
25.2491
 30
0.0
  0
SPLINE
  5
82
330
1F
100
AcDbEntity
  8
52
 62
   250
100
AcDbSpline
210
0.0
220
0.0
230
1.0
 70
    11
 71
     3
 72
    36
 73
    32
 74
     0
 42
0.0000000001
 43
0.0000000001
 40
0.0
 40
0.0
 40
0.0
 40
0.0
 40
0.125
 40
0.125
 40
0.125
 40
0.125
 40
0.25
 40
0.25
 40
0.25
 40
0.25
 40
0.375
 40
0.375
 40
0.375
 40
0.375
 40
0.5
 40
0.5
 40
0.5
 40
0.5
 40
0.625
 40
0.625
 40
0.625
 40
0.625
 40
0.75
 40
0.75
 40
0.75
 40
0.75
 40
0.875
 40
0.875
 40
0.875
 40
0.875
 40
1.0
 40
1.0
 40
1.0
 40
1.0
 10
-157.3515
 20
26.0139
 30
0.0
 10
-156.3567
 20
26.0139
 30
0.0
 10
-155.6949
 20
26.131
 30
0.0
 10
-155.3647
 20
26.3639
 30
0.0
 10
-155.3647
 20
26.3639
 30
0.0
 10
-155.0359
 20
26.5967
 30
0.0
 10
-154.8708
 20
26.8831
 30
0.0
 10
-154.8708
 20
27.2246
 30
0.0
 10
-154.8708
 20
27.2246
 30
0.0
 10
-154.8708
 20
27.5675
 30
0.0
 10
-155.0373
 20
27.854
 30
0.0
 10
-155.3675
 20
28.0868
 30
0.0
 10
-155.3675
 20
28.0868
 30
0.0
 10
-155.6977
 20
28.3197
 30
0.0
 10
-156.3595
 20
28.4368
 30
0.0
 10
-157.3515
 20
28.4368
 30
0.0
 10
-157.3515
 20
28.4368
 30
0.0
 10
-158.3492
 20
28.4368
 30
0.0
 10
-159.0124
 20
28.3197
 30
0.0
 10
-159.3398
 20
28.0868
 30
0.0
 10
-159.3398
 20
28.0868
 30
0.0
 10
-159.6686
 20
27.854
 30
0.0
 10
-159.8323
 20
27.5647
 30
0.0
 10
-159.8323
 20
27.2176
 30
0.0
 10
-159.8323
 20
27.2176
 30
0.0
 10
-159.8323
 20
26.8747
 30
0.0
 10
-159.6869
 20
26.6023
 30
0.0
 10
-159.3977
 20
26.3977
 30
0.0
 10
-159.3977
 20
26.3977
 30
0.0
 10
-159.0294
 20
26.1423
 30
0.0
 10
-158.3464
 20
26.0139
 30
0.0
 10
-157.3515
 20
26.0139
 30
0.0
  0
SPLINE
  5
83
330
1F
100
AcDbEntity
  8
52
 62
   250
100
AcDbSpline
210
0.0
220
0.0
230
1.0
 70
    11
 71
     3
 72
   116
 73
   112
 74
     0
 42
0.0000000001
 43
0.0000000001
 40
0.0
 40
0.0
 40
0.0
 40
0.0
 40
0.0357142857142857
 40
0.0357142857142857
 40
0.0357142857142857
 40
0.0357142857142857
 40
0.0714285714285714
 40
0.0714285714285714
 40
0.0714285714285714
 40
0.0714285714285714
 40
0.1071428571428571
 40
0.1071428571428571
 40
0.1071428571428571
 40
0.1071428571428571
 40
0.1428571428571429
 40
0.1428571428571429
 40
0.1428571428571429
 40
0.1428571428571429
 40
0.1785714285714286
 40
0.1785714285714286
 40
0.1785714285714286
 40
0.1785714285714286
 40
0.2142857142857143
 40
0.2142857142857143
 40
0.2142857142857143
 40
0.2142857142857143
 40
0.2499999999999999
 40
0.2499999999999999
 40
0.2499999999999999
 40
0.2499999999999999
 40
0.2857142857142856
 40
0.2857142857142856
 40
0.2857142857142856
 40
0.2857142857142856
 40
0.3214285714285713
 40
0.3214285714285713
 40
0.3214285714285713
 40
0.3214285714285713
 40
0.357142857142857
 40
0.357142857142857
 40
0.357142857142857
 40
0.357142857142857
 40
0.3928571428571427
 40
0.3928571428571427
 40
0.3928571428571427
 40
0.3928571428571427
 40
0.4285714285714284
 40
0.4285714285714284
 40
0.4285714285714284
 40
0.4285714285714284
 40
0.4642857142857141
 40
0.4642857142857141
 40
0.4642857142857141
 40
0.4642857142857141
 40
0.4999999999999998
 40
0.4999999999999998
 40
0.4999999999999998
 40
0.4999999999999998
 40
0.5357142857142856
 40
0.5357142857142856
 40
0.5357142857142856
 40
0.5357142857142856
 40
0.5714285714285713
 40
0.5714285714285713
 40
0.5714285714285713
 40
0.5714285714285713
 40
0.607142857142857
 40
0.607142857142857
 40
0.607142857142857
 40
0.607142857142857
 40
0.6428571428571427
 40
0.6428571428571427
 40
0.6428571428571427
 40
0.6428571428571427
 40
0.6785714285714284
 40
0.6785714285714284
 40
0.6785714285714284
 40
0.6785714285714284
 40
0.7142857142857141
 40
0.7142857142857141
 40
0.7142857142857141
 40
0.7142857142857141
 40
0.7499999999999998
 40
0.7499999999999998
 40
0.7499999999999998
 40
0.7499999999999998
 40
0.7857142857142855
 40
0.7857142857142855
 40
0.7857142857142855
 40
0.7857142857142855
 40
0.8214285714285712
 40
0.8214285714285712
 40
0.8214285714285712
 40
0.8214285714285712
 40
0.8571428571428569
 40
0.8571428571428569
 40
0.8571428571428569
 40
0.8571428571428569
 40
0.8928571428571426
 40
0.8928571428571426
 40
0.8928571428571426
 40
0.8928571428571426
 40
0.9285714285714283
 40
0.9285714285714283
 40
0.9285714285714283
 40
0.9285714285714283
 40
0.964285714285714
 40
0.964285714285714
 40
0.964285714285714
 40
0.964285714285714
 40
1.0
 40
1.0
 40
1.0
 40
1.0
 10
-154.3628
 20
32.51770000000001
 30
0.0
 10
-154.3628
 20
32.51770000000001
 30
0.0
 10
-158.7528
 20
32.51770000000001
 30
0.0
 10
-158.7528
 20
32.51770000000001
 30
0.0
 10
-158.7528
 20
32.51770000000001
 30
0.0
 10
-158.7528
 20
32.51770000000001
 30
0.0
 10
-158.7528
 20
33.18230000000001
 30
0.0
 10
-158.7528
 20
33.18230000000001
 30
0.0
 10
-158.7528
 20
33.18230000000001
 30
0.0
 10
-158.7528
 20
33.18230000000001
 30
0.0
 10
-158.1375
 20
33.18230000000001
 30
0.0
 10
-158.1375
 20
33.18230000000001
 30
0.0
 10
-158.1375
 20
33.18230000000001
 30
0.0
 10
-158.352
 20
33.3206
 30
0.0
 10
-158.5256
 20
33.5041
 30
0.0
 10
-158.6554
 20
33.7327
 30
0.0
 10
-158.6554
 20
33.7327
 30
0.0
 10
-158.7867
 20
33.9613
 30
0.0
 10
-158.853
 20
34.2223
 30
0.0
 10
-158.853
 20
34.5144
 30
0.0
 10
-158.853
 20
34.5144
 30
0.0
 10
-158.853
 20
34.839
 30
0.0
 10
-158.7852
 20
35.1057
 30
0.0
 10
-158.6498
 20
35.3131
 30
0.0
 10
-158.6498
 20
35.3131
 30
0.0
 10
-158.5143
 20
35.522
 30
0.0
 10
-158.3266
 20
35.6687
 30
0.0
 10
-158.0839
 20
35.7534
 30
0.0
 10
-158.0839
 20
35.7534
 30
0.0
 10
-158.5962
 20
36.1019
 30
0.0
 10
-158.853
 20
36.5535
 30
0.0
 10
-158.853
 20
37.1095
 30
0.0
 10
-158.853
 20
37.1095
 30
0.0
 10
-158.853
 20
37.5455
 30
0.0
 10
-158.7316
 20
37.8799
 30
0.0
 10
-158.4903
 20
38.1142
 30
0.0
 10
-158.4903
 20
38.1142
 30
0.0
 10
-158.249
 20
38.34840000000001
 30
0.0
 10
-157.8779
 20
38.4656
 30
0.0
 10
-157.3769
 20
38.4656
 30
0.0
 10
-157.3769
 20
38.4656
 30
0.0
 10
-157.3769
 20
38.4656
 30
0.0
 10
-154.3628
 20
38.4656
 30
0.0
 10
-154.3628
 20
38.4656
 30
0.0
 10
-154.3628
 20
38.4656
 30
0.0
 10
-154.3628
 20
38.4656
 30
0.0
 10
-154.3628
 20
37.7261
 30
0.0
 10
-154.3628
 20
37.7261
 30
0.0
 10
-154.3628
 20
37.7261
 30
0.0
 10
-154.3628
 20
37.7261
 30
0.0
 10
-157.1286
 20
37.7261
 30
0.0
 10
-157.1286
 20
37.7261
 30
0.0
 10
-157.1286
 20
37.7261
 30
0.0
 10
-157.4263
 20
37.7261
 30
0.0
 10
-157.6408
 20
37.7021
 30
0.0
 10
-157.7721
 20
37.6542
 30
0.0
 10
-157.7721
 20
37.6542
 30
0.0
 10
-157.9019
 20
37.6048
 30
0.0
 10
-158.0077
 20
37.5173
 30
0.0
 10
-158.0881
 20
37.3917
 30
0.0
 10
-158.0881
 20
37.3917
 30
0.0
 10
-158.1672
 20
37.26470000000001
 30
0.0
 10
-158.2081
 20
37.11510000000001
 30
0.0
 10
-158.2081
 20
36.9444
 30
0.0
 10
-158.2081
 20
36.9444
 30
0.0
 10
-158.2081
 20
36.6353
 30
0.0
 10
-158.1051
 20
36.3799
 30
0.0
 10
-157.8991
 20
36.1753
 30
0.0
 10
-157.8991
 20
36.1753
 30
0.0
 10
-157.6944
 20
35.97210000000001
 30
0.0
 10
-157.3657
 20
35.8691
 30
0.0
 10
-156.9141
 20
35.8691
 30
0.0
 10
-156.9141
 20
35.8691
 30
0.0
 10
-156.9141
 20
35.8691
 30
0.0
 10
-154.3628
 20
35.8691
 30
0.0
 10
-154.3628
 20
35.8691
 30
0.0
 10
-154.3628
 20
35.8691
 30
0.0
 10
-154.3628
 20
35.8691
 30
0.0
 10
-154.3628
 20
35.1254
 30
0.0
 10
-154.3628
 20
35.1254
 30
0.0
 10
-154.3628
 20
35.1254
 30
0.0
 10
-154.3628
 20
35.1254
 30
0.0
 10
-157.2147
 20
35.1254
 30
0.0
 10
-157.2147
 20
35.1254
 30
0.0
 10
-157.2147
 20
35.1254
 30
0.0
 10
-157.5463
 20
35.1254
 30
0.0
 10
-157.7946
 20
35.0648
 30
0.0
 10
-157.9597
 20
34.9434
 30
0.0
 10
-157.9597
 20
34.9434
 30
0.0
 10
-158.1248
 20
34.8221
 30
0.0
 10
-158.2081
 20
34.62450000000001
 30
0.0
 10
-158.2081
 20
34.3479
 30
0.0
 10
-158.2081
 20
34.3479
 30
0.0
 10
-158.2081
 20
34.1391
 30
0.0
 10
-158.1531
 20
33.9458
 30
0.0
 10
-158.0416
 20
33.768
 30
0.0
 10
-158.0416
 20
33.768
 30
0.0
 10
-157.9315
 20
33.5902
 30
0.0
 10
-157.7706
 20
33.4603
 30
0.0
 10
-157.559
 20
33.3813
 30
0.0
 10
-157.559
 20
33.3813
 30
0.0
 10
-157.3459
 20
33.3009
 30
0.0
 10
-157.0397
 20
33.2614
 30
0.0
 10
-156.6403
 20
33.2614
 30
0.0
 10
-156.6403
 20
33.2614
 30
0.0
 10
-156.6403
 20
33.2614
 30
0.0
 10
-154.3628
 20
33.2614
 30
0.0
 10
-154.3628
 20
33.2614
 30
0.0
 10
-154.3628
 20
33.2614
 30
0.0
 10
-154.3628
 20
33.2614
 30
0.0
 10
-154.3628
 20
32.51770000000001
 30
0.0
 10
-154.3628
 20
32.51770000000001
 30
0.0
  0
SPLINE
  5
84
330
1F
100
AcDbEntity
  8
52
 62
   250
100
AcDbSpline
210
0.0
220
0.0
230
1.0
 70
    11
 71
     3
 72
   116
 73
   112
 74
     0
 42
0.0000000001
 43
0.0000000001
 40
0.0
 40
0.0
 40
0.0
 40
0.0
 40
0.0357142857142857
 40
0.0357142857142857
 40
0.0357142857142857
 40
0.0357142857142857
 40
0.0714285714285714
 40
0.0714285714285714
 40
0.0714285714285714
 40
0.0714285714285714
 40
0.1071428571428571
 40
0.1071428571428571
 40
0.1071428571428571
 40
0.1071428571428571
 40
0.1428571428571429
 40
0.1428571428571429
 40
0.1428571428571429
 40
0.1428571428571429
 40
0.1785714285714286
 40
0.1785714285714286
 40
0.1785714285714286
 40
0.1785714285714286
 40
0.2142857142857143
 40
0.2142857142857143
 40
0.2142857142857143
 40
0.2142857142857143
 40
0.2499999999999999
 40
0.2499999999999999
 40
0.2499999999999999
 40
0.2499999999999999
 40
0.2857142857142856
 40
0.2857142857142856
 40
0.2857142857142856
 40
0.2857142857142856
 40
0.3214285714285713
 40
0.3214285714285713
 40
0.3214285714285713
 40
0.3214285714285713
 40
0.357142857142857
 40
0.357142857142857
 40
0.357142857142857
 40
0.357142857142857
 40
0.3928571428571427
 40
0.3928571428571427
 40
0.3928571428571427
 40
0.3928571428571427
 40
0.4285714285714284
 40
0.4285714285714284
 40
0.4285714285714284
 40
0.4285714285714284
 40
0.4642857142857141
 40
0.4642857142857141
 40
0.4642857142857141
 40
0.4642857142857141
 40
0.4999999999999998
 40
0.4999999999999998
 40
0.4999999999999998
 40
0.4999999999999998
 40
0.5357142857142856
 40
0.5357142857142856
 40
0.5357142857142856
 40
0.5357142857142856
 40
0.5714285714285713
 40
0.5714285714285713
 40
0.5714285714285713
 40
0.5714285714285713
 40
0.607142857142857
 40
0.607142857142857
 40
0.607142857142857
 40
0.607142857142857
 40
0.6428571428571427
 40
0.6428571428571427
 40
0.6428571428571427
 40
0.6428571428571427
 40
0.6785714285714284
 40
0.6785714285714284
 40
0.6785714285714284
 40
0.6785714285714284
 40
0.7142857142857141
 40
0.7142857142857141
 40
0.7142857142857141
 40
0.7142857142857141
 40
0.7499999999999998
 40
0.7499999999999998
 40
0.7499999999999998
 40
0.7499999999999998
 40
0.7857142857142855
 40
0.7857142857142855
 40
0.7857142857142855
 40
0.7857142857142855
 40
0.8214285714285712
 40
0.8214285714285712
 40
0.8214285714285712
 40
0.8214285714285712
 40
0.8571428571428569
 40
0.8571428571428569
 40
0.8571428571428569
 40
0.8571428571428569
 40
0.8928571428571426
 40
0.8928571428571426
 40
0.8928571428571426
 40
0.8928571428571426
 40
0.9285714285714283
 40
0.9285714285714283
 40
0.9285714285714283
 40
0.9285714285714283
 40
0.964285714285714
 40
0.964285714285714
 40
0.964285714285714
 40
0.964285714285714
 40
1.0
 40
1.0
 40
1.0
 40
1.0
 10
-154.3628
 20
39.5705
 30
0.0
 10
-154.3628
 20
39.5705
 30
0.0
 10
-158.7528
 20
39.5705
 30
0.0
 10
-158.7528
 20
39.5705
 30
0.0
 10
-158.7528
 20
39.5705
 30
0.0
 10
-158.7528
 20
39.5705
 30
0.0
 10
-158.7528
 20
40.2351
 30
0.0
 10
-158.7528
 20
40.2351
 30
0.0
 10
-158.7528
 20
40.2351
 30
0.0
 10
-158.7528
 20
40.2351
 30
0.0
 10
-158.1375
 20
40.2351
 30
0.0
 10
-158.1375
 20
40.2351
 30
0.0
 10
-158.1375
 20
40.2351
 30
0.0
 10
-158.352
 20
40.3734
 30
0.0
 10
-158.5256
 20
40.5569
 30
0.0
 10
-158.6554
 20
40.7855
 30
0.0
 10
-158.6554
 20
40.7855
 30
0.0
 10
-158.7867
 20
41.0141
 30
0.0
 10
-158.853
 20
41.2751
 30
0.0
 10
-158.853
 20
41.5672
 30
0.0
 10
-158.853
 20
41.5672
 30
0.0
 10
-158.853
 20
41.8918
 30
0.0
 10
-158.7852
 20
42.1585
 30
0.0
 10
-158.6498
 20
42.3659
 30
0.0
 10
-158.6498
 20
42.3659
 30
0.0
 10
-158.5143
 20
42.5748
 30
0.0
 10
-158.3266
 20
42.7215
 30
0.0
 10
-158.0839
 20
42.8062
 30
0.0
 10
-158.0839
 20
42.8062
 30
0.0
 10
-158.5962
 20
43.15470000000001
 30
0.0
 10
-158.853
 20
43.60630000000001
 30
0.0
 10
-158.853
 20
44.1623
 30
0.0
 10
-158.853
 20
44.1623
 30
0.0
 10
-158.853
 20
44.5983
 30
0.0
 10
-158.7316
 20
44.9327
 30
0.0
 10
-158.4903
 20
45.167
 30
0.0
 10
-158.4903
 20
45.167
 30
0.0
 10
-158.249
 20
45.4012
 30
0.0
 10
-157.8779
 20
45.5184
 30
0.0
 10
-157.3769
 20
45.5184
 30
0.0
 10
-157.3769
 20
45.5184
 30
0.0
 10
-157.3769
 20
45.5184
 30
0.0
 10
-154.3628
 20
45.5184
 30
0.0
 10
-154.3628
 20
45.5184
 30
0.0
 10
-154.3628
 20
45.5184
 30
0.0
 10
-154.3628
 20
45.5184
 30
0.0
 10
-154.3628
 20
44.7789
 30
0.0
 10
-154.3628
 20
44.7789
 30
0.0
 10
-154.3628
 20
44.7789
 30
0.0
 10
-154.3628
 20
44.7789
 30
0.0
 10
-157.1286
 20
44.7789
 30
0.0
 10
-157.1286
 20
44.7789
 30
0.0
 10
-157.1286
 20
44.7789
 30
0.0
 10
-157.4263
 20
44.7789
 30
0.0
 10
-157.6408
 20
44.7549
 30
0.0
 10
-157.7721
 20
44.707
 30
0.0
 10
-157.7721
 20
44.707
 30
0.0
 10
-157.9019
 20
44.6576
 30
0.0
 10
-158.0077
 20
44.5701
 30
0.0
 10
-158.0881
 20
44.44450000000001
 30
0.0
 10
-158.0881
 20
44.44450000000001
 30
0.0
 10
-158.1672
 20
44.3175
 30
0.0
 10
-158.2081
 20
44.1679
 30
0.0
 10
-158.2081
 20
43.9972
 30
0.0
 10
-158.2081
 20
43.9972
 30
0.0
 10
-158.2081
 20
43.6881
 30
0.0
 10
-158.1051
 20
43.4327
 30
0.0
 10
-157.8991
 20
43.22810000000001
 30
0.0
 10
-157.8991
 20
43.22810000000001
 30
0.0
 10
-157.6944
 20
43.0249
 30
0.0
 10
-157.3657
 20
42.9219
 30
0.0
 10
-156.9141
 20
42.9219
 30
0.0
 10
-156.9141
 20
42.9219
 30
0.0
 10
-156.9141
 20
42.9219
 30
0.0
 10
-154.3628
 20
42.9219
 30
0.0
 10
-154.3628
 20
42.9219
 30
0.0
 10
-154.3628
 20
42.9219
 30
0.0
 10
-154.3628
 20
42.9219
 30
0.0
 10
-154.3628
 20
42.1782
 30
0.0
 10
-154.3628
 20
42.1782
 30
0.0
 10
-154.3628
 20
42.1782
 30
0.0
 10
-154.3628
 20
42.1782
 30
0.0
 10
-157.2147
 20
42.1782
 30
0.0
 10
-157.2147
 20
42.1782
 30
0.0
 10
-157.2147
 20
42.1782
 30
0.0
 10
-157.5463
 20
42.1782
 30
0.0
 10
-157.7946
 20
42.1176
 30
0.0
 10
-157.9597
 20
41.9962
 30
0.0
 10
-157.9597
 20
41.9962
 30
0.0
 10
-158.1248
 20
41.8749
 30
0.0
 10
-158.2081
 20
41.6773
 30
0.0
 10
-158.2081
 20
41.4007
 30
0.0
 10
-158.2081
 20
41.4007
 30
0.0
 10
-158.2081
 20
41.1919
 30
0.0
 10
-158.1531
 20
40.9986
 30
0.0
 10
-158.0416
 20
40.8208
 30
0.0
 10
-158.0416
 20
40.8208
 30
0.0
 10
-157.9315
 20
40.643
 30
0.0
 10
-157.7706
 20
40.5131
 30
0.0
 10
-157.559
 20
40.4341
 30
0.0
 10
-157.559
 20
40.4341
 30
0.0
 10
-157.3459
 20
40.3537
 30
0.0
 10
-157.0397
 20
40.3142
 30
0.0
 10
-156.6403
 20
40.3142
 30
0.0
 10
-156.6403
 20
40.3142
 30
0.0
 10
-156.6403
 20
40.3142
 30
0.0
 10
-154.3628
 20
40.3142
 30
0.0
 10
-154.3628
 20
40.3142
 30
0.0
 10
-154.3628
 20
40.3142
 30
0.0
 10
-154.3628
 20
40.3142
 30
0.0
 10
-154.3628
 20
39.5705
 30
0.0
 10
-154.3628
 20
39.5705
 30
0.0
  0
SPLINE
  5
85
330
1F
100
AcDbEntity
  8
52
 62
   250
370
     5
100
AcDbSpline
210
0.0
220
0.0
230
1.0
 70
    24
 71
     3
 72
     8
 73
     4
 74
     0
 42
0.0000000001
 43
0.0000000001
 40
0.0
 40
0.0
 40
0.0
 40
0.0
 40
1.0
 40
1.0
 40
1.0
 40
1.0
 10
149.4261
 20
-3.3243
 30
0.0
 10
149.4261
 20
-3.3243
 30
0.0
 10
149.4261
 20
-38.8018
 30
0.0
 10
149.4261
 20
-38.8018
 30
0.0
  0
SPLINE
  5
86
330
1F
100
AcDbEntity
  8
52
 62
   250
370
     5
100
AcDbSpline
210
0.0
220
0.0
230
1.0
 70
    24
 71
     3
 72
     8
 73
     4
 74
     0
 42
0.0000000001
 43
0.0000000001
 40
0.0
 40
0.0
 40
0.0
 40
0.0
 40
1.0
 40
1.0
 40
1.0
 40
1.0
 10
149.4261
 20
81.1978
 30
0.0
 10
149.4261
 20
81.1978
 30
0.0
 10
149.4261
 20
51.1843
 30
0.0
 10
149.4261
 20
51.1843
 30
0.0
  0
SPLINE
  5
87
330
1F
100
AcDbEntity
  8
52
 62
   250
370
     5
100
AcDbSpline
210
0.0
220
0.0
230
1.0
 70
    24
 71
     3
 72
     8
 73
     4
 74
     0
 42
0.0000000001
 43
0.0000000001
 40
0.0
 40
0.0
 40
0.0
 40
0.0
 40
1.0
 40
1.0
 40
1.0
 40
1.0
 10
129.9072
 20
-38.8018
 30
0.0
 10
129.9072
 20
-38.8018
 30
0.0
 10
154.5061
 20
-38.8018
 30
0.0
 10
154.5061
 20
-38.8018
 30
0.0
  0
SPLINE
  5
88
330
1F
100
AcDbEntity
  8
52
 62
   250
370
     5
100
AcDbSpline
210
0.0
220
0.0
230
1.0
 70
    24
 71
     3
 72
     8
 73
     4
 74
     0
 42
0.0000000001
 43
0.0000000001
 40
0.0
 40
0.0
 40
0.0
 40
0.0
 40
1.0
 40
1.0
 40
1.0
 40
1.0
 10
129.907
 20
81.1978
 30
0.0
 10
129.907
 20
81.1978
 30
0.0
 10
154.5061
 20
81.1978
 30
0.0
 10
154.5061
 20
81.1978
 30
0.0
  0
SPLINE
  5
89
330
1F
100
AcDbEntity
  8
52
 62
   250
100
AcDbSpline
210
0.0
220
0.0
230
1.0
 70
    11
 71
     3
 72
    40
 73
    36
 74
     0
 42
0.0000000001
 43
0.0000000001
 40
0.0
 40
0.0
 40
0.0
 40
0.0
 40
0.1111111111111111
 40
0.1111111111111111
 40
0.1111111111111111
 40
0.1111111111111111
 40
0.2222222222222222
 40
0.2222222222222222
 40
0.2222222222222222
 40
0.2222222222222222
 40
0.3333333333333333
 40
0.3333333333333333
 40
0.3333333333333333
 40
0.3333333333333333
 40
0.4444444444444444
 40
0.4444444444444444
 40
0.4444444444444444
 40
0.4444444444444444
 40
0.5555555555555556
 40
0.5555555555555556
 40
0.5555555555555556
 40
0.5555555555555556
 40
0.6666666666666667
 40
0.6666666666666667
 40
0.6666666666666667
 40
0.6666666666666667
 40
0.7777777777777779
 40
0.7777777777777779
 40
0.7777777777777779
 40
0.7777777777777779
 40
0.8888888888888891
 40
0.8888888888888891
 40
0.8888888888888891
 40
0.8888888888888891
 40
1.0
 40
1.0
 40
1.0
 40
1.0
 10
152.4177
 20
6.1795
 30
0.0
 10
152.4177
 20
6.1795
 30
0.0
 10
152.4177
 20
5.4359
 30
0.0
 10
152.4177
 20
5.4359
 30
0.0
 10
152.4177
 20
5.4359
 30
0.0
 10
152.4177
 20
5.4359
 30
0.0
 10
147.6763
 20
5.4359
 30
0.0
 10
147.6763
 20
5.4359
 30
0.0
 10
147.6763
 20
5.4359
 30
0.0
 10
147.8471
 20
5.2567
 30
0.0
 10
148.0178
 20
5.0224
 30
0.0
 10
148.1886
 20
4.7317
 30
0.0
 10
148.1886
 20
4.7317
 30
0.0
 10
148.3593
 20
4.4396
 30
0.0
 10
148.4877
 20
4.1786
 30
0.0
 10
148.5724
 20
3.9472
 30
0.0
 10
148.5724
 20
3.9472
 30
0.0
 10
148.5724
 20
3.9472
 30
0.0
 10
147.8541
 20
3.9472
 30
0.0
 10
147.8541
 20
3.9472
 30
0.0
 10
147.8541
 20
3.9472
 30
0.0
 10
147.658
 20
4.3634
 30
0.0
 10
147.4209
 20
4.7275
 30
0.0
 10
147.1429
 20
5.039400000000001
 30
0.0
 10
147.1429
 20
5.039400000000001
 30
0.0
 10
146.8635
 20
5.3498
 30
0.0
 10
146.594
 20
5.571400000000001
 30
0.0
 10
146.333
 20
5.7012
 30
0.0
 10
146.333
 20
5.7012
 30
0.0
 10
146.333
 20
5.7012
 30
0.0
 10
146.333
 20
6.1795
 30
0.0
 10
146.333
 20
6.1795
 30
0.0
 10
146.333
 20
6.1795
 30
0.0
 10
146.333
 20
6.1795
 30
0.0
 10
152.4177
 20
6.1795
 30
0.0
 10
152.4177
 20
6.1795
 30
0.0
  0
SPLINE
  5
8A
330
1F
100
AcDbEntity
  8
52
 62
   250
100
AcDbSpline
210
0.0
220
0.0
230
1.0
 70
    11
 71
     3
 72
    92
 73
    88
 74
     0
 42
0.0000000001
 43
0.0000000001
 40
0.0
 40
0.0
 40
0.0
 40
0.0
 40
0.0454545454545455
 40
0.0454545454545455
 40
0.0454545454545455
 40
0.0454545454545455
 40
0.0909090909090909
 40
0.0909090909090909
 40
0.0909090909090909
 40
0.0909090909090909
 40
0.1363636363636364
 40
0.1363636363636364
 40
0.1363636363636364
 40
0.1363636363636364
 40
0.1818181818181818
 40
0.1818181818181818
 40
0.1818181818181818
 40
0.1818181818181818
 40
0.2272727272727273
 40
0.2272727272727273
 40
0.2272727272727273
 40
0.2272727272727273
 40
0.2727272727272728
 40
0.2727272727272728
 40
0.2727272727272728
 40
0.2727272727272728
 40
0.3181818181818182
 40
0.3181818181818182
 40
0.3181818181818182
 40
0.3181818181818182
 40
0.3636363636363637
 40
0.3636363636363637
 40
0.3636363636363637
 40
0.3636363636363637
 40
0.4090909090909092
 40
0.4090909090909092
 40
0.4090909090909092
 40
0.4090909090909092
 40
0.4545454545454546
 40
0.4545454545454546
 40
0.4545454545454546
 40
0.4545454545454546
 40
0.5000000000000001
 40
0.5000000000000001
 40
0.5000000000000001
 40
0.5000000000000001
 40
0.5454545454545455
 40
0.5454545454545455
 40
0.5454545454545455
 40
0.5454545454545455
 40
0.5909090909090909
 40
0.5909090909090909
 40
0.5909090909090909
 40
0.5909090909090909
 40
0.6363636363636364
 40
0.6363636363636364
 40
0.6363636363636364
 40
0.6363636363636364
 40
0.6818181818181818
 40
0.6818181818181818
 40
0.6818181818181818
 40
0.6818181818181818
 40
0.7272727272727272
 40
0.7272727272727272
 40
0.7272727272727272
 40
0.7272727272727272
 40
0.7727272727272726
 40
0.7727272727272726
 40
0.7727272727272726
 40
0.7727272727272726
 40
0.818181818181818
 40
0.818181818181818
 40
0.818181818181818
 40
0.818181818181818
 40
0.8636363636363634
 40
0.8636363636363634
 40
0.8636363636363634
 40
0.8636363636363634
 40
0.9090909090909088
 40
0.9090909090909088
 40
0.9090909090909088
 40
0.9090909090909088
 40
0.9545454545454543
 40
0.9545454545454543
 40
0.9545454545454543
 40
0.9545454545454543
 40
1.0
 40
1.0
 40
1.0
 40
1.0
 10
151.7023
 20
11.9976
 30
0.0
 10
151.7023
 20
11.9976
 30
0.0
 10
152.4177
 20
11.9976
 30
0.0
 10
152.4177
 20
11.9976
 30
0.0
 10
152.4177
 20
11.9976
 30
0.0
 10
152.4177
 20
11.9976
 30
0.0
 10
152.4177
 20
7.991400000000001
 30
0.0
 10
152.4177
 20
7.991400000000001
 30
0.0
 10
152.4177
 20
7.991400000000001
 30
0.0
 10
152.2385
 20
7.9858
 30
0.0
 10
152.0663
 20
8.014000000000001
 30
0.0
 10
151.9012
 20
8.077500000000001
 30
0.0
 10
151.9012
 20
8.077500000000001
 30
0.0
 10
151.6275
 20
8.1791
 30
0.0
 10
151.3594
 20
8.3428
 30
0.0
 10
151.0955
 20
8.5672
 30
0.0
 10
151.0955
 20
8.5672
 30
0.0
 10
150.8302
 20
8.792900000000001
 30
0.0
 10
150.524
 20
9.1175
 30
0.0
 10
150.1768
 20
9.540800000000001
 30
0.0
 10
150.1768
 20
9.540800000000001
 30
0.0
 10
149.6364
 20
10.1998
 30
0.0
 10
149.2088
 20
10.6457
 30
0.0
 10
148.8927
 20
10.8772
 30
0.0
 10
148.8927
 20
10.8772
 30
0.0
 10
148.5781
 20
11.1086
 30
0.0
 10
148.2789
 20
11.2243
 30
0.0
 10
147.9981
 20
11.2243
 30
0.0
 10
147.9981
 20
11.2243
 30
0.0
 10
147.7032
 20
11.2243
 30
0.0
 10
147.4548
 20
11.1185
 30
0.0
 10
147.2516
 20
10.9082
 30
0.0
 10
147.2516
 20
10.9082
 30
0.0
 10
147.0498
 20
10.6965
 30
0.0
 10
146.9482
 20
10.4214
 30
0.0
 10
146.9482
 20
10.0827
 30
0.0
 10
146.9482
 20
10.0827
 30
0.0
 10
146.9482
 20
9.724300000000001
 30
0.0
 10
147.0555
 20
9.437800000000001
 30
0.0
 10
147.2714
 20
9.2233
 30
0.0
 10
147.2714
 20
9.2233
 30
0.0
 10
147.4858
 20
9.007400000000001
 30
0.0
 10
147.7836
 20
8.8988
 30
0.0
 10
148.1632
 20
8.895900000000001
 30
0.0
 10
148.1632
 20
8.895900000000001
 30
0.0
 10
148.1632
 20
8.895900000000001
 30
0.0
 10
148.0856
 20
8.1311
 30
0.0
 10
148.0856
 20
8.1311
 30
0.0
 10
148.0856
 20
8.1311
 30
0.0
 10
147.5141
 20
8.183300000000001
 30
0.0
 10
147.0794
 20
8.380900000000001
 30
0.0
 10
146.7803
 20
8.7224
 30
0.0
 10
146.7803
 20
8.7224
 30
0.0
 10
146.4811
 20
9.0639
 30
0.0
 10
146.333
 20
9.523900000000001
 30
0.0
 10
146.333
 20
10.0996
 30
0.0
 10
146.333
 20
10.0996
 30
0.0
 10
146.333
 20
10.681
 30
0.0
 10
146.4938
 20
11.141
 30
0.0
 10
146.8156
 20
11.4797
 30
0.0
 10
146.8156
 20
11.4797
 30
0.0
 10
147.1387
 20
11.8198
 30
0.0
 10
147.5381
 20
11.9891
 30
0.0
 10
148.015
 20
11.9891
 30
0.0
 10
148.015
 20
11.9891
 30
0.0
 10
148.2577
 20
11.9891
 30
0.0
 10
148.4962
 20
11.9397
 30
0.0
 10
148.7305
 20
11.8395
 30
0.0
 10
148.7305
 20
11.8395
 30
0.0
 10
148.9647
 20
11.7408
 30
0.0
 10
149.2116
 20
11.5757
 30
0.0
 10
149.4699
 20
11.3456
 30
0.0
 10
149.4699
 20
11.3456
 30
0.0
 10
149.7295
 20
11.1156
 30
0.0
 10
150.0851
 20
10.7332
 30
0.0
 10
150.5367
 20
10.1984
 30
0.0
 10
150.5367
 20
10.1984
 30
0.0
 10
150.912
 20
9.752500000000001
 30
0.0
 10
151.166
 20
9.466000000000001
 30
0.0
 10
151.3001
 20
9.339
 30
0.0
 10
151.3001
 20
9.339
 30
0.0
 10
151.4327
 20
9.212
 30
0.0
 10
151.5668
 20
9.1076
 30
0.0
 10
151.7023
 20
9.0244
 30
0.0
 10
151.7023
 20
9.0244
 30
0.0
 10
151.7023
 20
9.0244
 30
0.0
 10
151.7023
 20
11.9976
 30
0.0
 10
151.7023
 20
11.9976
 30
0.0
  0
SPLINE
  5
8B
330
1F
100
AcDbEntity
  8
52
 62
   250
100
AcDbSpline
210
0.0
220
0.0
230
1.0
 70
    11
 71
     3
 72
    52
 73
    48
 74
     0
 42
0.0000000001
 43
0.0000000001
 40
0.0
 40
0.0
 40
0.0
 40
0.0
 40
0.0833333333333333
 40
0.0833333333333333
 40
0.0833333333333333
 40
0.0833333333333333
 40
0.1666666666666667
 40
0.1666666666666667
 40
0.1666666666666667
 40
0.1666666666666667
 40
0.25
 40
0.25
 40
0.25
 40
0.25
 40
0.3333333333333333
 40
0.3333333333333333
 40
0.3333333333333333
 40
0.3333333333333333
 40
0.4166666666666666
 40
0.4166666666666666
 40
0.4166666666666666
 40
0.4166666666666666
 40
0.4999999999999999
 40
0.4999999999999999
 40
0.4999999999999999
 40
0.4999999999999999
 40
0.5833333333333333
 40
0.5833333333333333
 40
0.5833333333333333
 40
0.5833333333333333
 40
0.6666666666666666
 40
0.6666666666666666
 40
0.6666666666666666
 40
0.6666666666666666
 40
0.75
 40
0.75
 40
0.75
 40
0.75
 40
0.8333333333333334
 40
0.8333333333333334
 40
0.8333333333333334
 40
0.8333333333333334
 40
0.9166666666666667
 40
0.9166666666666667
 40
0.9166666666666667
 40
0.9166666666666667
 40
1.0
 40
1.0
 40
1.0
 40
1.0
 10
149.429
 20
12.7949
 30
0.0
 10
148.7121
 20
12.7949
 30
0.0
 10
148.135
 20
12.8682
 30
0.0
 10
147.6989
 20
13.0164
 30
0.0
 10
147.6989
 20
13.0164
 30
0.0
 10
147.2615
 20
13.1632
 30
0.0
 10
146.9242
 20
13.3833
 30
0.0
 10
146.6872
 20
13.674
 30
0.0
 10
146.6872
 20
13.674
 30
0.0
 10
146.4501
 20
13.9647
 30
0.0
 10
146.333
 20
14.3302
 30
0.0
 10
146.333
 20
14.7704
 30
0.0
 10
146.333
 20
14.7704
 30
0.0
 10
146.333
 20
15.0964
 30
0.0
 10
146.3979
 20
15.3814
 30
0.0
 10
146.5291
 20
15.627
 30
0.0
 10
146.5291
 20
15.627
 30
0.0
 10
146.6589
 20
15.8725
 30
0.0
 10
146.848
 20
16.0743
 30
0.0
 10
147.095
 20
16.2352
 30
0.0
 10
147.095
 20
16.2352
 30
0.0
 10
147.3419
 20
16.3946
 30
0.0
 10
147.6425
 20
16.5202
 30
0.0
 10
147.9967
 20
16.6105
 30
0.0
 10
147.9967
 20
16.6105
 30
0.0
 10
148.3509
 20
16.7023
 30
0.0
 10
148.8278
 20
16.7474
 30
0.0
 10
149.429
 20
16.7474
 30
0.0
 10
149.429
 20
16.7474
 30
0.0
 10
150.1402
 20
16.7474
 30
0.0
 10
150.7131
 20
16.674
 30
0.0
 10
151.1505
 20
16.5287
 30
0.0
 10
151.1505
 20
16.5287
 30
0.0
 10
151.588
 20
16.3819
 30
0.0
 10
151.9252
 20
16.1632
 30
0.0
 10
152.1637
 20
15.8725
 30
0.0
 10
152.1637
 20
15.8725
 30
0.0
 10
152.4022
 20
15.5818
 30
0.0
 10
152.5207
 20
15.2149
 30
0.0
 10
152.5207
 20
14.7704
 30
0.0
 10
152.5207
 20
14.7704
 30
0.0
 10
152.5207
 20
14.1862
 30
0.0
 10
152.3119
 20
13.7276
 30
0.0
 10
151.8928
 20
13.3946
 30
0.0
 10
151.8928
 20
13.3946
 30
0.0
 10
151.389
 20
12.9952
 30
0.0
 10
150.5663
 20
12.7949
 30
0.0
 10
149.429
 20
12.7949
 30
0.0
  0
SPLINE
  5
8C
330
1F
100
AcDbEntity
  8
52
 62
   250
100
AcDbSpline
210
0.0
220
0.0
230
1.0
 70
    11
 71
     3
 72
    36
 73
    32
 74
     0
 42
0.0000000001
 43
0.0000000001
 40
0.0
 40
0.0
 40
0.0
 40
0.0
 40
0.125
 40
0.125
 40
0.125
 40
0.125
 40
0.25
 40
0.25
 40
0.25
 40
0.25
 40
0.375
 40
0.375
 40
0.375
 40
0.375
 40
0.5
 40
0.5
 40
0.5
 40
0.5
 40
0.625
 40
0.625
 40
0.625
 40
0.625
 40
0.75
 40
0.75
 40
0.75
 40
0.75
 40
0.875
 40
0.875
 40
0.875
 40
0.875
 40
1.0
 40
1.0
 40
1.0
 40
1.0
 10
149.429
 20
13.5597
 30
0.0
 10
150.4238
 20
13.5597
 30
0.0
 10
151.0856
 20
13.6768
 30
0.0
 10
151.4158
 20
13.9097
 30
0.0
 10
151.4158
 20
13.9097
 30
0.0
 10
151.7446
 20
14.1425
 30
0.0
 10
151.9097
 20
14.4289
 30
0.0
 10
151.9097
 20
14.7704
 30
0.0
 10
151.9097
 20
14.7704
 30
0.0
 10
151.9097
 20
15.1133
 30
0.0
 10
151.7432
 20
15.3998
 30
0.0
 10
151.413
 20
15.6326
 30
0.0
 10
151.413
 20
15.6326
 30
0.0
 10
151.0828
 20
15.8655
 30
0.0
 10
150.421
 20
15.9826
 30
0.0
 10
149.429
 20
15.9826
 30
0.0
 10
149.429
 20
15.9826
 30
0.0
 10
148.4313
 20
15.9826
 30
0.0
 10
147.7681
 20
15.8655
 30
0.0
 10
147.4407
 20
15.6326
 30
0.0
 10
147.4407
 20
15.6326
 30
0.0
 10
147.1119
 20
15.3998
 30
0.0
 10
146.9482
 20
15.1105
 30
0.0
 10
146.9482
 20
14.7634
 30
0.0
 10
146.9482
 20
14.7634
 30
0.0
 10
146.9482
 20
14.4205
 30
0.0
 10
147.0936
 20
14.1481
 30
0.0
 10
147.3828
 20
13.9435
 30
0.0
 10
147.3828
 20
13.9435
 30
0.0
 10
147.7511
 20
13.6881
 30
0.0
 10
148.4341
 20
13.5597
 30
0.0
 10
149.429
 20
13.5597
 30
0.0
  0
SPLINE
  5
8D
330
1F
100
AcDbEntity
  8
52
 62
   250
100
AcDbSpline
210
0.0
220
0.0
230
1.0
 70
    11
 71
     3
 72
    20
 73
    16
 74
     0
 42
0.0000000001
 43
0.0000000001
 40
0.0
 40
0.0
 40
0.0
 40
0.0
 40
0.25
 40
0.25
 40
0.25
 40
0.25
 40
0.5
 40
0.5
 40
0.5
 40
0.5
 40
0.75
 40
0.75
 40
0.75
 40
0.75
 40
1.0
 40
1.0
 40
1.0
 40
1.0
 10
152.4177
 20
17.9215
 30
0.0
 10
152.4177
 20
17.9215
 30
0.0
 10
151.5696
 20
17.9215
 30
0.0
 10
151.5696
 20
17.9215
 30
0.0
 10
151.5696
 20
17.9215
 30
0.0
 10
151.5696
 20
17.9215
 30
0.0
 10
151.5696
 20
18.7695
 30
0.0
 10
151.5696
 20
18.7695
 30
0.0
 10
151.5696
 20
18.7695
 30
0.0
 10
151.5696
 20
18.7695
 30
0.0
 10
152.4177
 20
18.7695
 30
0.0
 10
152.4177
 20
18.7695
 30
0.0
 10
152.4177
 20
18.7695
 30
0.0
 10
152.4177
 20
18.7695
 30
0.0
 10
152.4177
 20
17.9215
 30
0.0
 10
152.4177
 20
17.9215
 30
0.0
  0
SPLINE
  5
8E
330
1F
100
AcDbEntity
  8
52
 62
   250
100
AcDbSpline
210
0.0
220
0.0
230
1.0
 70
    11
 71
     3
 72
    52
 73
    48
 74
     0
 42
0.0000000001
 43
0.0000000001
 40
0.0
 40
0.0
 40
0.0
 40
0.0
 40
0.0833333333333333
 40
0.0833333333333333
 40
0.0833333333333333
 40
0.0833333333333333
 40
0.1666666666666667
 40
0.1666666666666667
 40
0.1666666666666667
 40
0.1666666666666667
 40
0.25
 40
0.25
 40
0.25
 40
0.25
 40
0.3333333333333333
 40
0.3333333333333333
 40
0.3333333333333333
 40
0.3333333333333333
 40
0.4166666666666666
 40
0.4166666666666666
 40
0.4166666666666666
 40
0.4166666666666666
 40
0.4999999999999999
 40
0.4999999999999999
 40
0.4999999999999999
 40
0.4999999999999999
 40
0.5833333333333333
 40
0.5833333333333333
 40
0.5833333333333333
 40
0.5833333333333333
 40
0.6666666666666666
 40
0.6666666666666666
 40
0.6666666666666666
 40
0.6666666666666666
 40
0.75
 40
0.75
 40
0.75
 40
0.75
 40
0.8333333333333334
 40
0.8333333333333334
 40
0.8333333333333334
 40
0.8333333333333334
 40
0.9166666666666667
 40
0.9166666666666667
 40
0.9166666666666667
 40
0.9166666666666667
 40
1.0
 40
1.0
 40
1.0
 40
1.0
 10
149.429
 20
19.8561
 30
0.0
 10
148.7121
 20
19.8561
 30
0.0
 10
148.135
 20
19.9294
 30
0.0
 10
147.6989
 20
20.0776
 30
0.0
 10
147.6989
 20
20.0776
 30
0.0
 10
147.2615
 20
20.2244
 30
0.0
 10
146.9242
 20
20.4445
 30
0.0
 10
146.6872
 20
20.7352
 30
0.0
 10
146.6872
 20
20.7352
 30
0.0
 10
146.4501
 20
21.0259
 30
0.0
 10
146.333
 20
21.3914
 30
0.0
 10
146.333
 20
21.8316
 30
0.0
 10
146.333
 20
21.8316
 30
0.0
 10
146.333
 20
22.1576
 30
0.0
 10
146.3979
 20
22.4426
 30
0.0
 10
146.5291
 20
22.6882
 30
0.0
 10
146.5291
 20
22.6882
 30
0.0
 10
146.6589
 20
22.9337
 30
0.0
 10
146.848
 20
23.1355
 30
0.0
 10
147.095
 20
23.2964
 30
0.0
 10
147.095
 20
23.2964
 30
0.0
 10
147.3419
 20
23.4558
 30
0.0
 10
147.6425
 20
23.5814
 30
0.0
 10
147.9967
 20
23.6717
 30
0.0
 10
147.9967
 20
23.6717
 30
0.0
 10
148.3509
 20
23.7635
 30
0.0
 10
148.8278
 20
23.8086
 30
0.0
 10
149.429
 20
23.8086
 30
0.0
 10
149.429
 20
23.8086
 30
0.0
 10
150.1402
 20
23.8086
 30
0.0
 10
150.7131
 20
23.7352
 30
0.0
 10
151.1505
 20
23.5899
 30
0.0
 10
151.1505
 20
23.5899
 30
0.0
 10
151.588
 20
23.4431
 30
0.0
 10
151.9252
 20
23.2244
 30
0.0
 10
152.1637
 20
22.9337
 30
0.0
 10
152.1637
 20
22.9337
 30
0.0
 10
152.4022
 20
22.643
 30
0.0
 10
152.5207
 20
22.2761
 30
0.0
 10
152.5207
 20
21.8316
 30
0.0
 10
152.5207
 20
21.8316
 30
0.0
 10
152.5207
 20
21.2474
 30
0.0
 10
152.3119
 20
20.7888
 30
0.0
 10
151.8928
 20
20.4558
 30
0.0
 10
151.8928
 20
20.4558
 30
0.0
 10
151.389
 20
20.0564
 30
0.0
 10
150.5663
 20
19.8561
 30
0.0
 10
149.429
 20
19.8561
 30
0.0
  0
SPLINE
  5
8F
330
1F
100
AcDbEntity
  8
52
 62
   250
100
AcDbSpline
210
0.0
220
0.0
230
1.0
 70
    11
 71
     3
 72
    36
 73
    32
 74
     0
 42
0.0000000001
 43
0.0000000001
 40
0.0
 40
0.0
 40
0.0
 40
0.0
 40
0.125
 40
0.125
 40
0.125
 40
0.125
 40
0.25
 40
0.25
 40
0.25
 40
0.25
 40
0.375
 40
0.375
 40
0.375
 40
0.375
 40
0.5
 40
0.5
 40
0.5
 40
0.5
 40
0.625
 40
0.625
 40
0.625
 40
0.625
 40
0.75
 40
0.75
 40
0.75
 40
0.75
 40
0.875
 40
0.875
 40
0.875
 40
0.875
 40
1.0
 40
1.0
 40
1.0
 40
1.0
 10
149.429
 20
20.6209
 30
0.0
 10
150.4238
 20
20.6209
 30
0.0
 10
151.0856
 20
20.738
 30
0.0
 10
151.4158
 20
20.9709
 30
0.0
 10
151.4158
 20
20.9709
 30
0.0
 10
151.7446
 20
21.2037
 30
0.0
 10
151.9097
 20
21.4901
 30
0.0
 10
151.9097
 20
21.8316
 30
0.0
 10
151.9097
 20
21.8316
 30
0.0
 10
151.9097
 20
22.1745
 30
0.0
 10
151.7432
 20
22.461
 30
0.0
 10
151.413
 20
22.6938
 30
0.0
 10
151.413
 20
22.6938
 30
0.0
 10
151.0828
 20
22.9267
 30
0.0
 10
150.421
 20
23.0438
 30
0.0
 10
149.429
 20
23.0438
 30
0.0
 10
149.429
 20
23.0438
 30
0.0
 10
148.4313
 20
23.0438
 30
0.0
 10
147.7681
 20
22.9267
 30
0.0
 10
147.4407
 20
22.6938
 30
0.0
 10
147.4407
 20
22.6938
 30
0.0
 10
147.1119
 20
22.461
 30
0.0
 10
146.9482
 20
22.1717
 30
0.0
 10
146.9482
 20
21.8246
 30
0.0
 10
146.9482
 20
21.8246
 30
0.0
 10
146.9482
 20
21.4817
 30
0.0
 10
147.0936
 20
21.2093
 30
0.0
 10
147.3828
 20
21.0047
 30
0.0
 10
147.3828
 20
21.0047
 30
0.0
 10
147.7511
 20
20.7493
 30
0.0
 10
148.4341
 20
20.6209
 30
0.0
 10
149.429
 20
20.6209
 30
0.0
  0
SPLINE
  5
90
330
1F
100
AcDbEntity
  8
52
 62
   250
100
AcDbSpline
210
0.0
220
0.0
230
1.0
 70
    11
 71
     3
 72
    52
 73
    48
 74
     0
 42
0.0000000001
 43
0.0000000001
 40
0.0
 40
0.0
 40
0.0
 40
0.0
 40
0.0833333333333333
 40
0.0833333333333333
 40
0.0833333333333333
 40
0.0833333333333333
 40
0.1666666666666667
 40
0.1666666666666667
 40
0.1666666666666667
 40
0.1666666666666667
 40
0.25
 40
0.25
 40
0.25
 40
0.25
 40
0.3333333333333333
 40
0.3333333333333333
 40
0.3333333333333333
 40
0.3333333333333333
 40
0.4166666666666666
 40
0.4166666666666666
 40
0.4166666666666666
 40
0.4166666666666666
 40
0.4999999999999999
 40
0.4999999999999999
 40
0.4999999999999999
 40
0.4999999999999999
 40
0.5833333333333333
 40
0.5833333333333333
 40
0.5833333333333333
 40
0.5833333333333333
 40
0.6666666666666666
 40
0.6666666666666666
 40
0.6666666666666666
 40
0.6666666666666666
 40
0.75
 40
0.75
 40
0.75
 40
0.75
 40
0.8333333333333334
 40
0.8333333333333334
 40
0.8333333333333334
 40
0.8333333333333334
 40
0.9166666666666667
 40
0.9166666666666667
 40
0.9166666666666667
 40
0.9166666666666667
 40
1.0
 40
1.0
 40
1.0
 40
1.0
 10
149.429
 20
24.565
 30
0.0
 10
148.7121
 20
24.565
 30
0.0
 10
148.135
 20
24.6383
 30
0.0
 10
147.6989
 20
24.7865
 30
0.0
 10
147.6989
 20
24.7865
 30
0.0
 10
147.2615
 20
24.9333
 30
0.0
 10
146.9242
 20
25.1534
 30
0.0
 10
146.6872
 20
25.4441
 30
0.0
 10
146.6872
 20
25.4441
 30
0.0
 10
146.4501
 20
25.7348
 30
0.0
 10
146.333
 20
26.1003
 30
0.0
 10
146.333
 20
26.5405
 30
0.0
 10
146.333
 20
26.5405
 30
0.0
 10
146.333
 20
26.8665
 30
0.0
 10
146.3979
 20
27.1515
 30
0.0
 10
146.5291
 20
27.3971
 30
0.0
 10
146.5291
 20
27.3971
 30
0.0
 10
146.6589
 20
27.6426
 30
0.0
 10
146.848
 20
27.8444
 30
0.0
 10
147.095
 20
28.0053
 30
0.0
 10
147.095
 20
28.0053
 30
0.0
 10
147.3419
 20
28.1647
 30
0.0
 10
147.6425
 20
28.2903
 30
0.0
 10
147.9967
 20
28.3806
 30
0.0
 10
147.9967
 20
28.3806
 30
0.0
 10
148.3509
 20
28.4724
 30
0.0
 10
148.8278
 20
28.5175
 30
0.0
 10
149.429
 20
28.5175
 30
0.0
 10
149.429
 20
28.5175
 30
0.0
 10
150.1402
 20
28.5175
 30
0.0
 10
150.7131
 20
28.4441
 30
0.0
 10
151.1505
 20
28.2988
 30
0.0
 10
151.1505
 20
28.2988
 30
0.0
 10
151.588
 20
28.152
 30
0.0
 10
151.9252
 20
27.9333
 30
0.0
 10
152.1637
 20
27.6426
 30
0.0
 10
152.1637
 20
27.6426
 30
0.0
 10
152.4022
 20
27.3519
 30
0.0
 10
152.5207
 20
26.985
 30
0.0
 10
152.5207
 20
26.5405
 30
0.0
 10
152.5207
 20
26.5405
 30
0.0
 10
152.5207
 20
25.9563
 30
0.0
 10
152.3119
 20
25.4977
 30
0.0
 10
151.8928
 20
25.1647
 30
0.0
 10
151.8928
 20
25.1647
 30
0.0
 10
151.389
 20
24.7653
 30
0.0
 10
150.5663
 20
24.565
 30
0.0
 10
149.429
 20
24.565
 30
0.0
  0
SPLINE
  5
91
330
1F
100
AcDbEntity
  8
52
 62
   250
100
AcDbSpline
210
0.0
220
0.0
230
1.0
 70
    11
 71
     3
 72
    36
 73
    32
 74
     0
 42
0.0000000001
 43
0.0000000001
 40
0.0
 40
0.0
 40
0.0
 40
0.0
 40
0.125
 40
0.125
 40
0.125
 40
0.125
 40
0.25
 40
0.25
 40
0.25
 40
0.25
 40
0.375
 40
0.375
 40
0.375
 40
0.375
 40
0.5
 40
0.5
 40
0.5
 40
0.5
 40
0.625
 40
0.625
 40
0.625
 40
0.625
 40
0.75
 40
0.75
 40
0.75
 40
0.75
 40
0.875
 40
0.875
 40
0.875
 40
0.875
 40
1.0
 40
1.0
 40
1.0
 40
1.0
 10
149.429
 20
25.3298
 30
0.0
 10
150.4238
 20
25.3298
 30
0.0
 10
151.0856
 20
25.4469
 30
0.0
 10
151.4158
 20
25.6798
 30
0.0
 10
151.4158
 20
25.6798
 30
0.0
 10
151.7446
 20
25.9126
 30
0.0
 10
151.9097
 20
26.199
 30
0.0
 10
151.9097
 20
26.5405
 30
0.0
 10
151.9097
 20
26.5405
 30
0.0
 10
151.9097
 20
26.8834
 30
0.0
 10
151.7432
 20
27.1699
 30
0.0
 10
151.413
 20
27.4027
 30
0.0
 10
151.413
 20
27.4027
 30
0.0
 10
151.0828
 20
27.6356
 30
0.0
 10
150.421
 20
27.7527
 30
0.0
 10
149.429
 20
27.7527
 30
0.0
 10
149.429
 20
27.7527
 30
0.0
 10
148.4313
 20
27.7527
 30
0.0
 10
147.7681
 20
27.6356
 30
0.0
 10
147.4407
 20
27.4027
 30
0.0
 10
147.4407
 20
27.4027
 30
0.0
 10
147.1119
 20
27.1699
 30
0.0
 10
146.9482
 20
26.8806
 30
0.0
 10
146.9482
 20
26.5335
 30
0.0
 10
146.9482
 20
26.5335
 30
0.0
 10
146.9482
 20
26.1906
 30
0.0
 10
147.0936
 20
25.9182
 30
0.0
 10
147.3828
 20
25.7136
 30
0.0
 10
147.3828
 20
25.7136
 30
0.0
 10
147.7511
 20
25.4582
 30
0.0
 10
148.4341
 20
25.3298
 30
0.0
 10
149.429
 20
25.3298
 30
0.0
  0
SPLINE
  5
92
330
1F
100
AcDbEntity
  8
52
 62
   250
100
AcDbSpline
210
0.0
220
0.0
230
1.0
 70
    11
 71
     3
 72
   116
 73
   112
 74
     0
 42
0.0000000001
 43
0.0000000001
 40
0.0
 40
0.0
 40
0.0
 40
0.0
 40
0.0357142857142857
 40
0.0357142857142857
 40
0.0357142857142857
 40
0.0357142857142857
 40
0.0714285714285714
 40
0.0714285714285714
 40
0.0714285714285714
 40
0.0714285714285714
 40
0.1071428571428571
 40
0.1071428571428571
 40
0.1071428571428571
 40
0.1071428571428571
 40
0.1428571428571429
 40
0.1428571428571429
 40
0.1428571428571429
 40
0.1428571428571429
 40
0.1785714285714286
 40
0.1785714285714286
 40
0.1785714285714286
 40
0.1785714285714286
 40
0.2142857142857143
 40
0.2142857142857143
 40
0.2142857142857143
 40
0.2142857142857143
 40
0.2499999999999999
 40
0.2499999999999999
 40
0.2499999999999999
 40
0.2499999999999999
 40
0.2857142857142856
 40
0.2857142857142856
 40
0.2857142857142856
 40
0.2857142857142856
 40
0.3214285714285713
 40
0.3214285714285713
 40
0.3214285714285713
 40
0.3214285714285713
 40
0.357142857142857
 40
0.357142857142857
 40
0.357142857142857
 40
0.357142857142857
 40
0.3928571428571427
 40
0.3928571428571427
 40
0.3928571428571427
 40
0.3928571428571427
 40
0.4285714285714284
 40
0.4285714285714284
 40
0.4285714285714284
 40
0.4285714285714284
 40
0.4642857142857141
 40
0.4642857142857141
 40
0.4642857142857141
 40
0.4642857142857141
 40
0.4999999999999998
 40
0.4999999999999998
 40
0.4999999999999998
 40
0.4999999999999998
 40
0.5357142857142856
 40
0.5357142857142856
 40
0.5357142857142856
 40
0.5357142857142856
 40
0.5714285714285713
 40
0.5714285714285713
 40
0.5714285714285713
 40
0.5714285714285713
 40
0.607142857142857
 40
0.607142857142857
 40
0.607142857142857
 40
0.607142857142857
 40
0.6428571428571427
 40
0.6428571428571427
 40
0.6428571428571427
 40
0.6428571428571427
 40
0.6785714285714284
 40
0.6785714285714284
 40
0.6785714285714284
 40
0.6785714285714284
 40
0.7142857142857141
 40
0.7142857142857141
 40
0.7142857142857141
 40
0.7142857142857141
 40
0.7499999999999998
 40
0.7499999999999998
 40
0.7499999999999998
 40
0.7499999999999998
 40
0.7857142857142855
 40
0.7857142857142855
 40
0.7857142857142855
 40
0.7857142857142855
 40
0.8214285714285712
 40
0.8214285714285712
 40
0.8214285714285712
 40
0.8214285714285712
 40
0.8571428571428569
 40
0.8571428571428569
 40
0.8571428571428569
 40
0.8571428571428569
 40
0.8928571428571426
 40
0.8928571428571426
 40
0.8928571428571426
 40
0.8928571428571426
 40
0.9285714285714283
 40
0.9285714285714283
 40
0.9285714285714283
 40
0.9285714285714283
 40
0.964285714285714
 40
0.964285714285714
 40
0.964285714285714
 40
0.964285714285714
 40
1.0
 40
1.0
 40
1.0
 40
1.0
 10
152.4177
 20
31.8336
 30
0.0
 10
152.4177
 20
31.8336
 30
0.0
 10
148.0277
 20
31.8336
 30
0.0
 10
148.0277
 20
31.8336
 30
0.0
 10
148.0277
 20
31.8336
 30
0.0
 10
148.0277
 20
31.8336
 30
0.0
 10
148.0277
 20
32.4982
 30
0.0
 10
148.0277
 20
32.4982
 30
0.0
 10
148.0277
 20
32.4982
 30
0.0
 10
148.0277
 20
32.4982
 30
0.0
 10
148.643
 20
32.4982
 30
0.0
 10
148.643
 20
32.4982
 30
0.0
 10
148.643
 20
32.4982
 30
0.0
 10
148.4285
 20
32.6365
 30
0.0
 10
148.2549
 20
32.82
 30
0.0
 10
148.1251
 20
33.0486
 30
0.0
 10
148.1251
 20
33.0486
 30
0.0
 10
147.9938
 20
33.2772
 30
0.0
 10
147.9275
 20
33.5382
 30
0.0
 10
147.9275
 20
33.8303
 30
0.0
 10
147.9275
 20
33.8303
 30
0.0
 10
147.9275
 20
34.15490000000001
 30
0.0
 10
147.9953
 20
34.42160000000001
 30
0.0
 10
148.1307
 20
34.62900000000001
 30
0.0
 10
148.1307
 20
34.62900000000001
 30
0.0
 10
148.2662
 20
34.83790000000001
 30
0.0
 10
148.4539
 20
34.9846
 30
0.0
 10
148.6966
 20
35.0693
 30
0.0
 10
148.6966
 20
35.0693
 30
0.0
 10
148.1843
 20
35.4178
 30
0.0
 10
147.9275
 20
35.8694
 30
0.0
 10
147.9275
 20
36.4254
 30
0.0
 10
147.9275
 20
36.4254
 30
0.0
 10
147.9275
 20
36.8614
 30
0.0
 10
148.0489
 20
37.1958
 30
0.0
 10
148.2902
 20
37.4301
 30
0.0
 10
148.2902
 20
37.4301
 30
0.0
 10
148.5315
 20
37.6643
 30
0.0
 10
148.9026
 20
37.7815
 30
0.0
 10
149.4036
 20
37.7815
 30
0.0
 10
149.4036
 20
37.7815
 30
0.0
 10
149.4036
 20
37.7815
 30
0.0
 10
152.4177
 20
37.7815
 30
0.0
 10
152.4177
 20
37.7815
 30
0.0
 10
152.4177
 20
37.7815
 30
0.0
 10
152.4177
 20
37.7815
 30
0.0
 10
152.4177
 20
37.042
 30
0.0
 10
152.4177
 20
37.042
 30
0.0
 10
152.4177
 20
37.042
 30
0.0
 10
152.4177
 20
37.042
 30
0.0
 10
149.6519
 20
37.042
 30
0.0
 10
149.6519
 20
37.042
 30
0.0
 10
149.6519
 20
37.042
 30
0.0
 10
149.3542
 20
37.042
 30
0.0
 10
149.1397
 20
37.018
 30
0.0
 10
149.0084
 20
36.9701
 30
0.0
 10
149.0084
 20
36.9701
 30
0.0
 10
148.8786
 20
36.9207
 30
0.0
 10
148.7728
 20
36.83320000000001
 30
0.0
 10
148.6924
 20
36.7076
 30
0.0
 10
148.6924
 20
36.7076
 30
0.0
 10
148.6133
 20
36.5806
 30
0.0
 10
148.5724
 20
36.431
 30
0.0
 10
148.5724
 20
36.2603
 30
0.0
 10
148.5724
 20
36.2603
 30
0.0
 10
148.5724
 20
35.9512
 30
0.0
 10
148.6754
 20
35.6958
 30
0.0
 10
148.8814
 20
35.4912
 30
0.0
 10
148.8814
 20
35.4912
 30
0.0
 10
149.0861
 20
35.288
 30
0.0
 10
149.4148
 20
35.185
 30
0.0
 10
149.8664
 20
35.185
 30
0.0
 10
149.8664
 20
35.185
 30
0.0
 10
149.8664
 20
35.185
 30
0.0
 10
152.4177
 20
35.185
 30
0.0
 10
152.4177
 20
35.185
 30
0.0
 10
152.4177
 20
35.185
 30
0.0
 10
152.4177
 20
35.185
 30
0.0
 10
152.4177
 20
34.4413
 30
0.0
 10
152.4177
 20
34.4413
 30
0.0
 10
152.4177
 20
34.4413
 30
0.0
 10
152.4177
 20
34.4413
 30
0.0
 10
149.5658
 20
34.4413
 30
0.0
 10
149.5658
 20
34.4413
 30
0.0
 10
149.5658
 20
34.4413
 30
0.0
 10
149.2342
 20
34.4413
 30
0.0
 10
148.9859
 20
34.3807
 30
0.0
 10
148.8208
 20
34.2593
 30
0.0
 10
148.8208
 20
34.2593
 30
0.0
 10
148.6557
 20
34.138
 30
0.0
 10
148.5724
 20
33.9404
 30
0.0
 10
148.5724
 20
33.6638
 30
0.0
 10
148.5724
 20
33.6638
 30
0.0
 10
148.5724
 20
33.455
 30
0.0
 10
148.6274
 20
33.26170000000001
 30
0.0
 10
148.7389
 20
33.0839
 30
0.0
 10
148.7389
 20
33.0839
 30
0.0
 10
148.849
 20
32.9061
 30
0.0
 10
149.0099
 20
32.7762
 30
0.0
 10
149.2215
 20
32.6972
 30
0.0
 10
149.2215
 20
32.6972
 30
0.0
 10
149.4346
 20
32.61680000000001
 30
0.0
 10
149.7408
 20
32.5773
 30
0.0
 10
150.1402
 20
32.5773
 30
0.0
 10
150.1402
 20
32.5773
 30
0.0
 10
150.1402
 20
32.5773
 30
0.0
 10
152.4177
 20
32.5773
 30
0.0
 10
152.4177
 20
32.5773
 30
0.0
 10
152.4177
 20
32.5773
 30
0.0
 10
152.4177
 20
32.5773
 30
0.0
 10
152.4177
 20
31.8336
 30
0.0
 10
152.4177
 20
31.8336
 30
0.0
  0
SPLINE
  5
93
330
1F
100
AcDbEntity
  8
52
 62
   250
100
AcDbSpline
210
0.0
220
0.0
230
1.0
 70
    11
 71
     3
 72
   116
 73
   112
 74
     0
 42
0.0000000001
 43
0.0000000001
 40
0.0
 40
0.0
 40
0.0
 40
0.0
 40
0.0357142857142857
 40
0.0357142857142857
 40
0.0357142857142857
 40
0.0357142857142857
 40
0.0714285714285714
 40
0.0714285714285714
 40
0.0714285714285714
 40
0.0714285714285714
 40
0.1071428571428571
 40
0.1071428571428571
 40
0.1071428571428571
 40
0.1071428571428571
 40
0.1428571428571429
 40
0.1428571428571429
 40
0.1428571428571429
 40
0.1428571428571429
 40
0.1785714285714286
 40
0.1785714285714286
 40
0.1785714285714286
 40
0.1785714285714286
 40
0.2142857142857143
 40
0.2142857142857143
 40
0.2142857142857143
 40
0.2142857142857143
 40
0.2499999999999999
 40
0.2499999999999999
 40
0.2499999999999999
 40
0.2499999999999999
 40
0.2857142857142856
 40
0.2857142857142856
 40
0.2857142857142856
 40
0.2857142857142856
 40
0.3214285714285713
 40
0.3214285714285713
 40
0.3214285714285713
 40
0.3214285714285713
 40
0.357142857142857
 40
0.357142857142857
 40
0.357142857142857
 40
0.357142857142857
 40
0.3928571428571427
 40
0.3928571428571427
 40
0.3928571428571427
 40
0.3928571428571427
 40
0.4285714285714284
 40
0.4285714285714284
 40
0.4285714285714284
 40
0.4285714285714284
 40
0.4642857142857141
 40
0.4642857142857141
 40
0.4642857142857141
 40
0.4642857142857141
 40
0.4999999999999998
 40
0.4999999999999998
 40
0.4999999999999998
 40
0.4999999999999998
 40
0.5357142857142856
 40
0.5357142857142856
 40
0.5357142857142856
 40
0.5357142857142856
 40
0.5714285714285713
 40
0.5714285714285713
 40
0.5714285714285713
 40
0.5714285714285713
 40
0.607142857142857
 40
0.607142857142857
 40
0.607142857142857
 40
0.607142857142857
 40
0.6428571428571427
 40
0.6428571428571427
 40
0.6428571428571427
 40
0.6428571428571427
 40
0.6785714285714284
 40
0.6785714285714284
 40
0.6785714285714284
 40
0.6785714285714284
 40
0.7142857142857141
 40
0.7142857142857141
 40
0.7142857142857141
 40
0.7142857142857141
 40
0.7499999999999998
 40
0.7499999999999998
 40
0.7499999999999998
 40
0.7499999999999998
 40
0.7857142857142855
 40
0.7857142857142855
 40
0.7857142857142855
 40
0.7857142857142855
 40
0.8214285714285712
 40
0.8214285714285712
 40
0.8214285714285712
 40
0.8214285714285712
 40
0.8571428571428569
 40
0.8571428571428569
 40
0.8571428571428569
 40
0.8571428571428569
 40
0.8928571428571426
 40
0.8928571428571426
 40
0.8928571428571426
 40
0.8928571428571426
 40
0.9285714285714283
 40
0.9285714285714283
 40
0.9285714285714283
 40
0.9285714285714283
 40
0.964285714285714
 40
0.964285714285714
 40
0.964285714285714
 40
0.964285714285714
 40
1.0
 40
1.0
 40
1.0
 40
1.0
 10
152.4177
 20
38.8864
 30
0.0
 10
152.4177
 20
38.8864
 30
0.0
 10
148.0277
 20
38.8864
 30
0.0
 10
148.0277
 20
38.8864
 30
0.0
 10
148.0277
 20
38.8864
 30
0.0
 10
148.0277
 20
38.8864
 30
0.0
 10
148.0277
 20
39.551
 30
0.0
 10
148.0277
 20
39.551
 30
0.0
 10
148.0277
 20
39.551
 30
0.0
 10
148.0277
 20
39.551
 30
0.0
 10
148.643
 20
39.551
 30
0.0
 10
148.643
 20
39.551
 30
0.0
 10
148.643
 20
39.551
 30
0.0
 10
148.4285
 20
39.6893
 30
0.0
 10
148.2549
 20
39.87280000000001
 30
0.0
 10
148.1251
 20
40.10140000000001
 30
0.0
 10
148.1251
 20
40.10140000000001
 30
0.0
 10
147.9938
 20
40.33000000000001
 30
0.0
 10
147.9275
 20
40.591
 30
0.0
 10
147.9275
 20
40.8831
 30
0.0
 10
147.9275
 20
40.8831
 30
0.0
 10
147.9275
 20
41.2077
 30
0.0
 10
147.9953
 20
41.4744
 30
0.0
 10
148.1307
 20
41.6818
 30
0.0
 10
148.1307
 20
41.6818
 30
0.0
 10
148.2662
 20
41.8907
 30
0.0
 10
148.4539
 20
42.03740000000001
 30
0.0
 10
148.6966
 20
42.1221
 30
0.0
 10
148.6966
 20
42.1221
 30
0.0
 10
148.1843
 20
42.47060000000001
 30
0.0
 10
147.9275
 20
42.9222
 30
0.0
 10
147.9275
 20
43.4782
 30
0.0
 10
147.9275
 20
43.4782
 30
0.0
 10
147.9275
 20
43.9142
 30
0.0
 10
148.0489
 20
44.2486
 30
0.0
 10
148.2902
 20
44.4829
 30
0.0
 10
148.2902
 20
44.4829
 30
0.0
 10
148.5315
 20
44.7171
 30
0.0
 10
148.9026
 20
44.8343
 30
0.0
 10
149.4036
 20
44.8343
 30
0.0
 10
149.4036
 20
44.8343
 30
0.0
 10
149.4036
 20
44.8343
 30
0.0
 10
152.4177
 20
44.8343
 30
0.0
 10
152.4177
 20
44.8343
 30
0.0
 10
152.4177
 20
44.8343
 30
0.0
 10
152.4177
 20
44.8343
 30
0.0
 10
152.4177
 20
44.0948
 30
0.0
 10
152.4177
 20
44.0948
 30
0.0
 10
152.4177
 20
44.0948
 30
0.0
 10
152.4177
 20
44.0948
 30
0.0
 10
149.6519
 20
44.0948
 30
0.0
 10
149.6519
 20
44.0948
 30
0.0
 10
149.6519
 20
44.0948
 30
0.0
 10
149.3542
 20
44.0948
 30
0.0
 10
149.1397
 20
44.07080000000001
 30
0.0
 10
149.0084
 20
44.0229
 30
0.0
 10
149.0084
 20
44.0229
 30
0.0
 10
148.8786
 20
43.9735
 30
0.0
 10
148.7728
 20
43.886
 30
0.0
 10
148.6924
 20
43.7604
 30
0.0
 10
148.6924
 20
43.7604
 30
0.0
 10
148.6133
 20
43.6334
 30
0.0
 10
148.5724
 20
43.4838
 30
0.0
 10
148.5724
 20
43.3131
 30
0.0
 10
148.5724
 20
43.3131
 30
0.0
 10
148.5724
 20
43.00400000000001
 30
0.0
 10
148.6754
 20
42.7486
 30
0.0
 10
148.8814
 20
42.544
 30
0.0
 10
148.8814
 20
42.544
 30
0.0
 10
149.0861
 20
42.3408
 30
0.0
 10
149.4148
 20
42.2378
 30
0.0
 10
149.8664
 20
42.2378
 30
0.0
 10
149.8664
 20
42.2378
 30
0.0
 10
149.8664
 20
42.2378
 30
0.0
 10
152.4177
 20
42.2378
 30
0.0
 10
152.4177
 20
42.2378
 30
0.0
 10
152.4177
 20
42.2378
 30
0.0
 10
152.4177
 20
42.2378
 30
0.0
 10
152.4177
 20
41.4941
 30
0.0
 10
152.4177
 20
41.4941
 30
0.0
 10
152.4177
 20
41.4941
 30
0.0
 10
152.4177
 20
41.4941
 30
0.0
 10
149.5658
 20
41.4941
 30
0.0
 10
149.5658
 20
41.4941
 30
0.0
 10
149.5658
 20
41.4941
 30
0.0
 10
149.2342
 20
41.4941
 30
0.0
 10
148.9859
 20
41.4335
 30
0.0
 10
148.8208
 20
41.3121
 30
0.0
 10
148.8208
 20
41.3121
 30
0.0
 10
148.6557
 20
41.1908
 30
0.0
 10
148.5724
 20
40.9932
 30
0.0
 10
148.5724
 20
40.7166
 30
0.0
 10
148.5724
 20
40.7166
 30
0.0
 10
148.5724
 20
40.5078
 30
0.0
 10
148.6274
 20
40.3145
 30
0.0
 10
148.7389
 20
40.13670000000001
 30
0.0
 10
148.7389
 20
40.13670000000001
 30
0.0
 10
148.849
 20
39.9589
 30
0.0
 10
149.0099
 20
39.829
 30
0.0
 10
149.2215
 20
39.75
 30
0.0
 10
149.2215
 20
39.75
 30
0.0
 10
149.4346
 20
39.6696
 30
0.0
 10
149.7408
 20
39.6301
 30
0.0
 10
150.1402
 20
39.6301
 30
0.0
 10
150.1402
 20
39.6301
 30
0.0
 10
150.1402
 20
39.6301
 30
0.0
 10
152.4177
 20
39.6301
 30
0.0
 10
152.4177
 20
39.6301
 30
0.0
 10
152.4177
 20
39.6301
 30
0.0
 10
152.4177
 20
39.6301
 30
0.0
 10
152.4177
 20
38.8864
 30
0.0
 10
152.4177
 20
38.8864
 30
0.0
  0
ENDSEC
  0
SECTION
  2
OBJECTS
  0
DICTIONARY
  5
C
330
0
100
AcDbDictionary
281
     1
  3
ACAD_GROUP
350
D
  3
ACAD_LAYOUT
350
1A
  3
ACAD_MLINESTYLE
350
17
  3
ACAD_PLOTSETTINGS
350
19
  3
ACAD_PLOTSTYLENAME
350
E
  0
DICTIONARY
  5
D
102
{ACAD_REACTORS
330
C
102
}
330
C
100
AcDbDictionary
281
     1
  0
DICTIONARY
  5
1A
102
{ACAD_REACTORS
330
C
102
}
330
C
100
AcDbDictionary
281
     1
  3
Layout1
350
1E
  3
Layout2
350
26
  3
Model
350
22
  0
DICTIONARY
  5
17
102
{ACAD_REACTORS
330
C
102
}
330
C
100
AcDbDictionary
281
     1
  3
Standard
350
18
  0
DICTIONARY
  5
19
102
{ACAD_REACTORS
330
C
102
}
330
C
100
AcDbDictionary
281
     1
  0
ACDBDICTIONARYWDFLT
  5
E
102
{ACAD_REACTORS
330
C
102
}
330
C
100
AcDbDictionary
281
     1
  3
Normal
350
F
100
AcDbDictionaryWithDefault
340
F
  0
LAYOUT
  5
1E
102
{ACAD_REACTORS
330
1A
102
}
330
1A
100
AcDbPlotSettings
  1

  2

  4

  6

 40
0.0
 41
0.0
 42
0.0
 43
0.0
 44
0.0
 45
0.0
 46
0.0
 47
0.0
 48
0.0
 49
0.0
140
0.0
141
0.0
142
1.0
143
1.0
 70
   688
 72
     0
 73
     0
 74
     5
  7

 75
    16
 76
     0
 77
     2
 78
   300
147
1.0
148
0.0
149
0.0
100
AcDbLayout
  1
Layout1
 70
     1
 71
     1
 10
0.0
 20
0.0
 11
12.0
 21
9.0
 12
0.0
 22
0.0
 32
0.0
 14
1.000000000000000E+20
 24
1.000000000000000E+20
 34
1.000000000000000E+20
 15
-1.000000000000000E+20
 25
-1.000000000000000E+20
 35
-1.000000000000000E+20
146
0.0
 13
0.0
 23
0.0
 33
0.0
 16
1.0
 26
0.0
 36
0.0
 17
0.0
 27
1.0
 37
0.0
 76
     0
330
1B
  0
LAYOUT
  5
26
102
{ACAD_REACTORS
330
1A
102
}
330
1A
100
AcDbPlotSettings
  1

  2

  4

  6

 40
0.0
 41
0.0
 42
0.0
 43
0.0
 44
0.0
 45
0.0
 46
0.0
 47
0.0
 48
0.0
 49
0.0
140
0.0
141
0.0
142
1.0
143
1.0
 70
   688
 72
     0
 73
     0
 74
     5
  7

 75
    16
 76
     0
 77
     2
 78
   300
147
1.0
148
0.0
149
0.0
100
AcDbLayout
  1
Layout2
 70
     1
 71
     2
 10
0.0
 20
0.0
 11
0.0
 21
0.0
 12
0.0
 22
0.0
 32
0.0
 14
0.0
 24
0.0
 34
0.0
 15
0.0
 25
0.0
 35
0.0
146
0.0
 13
0.0
 23
0.0
 33
0.0
 16
1.0
 26
0.0
 36
0.0
 17
0.0
 27
1.0
 37
0.0
 76
     0
330
23
  0
LAYOUT
  5
22
102
{ACAD_REACTORS
330
1A
102
}
330
1A
100
AcDbPlotSettings
  1

  2

  4

  6

 40
0.0
 41
0.0
 42
0.0
 43
0.0
 44
0.0
 45
0.0
 46
0.0
 47
0.0
 48
0.0
 49
0.0
140
0.0
141
0.0
142
1.0
143
1.0
 70
  1712
 72
     0
 73
     0
 74
     0
  7

 75
     0
 76
     0
 77
     2
 78
   300
147
1.0
148
0.0
149
0.0
100
AcDbLayout
  1
Model
 70
     1
 71
     0
 10
0.0
 20
0.0
 11
0.0
 21
0.0
 12
0.0
 22
0.0
 32
0.0
 14
-162.4322
 24
-64.52930000000001
 34
0.0
 15
154.5061
 25
127.02
 35
0.0
146
0.0
 13
0.0
 23
0.0
 33
0.0
 16
1.0
 26
0.0
 36
0.0
 17
0.0
 27
1.0
 37
0.0
 76
     0
330
1F
  0
MLINESTYLE
  5
18
102
{ACAD_REACTORS
330
17
102
}
330
17
100
AcDbMlineStyle
  2
Standard
 70
     0
  3

 62
   256
 51
90.0
 52
90.0
 71
     2
 49
0.5
 62
   256
  6
BYLAYER
 49
-0.5
 62
   256
  6
BYLAYER
  0
ACDBPLACEHOLDER
  5
F
102
{ACAD_REACTORS
330
E
102
}
330
E
  0
ENDSEC
  0
EOF
